  0
SECTION
  2
HEADER
  9
$ACADVER
  1
AC1006
  9
$INSBASE
 10
0.000000
 20
0.000000
  9
$EXTMIN
 10
0.000000
 20
0.000000
  9
$EXTMAX
 10
199.643000
 20
286.680000
  9
$LIMMIN
 10
0.000000
 20
0.000000
  9
$LIMMAX
 10
199.643000
 20
286.680000
  9
$VIEWCTR
 10
99.821500
 20
143.340000
  9
$VIEWSIZE
 40
199.644000
  9
$SNAPMODE
 70
     0
  9
$SNAPUNIT
 10
1.000000
 20
1.000000
  9
$SNAPBASE
 10
0.000000
 20
0.000000
  9
$SNAPANG
 50
0.000000
  9
$SNAPISOPAIR
 70
     0
  9
$SNAPSTYLE
 70
     0
  9
$GRIDMODE
 70
     0
  9
$GRIDUNIT
 10
5.000000
 20
5.000000
  9
$ORTHOMODE
 70
     0
  9
$REGENMODE
 70
     1
  9
$FILLMODE
 70
     1
  9
$QTEXTMODE
 70
     0
  9
$DRAGMODE
 70
     2
  9
$LTSCALE
 40
1.000000
  9
$OSMODE
 70
     0
  9
$ATTMODE
 70
     1
  9
$TEXTSIZE
 40
3.175000
  9
$TEXTSTYLE
  7
STANDARD
  9
$TRACEWID
 40
0.050000
  9
$CLAYER
  8
1
  9
$CELTYPE
  6
BYLAYER
  9
$CECOLOR
 62
   256
  9
$DIMSCALE
 40
1.000000
  9
$DIMASZ
 40
1.000000
  9
$DIMEXO
 40
0.000000
  9
$DIMDLI
 40
0.500000
  9
$DIMRND
 40
0.000000
  9
$DIMDLE
 40
0.000000
  9
$DIMEXE
 40
0.000000
  9
$DIMTP
 40
0.000000
  9
$DIMTM
 40
0.000000
  9
$DIMTXT
 40
3.175000
  9
$DIMCEN
 40
0.000000
  9
$DIMTSZ
 40
0.000000
  9
$DIMTOL
 70
     0
  9
$DIMLIM
 70
     0
  9
$DIMTIH
 70
     1
  9
$DIMTOH
 70
     1
  9
$DIMSE1
 70
     0
  9
$DIMSE2
 70
     0
  9
$DIMTAD
 70
     0
  9
$DIMZIN
 70
     0
  9
$DIMBLK
  1

  9
$DIMASO
 70
     0
  9
$DIMSHO
 70
     0
  9
$DIMPOST
  1

  9
$DIMAPOST
  1

  9
$DIMALT
 70
     0
  9
$DIMALTD
 70
     0
  9
$DIMALTF
 40
1.000000
  9
$DIMLFAC
 40
0.000000
  9
$DIMTOFL
 70
     0
  9
$DIMTVP
 40
0.000000
  9
$DIMTIX
 70
     0
  9
$DIMSOXD
 70
     0
  9
$DIMSAH
 70
     0
  9
$DIMBLKL
  1

  9
$DIMBLKR
  1

  9
$LUNITS
 70
     2
  9
$LUPREC
 70
     2
  9
$AXISMODE
 70
     0
  9
$AXISUNIT
 10
1.000000
 20
1.000000
  9
$SKETCHINC
 40
1.000000
  9
$FILLETRAD
 40
0.000000
  9
$AUNITS
 70
     1
  9
$AUPREC
 70
     2
  9
$MENU
  1
ACAD
  9
$ELEVATION
 40
0.000000
  9
$THICKNESS
 40
0.000000
  9
$VIEWDIR
 10
0.000000
 20
0.000000
 30
1.000000
  9
$LIMCHECK
 70
     1
  9
$BLIPMODE
 70
     1
  9
$CHAMFERA
 40
0.000000
  9
$CHAMFERB
 40
0.000000
  9
$FASTZOOM
 70
     1
  9
$SKPOLY
 70
     0
  9
$TDCREATE
 40
0.000000
  9
$TDUPDATE
 40
0.000000
  9
$TDINDWG
 40
0.000000
  9
$TDUSRTIMER
 40
0.000000
  9
$USRTIMER
 70
     1
  9
$ANGBASE
 50
0.000000
  9
$ANGDIR
 70
     0
  9
$PDMODE
 70
     0
  9
$PDSIZE
 40
0.400000
  9
$PLINEWID
 40
0.000000
  9
$COORDS
 70
     2
  9
$USERI1
 70
     0
  9
$USERI2
 70
     0
  9
$USERI3
 70
     0
  9
$USERI4
 70
     0
  9
$USERI5
 70
     0
  9
$USERR1
 40
0.000000
  9
$USERR2
 40
0.000000
  9
$USERR3
 40
0.000000
  9
$USERR4
 40
0.000000
  9
$USERR5
 40
0.000000
  0
ENDSEC
  0
SECTION
  2
TABLES
  0
TABLE
  2
LTYPE
 70
     5
  0
LTYPE
  2
CONTINUOUS
 70
    64
  3
SolidLine
 72
    65
 73
     0
 40
0.0
  0
LTYPE
  2
HIDDEN
 70
    64
  3
- - - - - - - - - -
 72
    65
 73
     2
 40
3.000000
 49
2.000000
 49
-1.000000
  0
LTYPE
  2
DOT
 70
    64
  3
･･･････････････････
 72
    65
 73
     2
 40
2.000000
 49
0.500000
 49
-1.500000
  0
LTYPE
  2
DASHDOT
 70
    64
  3
-･-･-･-･-･-･-･-･-･-
 72
    65
 73
     4
 40
20.000000
 49
15.000000
 49
-2.000000
 49
1.000000
 49
-2.000000
  0
LTYPE
  2
DIVIDE
 70
    64
  3
-･･-･･-･･-･･-･･-･･-
 72
    65
 73
     6
 40
20.000000
 49
15.000000
 49
-1.000000
 49
1.000000
 49
-1.000000
 49
1.000000
 49
-1.000000
  0
ENDTAB
  0
TABLE
  2
LAYER
 70
    30
  0
LAYER
  2
CONTINUOUS
 70
    64
 62
     7
  6
CONTINUOUS
  0
LAYER
  2
HIDDEN
 70
    64
 62
     2
  6
HIDDEN
  0
LAYER
  2
DOT
 70
    64
 62
     7
  6
DOT
  0
LAYER
  2
DASHDOT
 70
    64
 62
     6
  6
DASHDOT
  0
LAYER
  2
DIVIDE
 70
    64
 62
     5
  6
DIVIDE
  0
LAYER
  2
DIMENSION
 70
    64
 62
     7
  6
CONTINUOUS
  0
LAYER
  2
1
70
  0
62
  7
6
CONTINUOUS
  0
LAYER
  2
2
70
  0
62
  7
6
CONTINUOUS
  0
LAYER
  2
3
70
  0
62
  7
6
CONTINUOUS
  0
LAYER
  2
4
70
  0
62
  7
6
CONTINUOUS
  0
LAYER
  2
5
70
  0
62
  7
6
CONTINUOUS
  0
LAYER
  2
6
70
  0
62
  7
6
CONTINUOUS
  0
LAYER
  2
7
70
  0
62
  7
6
CONTINUOUS
  0
LAYER
  2
8
70
  0
62
  7
6
CONTINUOUS
  0
LAYER
  2
9
70
  0
62
  7
6
CONTINUOUS
  0
LAYER
  2
10
70
  0
62
  7
6
CONTINUOUS
  0
LAYER
  2
11
70
  0
62
  7
6
CONTINUOUS
  0
LAYER
  2
12
70
  0
62
  7
6
CONTINUOUS
  0
LAYER
  2
13
70
  0
62
  7
6
CONTINUOUS
  0
LAYER
  2
14
70
  0
62
  7
6
CONTINUOUS
  0
LAYER
  2
15
70
  0
62
  7
6
CONTINUOUS
  0
LAYER
  2
16
70
  0
62
  7
6
CONTINUOUS
  0
LAYER
  2
17
70
  0
62
  7
6
CONTINUOUS
  0
LAYER
  2
18
70
  0
62
  7
6
CONTINUOUS
  0
LAYER
  2
19
70
  0
62
  7
6
CONTINUOUS
  0
LAYER
  2
HATCH
70
  0
62
  7
6
CONTINUOUS
  0
LAYER
  2
GUIDE1
70
  0
62
  4
6
DASHDOT
  0
LAYER
  2
GUIDE2
70
  0
62
  4
6
DASHDOT
  0
LAYER
  2
GUIDE3
70
  0
62
  4
6
DASHDOT
  0
LAYER
  2
GUIDE4
70
  0
62
  4
6
DASHDOT
  0
ENDTAB
  0
TABLE
  2
STYLE
 70
     1
  0
STYLE
  2
STANDARD
 70
    64
 40
0.000000
 41
1.000000
 50
0.000000
 71
     0
 42
3.000000
  3
TXT
  4

  0
STYLE
  2
KANJI
 70
    64
 40
0.000000
 41
1.000000
 50
0.000000
 71
     0
 42
3.000000
  3
TXT
  4
BIGFONT
  0
ENDTAB
  0
TABLE
  2
VIEW
 70
     0
  0
ENDTAB
  0
ENDSEC
  0
SECTION
  2
ENTITIES
  0
TEXT
  8
1
 10
83.357
 20
270.208
 40
4.000
 41
0.750
  1
Ｃ２
  7
KANJI
 50
0.000
 51
0.000
  0
POLYLINE
  6
CONTINUOUS
  8
1
 66
     1
 70
     2
  0
VERTEX
  6
CONTINUOUS
  8
1
 10
49.638
 20
276.170
  0
VERTEX
  6
CONTINUOUS
  8
1
 10
49.635
 20
276.257
  0
VERTEX
  6
CONTINUOUS
  8
1
 10
49.627
 20
276.344
  0
VERTEX
  6
CONTINUOUS
  8
1
 10
49.614
 20
276.432
  0
VERTEX
  6
CONTINUOUS
  8
1
 10
49.596
 20
276.519
  0
VERTEX
  6
CONTINUOUS
  8
1
 10
49.575
 20
276.605
  0
VERTEX
  6
CONTINUOUS
  8
1
 10
49.549
 20
276.692
  0
VERTEX
  6
CONTINUOUS
  8
1
 10
49.518
 20
276.778
  0
VERTEX
  6
CONTINUOUS
  8
1
 10
49.483
 20
276.864
  0
VERTEX
  6
CONTINUOUS
  8
1
 10
49.443
 20
276.950
  0
VERTEX
  6
CONTINUOUS
  8
1
 10
49.399
 20
277.035
  0
VERTEX
  6
CONTINUOUS
  8
1
 10
49.350
 20
277.120
  0
VERTEX
  6
CONTINUOUS
  8
1
 10
49.297
 20
277.205
  0
VERTEX
  6
CONTINUOUS
  8
1
 10
49.240
 20
277.290
  0
VERTEX
  6
CONTINUOUS
  8
1
 10
49.177
 20
277.373
  0
VERTEX
  6
CONTINUOUS
  8
1
 10
49.111
 20
277.457
  0
VERTEX
  6
CONTINUOUS
  8
1
 10
49.039
 20
277.541
  0
VERTEX
  6
CONTINUOUS
  8
1
 10
48.964
 20
277.624
  0
VERTEX
  6
CONTINUOUS
  8
1
 10
48.884
 20
277.706
  0
VERTEX
  6
CONTINUOUS
  8
1
 10
48.800
 20
277.788
  0
VERTEX
  6
CONTINUOUS
  8
1
 10
48.711
 20
277.868
  0
VERTEX
  6
CONTINUOUS
  8
1
 10
48.619
 20
277.948
  0
VERTEX
  6
CONTINUOUS
  8
1
 10
48.522
 20
278.029
  0
VERTEX
  6
CONTINUOUS
  8
1
 10
48.420
 20
278.108
  0
VERTEX
  6
CONTINUOUS
  8
1
 10
48.315
 20
278.187
  0
VERTEX
  6
CONTINUOUS
  8
1
 10
48.206
 20
278.265
  0
VERTEX
  6
CONTINUOUS
  8
1
 10
48.092
 20
278.342
  0
VERTEX
  6
CONTINUOUS
  8
1
 10
47.974
 20
278.418
  0
VERTEX
  6
CONTINUOUS
  8
1
 10
47.852
 20
278.495
  0
VERTEX
  6
CONTINUOUS
  8
1
 10
47.726
 20
278.570
  0
VERTEX
  6
CONTINUOUS
  8
1
 10
47.596
 20
278.644
  0
VERTEX
  6
CONTINUOUS
  8
1
 10
47.463
 20
278.718
  0
VERTEX
  6
CONTINUOUS
  8
1
 10
47.326
 20
278.790
  0
VERTEX
  6
CONTINUOUS
  8
1
 10
47.184
 20
278.862
  0
VERTEX
  6
CONTINUOUS
  8
1
 10
47.038
 20
278.932
  0
VERTEX
  6
CONTINUOUS
  8
1
 10
46.889
 20
279.003
  0
VERTEX
  6
CONTINUOUS
  8
1
 10
46.736
 20
279.072
  0
VERTEX
  6
CONTINUOUS
  8
1
 10
46.579
 20
279.140
  0
VERTEX
  6
CONTINUOUS
  8
1
 10
46.419
 20
279.208
  0
VERTEX
  6
CONTINUOUS
  8
1
 10
46.255
 20
279.274
  0
VERTEX
  6
CONTINUOUS
  8
1
 10
46.088
 20
279.339
  0
VERTEX
  6
CONTINUOUS
  8
1
 10
45.917
 20
279.403
  0
VERTEX
  6
CONTINUOUS
  8
1
 10
45.743
 20
279.466
  0
VERTEX
  6
CONTINUOUS
  8
1
 10
45.565
 20
279.528
  0
VERTEX
  6
CONTINUOUS
  8
1
 10
45.384
 20
279.590
  0
VERTEX
  6
CONTINUOUS
  8
1
 10
45.200
 20
279.649
  0
VERTEX
  6
CONTINUOUS
  8
1
 10
45.013
 20
279.708
  0
VERTEX
  6
CONTINUOUS
  8
1
 10
44.822
 20
279.766
  0
VERTEX
  6
CONTINUOUS
  8
1
 10
44.628
 20
279.822
  0
VERTEX
  6
CONTINUOUS
  8
1
 10
44.432
 20
279.878
  0
VERTEX
  6
CONTINUOUS
  8
1
 10
44.231
 20
279.931
  0
VERTEX
  6
CONTINUOUS
  8
1
 10
44.028
 20
279.985
  0
VERTEX
  6
CONTINUOUS
  8
1
 10
43.824
 20
280.036
  0
VERTEX
  6
CONTINUOUS
  8
1
 10
43.615
 20
280.086
  0
VERTEX
  6
CONTINUOUS
  8
1
 10
43.403
 20
280.136
  0
VERTEX
  6
CONTINUOUS
  8
1
 10
43.190
 20
280.184
  0
VERTEX
  6
CONTINUOUS
  8
1
 10
42.973
 20
280.230
  0
VERTEX
  6
CONTINUOUS
  8
1
 10
42.755
 20
280.277
  0
VERTEX
  6
CONTINUOUS
  8
1
 10
42.533
 20
280.320
  0
VERTEX
  6
CONTINUOUS
  8
1
 10
42.309
 20
280.363
  0
VERTEX
  6
CONTINUOUS
  8
1
 10
42.084
 20
280.404
  0
VERTEX
  6
CONTINUOUS
  8
1
 10
41.855
 20
280.444
  0
VERTEX
  6
CONTINUOUS
  8
1
 10
41.625
 20
280.483
  0
VERTEX
  6
CONTINUOUS
  8
1
 10
41.391
 20
280.520
  0
VERTEX
  6
CONTINUOUS
  8
1
 10
41.157
 20
280.557
  0
VERTEX
  6
CONTINUOUS
  8
1
 10
40.920
 20
280.592
  0
VERTEX
  6
CONTINUOUS
  8
1
 10
40.681
 20
280.625
  0
VERTEX
  6
CONTINUOUS
  8
1
 10
40.441
 20
280.656
  0
VERTEX
  6
CONTINUOUS
  8
1
 10
40.198
 20
280.686
  0
VERTEX
  6
CONTINUOUS
  8
1
 10
39.955
 20
280.715
  0
VERTEX
  6
CONTINUOUS
  8
1
 10
39.709
 20
280.743
  0
VERTEX
  6
CONTINUOUS
  8
1
 10
39.462
 20
280.769
  0
VERTEX
  6
CONTINUOUS
  8
1
 10
39.214
 20
280.793
  0
VERTEX
  6
CONTINUOUS
  8
1
 10
38.963
 20
280.817
  0
VERTEX
  6
CONTINUOUS
  8
1
 10
38.712
 20
280.838
  0
VERTEX
  6
CONTINUOUS
  8
1
 10
38.460
 20
280.859
  0
VERTEX
  6
CONTINUOUS
  8
1
 10
38.206
 20
280.877
  0
VERTEX
  6
CONTINUOUS
  8
1
 10
37.950
 20
280.894
  0
VERTEX
  6
CONTINUOUS
  8
1
 10
37.695
 20
280.910
  0
VERTEX
  6
CONTINUOUS
  8
1
 10
37.438
 20
280.924
  0
VERTEX
  6
CONTINUOUS
  8
1
 10
37.181
 20
280.936
  0
VERTEX
  6
CONTINUOUS
  8
1
 10
36.923
 20
280.947
  0
VERTEX
  6
CONTINUOUS
  8
1
 10
36.663
 20
280.957
  0
VERTEX
  6
CONTINUOUS
  8
1
 10
36.403
 20
280.966
  0
VERTEX
  6
CONTINUOUS
  8
1
 10
36.143
 20
280.972
  0
VERTEX
  6
CONTINUOUS
  8
1
 10
35.882
 20
280.977
  0
VERTEX
  6
CONTINUOUS
  8
1
 10
35.621
 20
280.981
  0
VERTEX
  6
CONTINUOUS
  8
1
 10
35.360
 20
280.982
  0
VERTEX
  6
CONTINUOUS
  8
1
 10
35.099
 20
280.983
  0
VERTEX
  6
CONTINUOUS
  8
1
 10
34.837
 20
280.982
  0
VERTEX
  6
CONTINUOUS
  8
1
 10
34.575
 20
280.980
  0
VERTEX
  6
CONTINUOUS
  8
1
 10
34.313
 20
280.975
  0
VERTEX
  6
CONTINUOUS
  8
1
 10
34.051
 20
280.970
  0
VERTEX
  6
CONTINUOUS
  8
1
 10
33.790
 20
280.963
  0
VERTEX
  6
CONTINUOUS
  8
1
 10
33.529
 20
280.954
  0
VERTEX
  6
CONTINUOUS
  8
1
 10
33.268
 20
280.944
  0
VERTEX
  6
CONTINUOUS
  8
1
 10
33.007
 20
280.933
  0
VERTEX
  6
CONTINUOUS
  8
1
 10
32.748
 20
280.920
  0
VERTEX
  6
CONTINUOUS
  8
1
 10
32.488
 20
280.904
  0
VERTEX
  6
CONTINUOUS
  8
1
 10
32.229
 20
280.888
  0
VERTEX
  6
CONTINUOUS
  8
1
 10
31.971
 20
280.871
  0
VERTEX
  6
CONTINUOUS
  8
1
 10
31.714
 20
280.852
  0
VERTEX
  6
CONTINUOUS
  8
1
 10
31.458
 20
280.831
  0
VERTEX
  6
CONTINUOUS
  8
1
 10
31.203
 20
280.809
  0
VERTEX
  6
CONTINUOUS
  8
1
 10
30.948
 20
280.786
  0
VERTEX
  6
CONTINUOUS
  8
1
 10
30.694
 20
280.761
  0
VERTEX
  6
CONTINUOUS
  8
1
 10
30.443
 20
280.734
  0
VERTEX
  6
CONTINUOUS
  8
1
 10
30.192
 20
280.706
  0
VERTEX
  6
CONTINUOUS
  8
1
 10
29.942
 20
280.676
  0
VERTEX
  6
CONTINUOUS
  8
1
 10
29.695
 20
280.646
  0
VERTEX
  6
CONTINUOUS
  8
1
 10
29.448
 20
280.614
  0
VERTEX
  6
CONTINUOUS
  8
1
 10
29.204
 20
280.580
  0
VERTEX
  6
CONTINUOUS
  8
1
 10
28.961
 20
280.545
  0
VERTEX
  6
CONTINUOUS
  8
1
 10
28.719
 20
280.509
  0
VERTEX
  6
CONTINUOUS
  8
1
 10
28.480
 20
280.471
  0
VERTEX
  6
CONTINUOUS
  8
1
 10
28.241
 20
280.432
  0
VERTEX
  6
CONTINUOUS
  8
1
 10
28.006
 20
280.391
  0
VERTEX
  6
CONTINUOUS
  8
1
 10
27.772
 20
280.349
  0
VERTEX
  6
CONTINUOUS
  8
1
 10
27.540
 20
280.306
  0
VERTEX
  6
CONTINUOUS
  8
1
 10
27.310
 20
280.261
  0
VERTEX
  6
CONTINUOUS
  8
1
 10
27.084
 20
280.215
  0
VERTEX
  6
CONTINUOUS
  8
1
 10
26.859
 20
280.168
  0
VERTEX
  6
CONTINUOUS
  8
1
 10
26.636
 20
280.119
  0
VERTEX
  6
CONTINUOUS
  8
1
 10
26.416
 20
280.071
  0
VERTEX
  6
CONTINUOUS
  8
1
 10
26.198
 20
280.019
  0
VERTEX
  6
CONTINUOUS
  8
1
 10
25.983
 20
279.967
  0
VERTEX
  6
CONTINUOUS
  8
1
 10
25.771
 20
279.914
  0
VERTEX
  6
CONTINUOUS
  8
1
 10
25.560
 20
279.859
  0
VERTEX
  6
CONTINUOUS
  8
1
 10
25.353
 20
279.803
  0
VERTEX
  6
CONTINUOUS
  8
1
 10
25.150
 20
279.747
  0
VERTEX
  6
CONTINUOUS
  8
1
 10
24.949
 20
279.688
  0
VERTEX
  6
CONTINUOUS
  8
1
 10
24.749
 20
279.630
  0
VERTEX
  6
CONTINUOUS
  8
1
 10
24.554
 20
279.569
  0
VERTEX
  6
CONTINUOUS
  8
1
 10
24.362
 20
279.508
  0
VERTEX
  6
CONTINUOUS
  8
1
 10
24.173
 20
279.445
  0
VERTEX
  6
CONTINUOUS
  8
1
 10
23.987
 20
279.382
  0
VERTEX
  6
CONTINUOUS
  8
1
 10
23.804
 20
279.318
  0
VERTEX
  6
CONTINUOUS
  8
1
 10
23.625
 20
279.251
  0
VERTEX
  6
CONTINUOUS
  8
1
 10
23.449
 20
279.185
  0
VERTEX
  6
CONTINUOUS
  8
1
 10
23.277
 20
279.118
  0
VERTEX
  6
CONTINUOUS
  8
1
 10
23.107
 20
279.049
  0
VERTEX
  6
CONTINUOUS
  8
1
 10
22.941
 20
278.980
  0
VERTEX
  6
CONTINUOUS
  8
1
 10
22.779
 20
278.910
  0
VERTEX
  6
CONTINUOUS
  8
1
 10
22.621
 20
278.838
  0
VERTEX
  6
CONTINUOUS
  8
1
 10
22.466
 20
278.766
  0
VERTEX
  6
CONTINUOUS
  8
1
 10
22.315
 20
278.693
  0
VERTEX
  6
CONTINUOUS
  8
1
 10
22.168
 20
278.619
  0
VERTEX
  6
CONTINUOUS
  8
1
 10
22.024
 20
278.545
  0
VERTEX
  6
CONTINUOUS
  8
1
 10
21.884
 20
278.469
  0
VERTEX
  6
CONTINUOUS
  8
1
 10
21.749
 20
278.394
  0
VERTEX
  6
CONTINUOUS
  8
1
 10
21.617
 20
278.316
  0
VERTEX
  6
CONTINUOUS
  8
1
 10
21.488
 20
278.239
  0
VERTEX
  6
CONTINUOUS
  8
1
 10
21.364
 20
278.161
  0
VERTEX
  6
CONTINUOUS
  8
1
 10
21.244
 20
278.081
  0
VERTEX
  6
CONTINUOUS
  8
1
 10
21.128
 20
278.002
  0
VERTEX
  6
CONTINUOUS
  8
1
 10
21.016
 20
277.923
  0
VERTEX
  6
CONTINUOUS
  8
1
 10
20.909
 20
277.841
  0
VERTEX
  6
CONTINUOUS
  8
1
 10
20.806
 20
277.760
  0
VERTEX
  6
CONTINUOUS
  8
1
 10
20.707
 20
277.679
  0
VERTEX
  6
CONTINUOUS
  8
1
 10
20.612
 20
277.595
  0
VERTEX
  6
CONTINUOUS
  8
1
 10
20.522
 20
277.513
  0
VERTEX
  6
CONTINUOUS
  8
1
 10
20.435
 20
277.430
  0
VERTEX
  6
CONTINUOUS
  8
1
 10
20.353
 20
277.346
  0
VERTEX
  6
CONTINUOUS
  8
1
 10
20.275
 20
277.262
  0
VERTEX
  6
CONTINUOUS
  8
1
 10
20.202
 20
277.177
  0
VERTEX
  6
CONTINUOUS
  8
1
 10
20.133
 20
277.092
  0
VERTEX
  6
CONTINUOUS
  8
1
 10
20.069
 20
277.006
  0
VERTEX
  6
CONTINUOUS
  8
1
 10
20.008
 20
276.922
  0
VERTEX
  6
CONTINUOUS
  8
1
 10
19.953
 20
276.835
  0
VERTEX
  6
CONTINUOUS
  8
1
 10
19.902
 20
276.749
  0
VERTEX
  6
CONTINUOUS
  8
1
 10
19.855
 20
276.663
  0
VERTEX
  6
CONTINUOUS
  8
1
 10
19.813
 20
276.576
  0
VERTEX
  6
CONTINUOUS
  8
1
 10
19.775
 20
276.490
  0
VERTEX
  6
CONTINUOUS
  8
1
 10
19.743
 20
276.402
  0
VERTEX
  6
CONTINUOUS
  8
1
 10
19.714
 20
276.316
  0
VERTEX
  6
CONTINUOUS
  8
1
 10
19.690
 20
276.229
  0
VERTEX
  6
CONTINUOUS
  8
1
 10
19.671
 20
276.141
  0
VERTEX
  6
CONTINUOUS
  8
1
 10
19.656
 20
276.054
  0
VERTEX
  6
CONTINUOUS
  8
1
 10
19.645
 20
275.966
  0
VERTEX
  6
CONTINUOUS
  8
1
 10
19.639
 20
275.879
  0
VERTEX
  6
CONTINUOUS
  8
1
 10
19.638
 20
275.792
  0
VERTEX
  6
CONTINUOUS
  8
1
 10
19.641
 20
275.705
  0
VERTEX
  6
CONTINUOUS
  8
1
 10
19.649
 20
275.618
  0
VERTEX
  6
CONTINUOUS
  8
1
 10
19.662
 20
275.530
  0
VERTEX
  6
CONTINUOUS
  8
1
 10
19.680
 20
275.443
  0
VERTEX
  6
CONTINUOUS
  8
1
 10
19.701
 20
275.357
  0
VERTEX
  6
CONTINUOUS
  8
1
 10
19.727
 20
275.270
  0
VERTEX
  6
CONTINUOUS
  8
1
 10
19.758
 20
275.184
  0
VERTEX
  6
CONTINUOUS
  8
1
 10
19.793
 20
275.098
  0
VERTEX
  6
CONTINUOUS
  8
1
 10
19.833
 20
275.012
  0
VERTEX
  6
CONTINUOUS
  8
1
 10
19.877
 20
274.927
  0
VERTEX
  6
CONTINUOUS
  8
1
 10
19.926
 20
274.842
  0
VERTEX
  6
CONTINUOUS
  8
1
 10
19.979
 20
274.757
  0
VERTEX
  6
CONTINUOUS
  8
1
 10
20.036
 20
274.672
  0
VERTEX
  6
CONTINUOUS
  8
1
 10
20.099
 20
274.589
  0
VERTEX
  6
CONTINUOUS
  8
1
 10
20.165
 20
274.505
  0
VERTEX
  6
CONTINUOUS
  8
1
 10
20.237
 20
274.421
  0
VERTEX
  6
CONTINUOUS
  8
1
 10
20.312
 20
274.338
  0
VERTEX
  6
CONTINUOUS
  8
1
 10
20.392
 20
274.256
  0
VERTEX
  6
CONTINUOUS
  8
1
 10
20.476
 20
274.174
  0
VERTEX
  6
CONTINUOUS
  8
1
 10
20.565
 20
274.094
  0
VERTEX
  6
CONTINUOUS
  8
1
 10
20.657
 20
274.014
  0
VERTEX
  6
CONTINUOUS
  8
1
 10
20.754
 20
273.933
  0
VERTEX
  6
CONTINUOUS
  8
1
 10
20.856
 20
273.854
  0
VERTEX
  6
CONTINUOUS
  8
1
 10
20.961
 20
273.775
  0
VERTEX
  6
CONTINUOUS
  8
1
 10
21.070
 20
273.697
  0
VERTEX
  6
CONTINUOUS
  8
1
 10
21.184
 20
273.620
  0
VERTEX
  6
CONTINUOUS
  8
1
 10
21.302
 20
273.544
  0
VERTEX
  6
CONTINUOUS
  8
1
 10
21.424
 20
273.467
  0
VERTEX
  6
CONTINUOUS
  8
1
 10
21.550
 20
273.392
  0
VERTEX
  6
CONTINUOUS
  8
1
 10
21.680
 20
273.318
  0
VERTEX
  6
CONTINUOUS
  8
1
 10
21.813
 20
273.244
  0
VERTEX
  6
CONTINUOUS
  8
1
 10
21.950
 20
273.172
  0
VERTEX
  6
CONTINUOUS
  8
1
 10
22.092
 20
273.100
  0
VERTEX
  6
CONTINUOUS
  8
1
 10
22.238
 20
273.030
  0
VERTEX
  6
CONTINUOUS
  8
1
 10
22.387
 20
272.959
  0
VERTEX
  6
CONTINUOUS
  8
1
 10
22.540
 20
272.890
  0
VERTEX
  6
CONTINUOUS
  8
1
 10
22.697
 20
272.822
  0
VERTEX
  6
CONTINUOUS
  8
1
 10
22.857
 20
272.754
  0
VERTEX
  6
CONTINUOUS
  8
1
 10
23.021
 20
272.688
  0
VERTEX
  6
CONTINUOUS
  8
1
 10
23.188
 20
272.623
  0
VERTEX
  6
CONTINUOUS
  8
1
 10
23.359
 20
272.559
  0
VERTEX
  6
CONTINUOUS
  8
1
 10
23.533
 20
272.496
  0
VERTEX
  6
CONTINUOUS
  8
1
 10
23.711
 20
272.434
  0
VERTEX
  6
CONTINUOUS
  8
1
 10
23.892
 20
272.372
  0
VERTEX
  6
CONTINUOUS
  8
1
 10
24.076
 20
272.313
  0
VERTEX
  6
CONTINUOUS
  8
1
 10
24.263
 20
272.254
  0
VERTEX
  6
CONTINUOUS
  8
1
 10
24.454
 20
272.196
  0
VERTEX
  6
CONTINUOUS
  8
1
 10
24.648
 20
272.140
  0
VERTEX
  6
CONTINUOUS
  8
1
 10
24.844
 20
272.084
  0
VERTEX
  6
CONTINUOUS
  8
1
 10
25.045
 20
272.031
  0
VERTEX
  6
CONTINUOUS
  8
1
 10
25.248
 20
271.977
  0
VERTEX
  6
CONTINUOUS
  8
1
 10
25.452
 20
271.926
  0
VERTEX
  6
CONTINUOUS
  8
1
 10
25.661
 20
271.876
  0
VERTEX
  6
CONTINUOUS
  8
1
 10
25.873
 20
271.826
  0
VERTEX
  6
CONTINUOUS
  8
1
 10
26.086
 20
271.778
  0
VERTEX
  6
CONTINUOUS
  8
1
 10
26.303
 20
271.732
  0
VERTEX
  6
CONTINUOUS
  8
1
 10
26.521
 20
271.685
  0
VERTEX
  6
CONTINUOUS
  8
1
 10
26.743
 20
271.642
  0
VERTEX
  6
CONTINUOUS
  8
1
 10
26.967
 20
271.599
  0
VERTEX
  6
CONTINUOUS
  8
1
 10
27.192
 20
271.558
  0
VERTEX
  6
CONTINUOUS
  8
1
 10
27.421
 20
271.518
  0
VERTEX
  6
CONTINUOUS
  8
1
 10
27.651
 20
271.479
  0
VERTEX
  6
CONTINUOUS
  8
1
 10
27.885
 20
271.442
  0
VERTEX
  6
CONTINUOUS
  8
1
 10
28.119
 20
271.405
  0
VERTEX
  6
CONTINUOUS
  8
1
 10
28.356
 20
271.370
  0
VERTEX
  6
CONTINUOUS
  8
1
 10
28.595
 20
271.337
  0
VERTEX
  6
CONTINUOUS
  8
1
 10
28.835
 20
271.306
  0
VERTEX
  6
CONTINUOUS
  8
1
 10
29.078
 20
271.276
  0
VERTEX
  6
CONTINUOUS
  8
1
 10
29.321
 20
271.247
  0
VERTEX
  6
CONTINUOUS
  8
1
 10
29.567
 20
271.219
  0
VERTEX
  6
CONTINUOUS
  8
1
 10
29.814
 20
271.193
  0
VERTEX
  6
CONTINUOUS
  8
1
 10
30.062
 20
271.169
  0
VERTEX
  6
CONTINUOUS
  8
1
 10
30.313
 20
271.145
  0
VERTEX
  6
CONTINUOUS
  8
1
 10
30.564
 20
271.124
  0
VERTEX
  6
CONTINUOUS
  8
1
 10
30.816
 20
271.103
  0
VERTEX
  6
CONTINUOUS
  8
1
 10
31.070
 20
271.085
  0
VERTEX
  6
CONTINUOUS
  8
1
 10
31.326
 20
271.068
  0
VERTEX
  6
CONTINUOUS
  8
1
 10
31.581
 20
271.052
  0
VERTEX
  6
CONTINUOUS
  8
1
 10
31.838
 20
271.038
  0
VERTEX
  6
CONTINUOUS
  8
1
 10
32.095
 20
271.026
  0
VERTEX
  6
CONTINUOUS
  8
1
 10
32.353
 20
271.015
  0
VERTEX
  6
CONTINUOUS
  8
1
 10
32.613
 20
271.005
  0
VERTEX
  6
CONTINUOUS
  8
1
 10
32.873
 20
270.996
  0
VERTEX
  6
CONTINUOUS
  8
1
 10
33.133
 20
270.990
  0
VERTEX
  6
CONTINUOUS
  8
1
 10
33.394
 20
270.985
  0
VERTEX
  6
CONTINUOUS
  8
1
 10
33.655
 20
270.981
  0
VERTEX
  6
CONTINUOUS
  8
1
 10
33.916
 20
270.980
  0
VERTEX
  6
CONTINUOUS
  8
1
 10
34.177
 20
270.979
  0
VERTEX
  6
CONTINUOUS
  8
1
 10
34.439
 20
270.980
  0
VERTEX
  6
CONTINUOUS
  8
1
 10
34.701
 20
270.982
  0
VERTEX
  6
CONTINUOUS
  8
1
 10
34.963
 20
270.987
  0
VERTEX
  6
CONTINUOUS
  8
1
 10
35.225
 20
270.992
  0
VERTEX
  6
CONTINUOUS
  8
1
 10
35.486
 20
270.999
  0
VERTEX
  6
CONTINUOUS
  8
1
 10
35.747
 20
271.008
  0
VERTEX
  6
CONTINUOUS
  8
1
 10
36.008
 20
271.018
  0
VERTEX
  6
CONTINUOUS
  8
1
 10
36.269
 20
271.029
  0
VERTEX
  6
CONTINUOUS
  8
1
 10
36.528
 20
271.042
  0
VERTEX
  6
CONTINUOUS
  8
1
 10
36.788
 20
271.058
  0
VERTEX
  6
CONTINUOUS
  8
1
 10
37.047
 20
271.074
  0
VERTEX
  6
CONTINUOUS
  8
1
 10
37.305
 20
271.091
  0
VERTEX
  6
CONTINUOUS
  8
1
 10
37.562
 20
271.110
  0
VERTEX
  6
CONTINUOUS
  8
1
 10
37.818
 20
271.131
  0
VERTEX
  6
CONTINUOUS
  8
1
 10
38.073
 20
271.153
  0
VERTEX
  6
CONTINUOUS
  8
1
 10
38.328
 20
271.176
  0
VERTEX
  6
CONTINUOUS
  8
1
 10
38.582
 20
271.201
  0
VERTEX
  6
CONTINUOUS
  8
1
 10
38.833
 20
271.228
  0
VERTEX
  6
CONTINUOUS
  8
1
 10
39.084
 20
271.256
  0
VERTEX
  6
CONTINUOUS
  8
1
 10
39.334
 20
271.286
  0
VERTEX
  6
CONTINUOUS
  8
1
 10
39.581
 20
271.316
  0
VERTEX
  6
CONTINUOUS
  8
1
 10
39.828
 20
271.348
  0
VERTEX
  6
CONTINUOUS
  8
1
 10
40.072
 20
271.382
  0
VERTEX
  6
CONTINUOUS
  8
1
 10
40.315
 20
271.417
  0
VERTEX
  6
CONTINUOUS
  8
1
 10
40.557
 20
271.453
  0
VERTEX
  6
CONTINUOUS
  8
1
 10
40.796
 20
271.491
  0
VERTEX
  6
CONTINUOUS
  8
1
 10
41.035
 20
271.530
  0
VERTEX
  6
CONTINUOUS
  8
1
 10
41.270
 20
271.571
  0
VERTEX
  6
CONTINUOUS
  8
1
 10
41.504
 20
271.613
  0
VERTEX
  6
CONTINUOUS
  8
1
 10
41.736
 20
271.656
  0
VERTEX
  6
CONTINUOUS
  8
1
 10
41.966
 20
271.701
  0
VERTEX
  6
CONTINUOUS
  8
1
 10
42.193
 20
271.747
  0
VERTEX
  6
CONTINUOUS
  8
1
 10
42.417
 20
271.794
  0
VERTEX
  6
CONTINUOUS
  8
1
 10
42.640
 20
271.843
  0
VERTEX
  6
CONTINUOUS
  8
1
 10
42.860
 20
271.891
  0
VERTEX
  6
CONTINUOUS
  8
1
 10
43.078
 20
271.943
  0
VERTEX
  6
CONTINUOUS
  8
1
 10
43.293
 20
271.995
  0
VERTEX
  6
CONTINUOUS
  8
1
 10
43.505
 20
272.048
  0
VERTEX
  6
CONTINUOUS
  8
1
 10
43.716
 20
272.103
  0
VERTEX
  6
CONTINUOUS
  8
1
 10
43.923
 20
272.159
  0
VERTEX
  6
CONTINUOUS
  8
1
 10
44.126
 20
272.215
  0
VERTEX
  6
CONTINUOUS
  8
1
 10
44.327
 20
272.274
  0
VERTEX
  6
CONTINUOUS
  8
1
 10
44.527
 20
272.332
  0
VERTEX
  6
CONTINUOUS
  8
1
 10
44.722
 20
272.393
  0
VERTEX
  6
CONTINUOUS
  8
1
 10
44.914
 20
272.454
  0
VERTEX
  6
CONTINUOUS
  8
1
 10
45.103
 20
272.517
  0
VERTEX
  6
CONTINUOUS
  8
1
 10
45.289
 20
272.580
  0
VERTEX
  6
CONTINUOUS
  8
1
 10
45.472
 20
272.644
  0
VERTEX
  6
CONTINUOUS
  8
1
 10
45.651
 20
272.711
  0
VERTEX
  6
CONTINUOUS
  8
1
 10
45.827
 20
272.777
  0
VERTEX
  6
CONTINUOUS
  8
1
 10
45.999
 20
272.844
  0
VERTEX
  6
CONTINUOUS
  8
1
 10
46.169
 20
272.913
  0
VERTEX
  6
CONTINUOUS
  8
1
 10
46.335
 20
272.982
  0
VERTEX
  6
CONTINUOUS
  8
1
 10
46.497
 20
273.052
  0
VERTEX
  6
CONTINUOUS
  8
1
 10
46.655
 20
273.124
  0
VERTEX
  6
CONTINUOUS
  8
1
 10
46.810
 20
273.196
  0
VERTEX
  6
CONTINUOUS
  8
1
 10
46.961
 20
273.269
  0
VERTEX
  6
CONTINUOUS
  8
1
 10
47.108
 20
273.343
  0
VERTEX
  6
CONTINUOUS
  8
1
 10
47.252
 20
273.417
  0
VERTEX
  6
CONTINUOUS
  8
1
 10
47.392
 20
273.493
  0
VERTEX
  6
CONTINUOUS
  8
1
 10
47.527
 20
273.568
  0
VERTEX
  6
CONTINUOUS
  8
1
 10
47.659
 20
273.645
  0
VERTEX
  6
CONTINUOUS
  8
1
 10
47.788
 20
273.723
  0
VERTEX
  6
CONTINUOUS
  8
1
 10
47.912
 20
273.801
  0
VERTEX
  6
CONTINUOUS
  8
1
 10
48.032
 20
273.881
  0
VERTEX
  6
CONTINUOUS
  8
1
 10
48.148
 20
273.960
  0
VERTEX
  6
CONTINUOUS
  8
1
 10
48.260
 20
274.039
  0
VERTEX
  6
CONTINUOUS
  8
1
 10
48.367
 20
274.121
  0
VERTEX
  6
CONTINUOUS
  8
1
 10
48.470
 20
274.202
  0
VERTEX
  6
CONTINUOUS
  8
1
 10
48.569
 20
274.283
  0
VERTEX
  6
CONTINUOUS
  8
1
 10
48.664
 20
274.367
  0
VERTEX
  6
CONTINUOUS
  8
1
 10
48.754
 20
274.449
  0
VERTEX
  6
CONTINUOUS
  8
1
 10
48.841
 20
274.532
  0
VERTEX
  6
CONTINUOUS
  8
1
 10
48.923
 20
274.616
  0
VERTEX
  6
CONTINUOUS
  8
1
 10
49.001
 20
274.700
  0
VERTEX
  6
CONTINUOUS
  8
1
 10
49.074
 20
274.785
  0
VERTEX
  6
CONTINUOUS
  8
1
 10
49.143
 20
274.870
  0
VERTEX
  6
CONTINUOUS
  8
1
 10
49.207
 20
274.956
  0
VERTEX
  6
CONTINUOUS
  8
1
 10
49.268
 20
275.040
  0
VERTEX
  6
CONTINUOUS
  8
1
 10
49.323
 20
275.127
  0
VERTEX
  6
CONTINUOUS
  8
1
 10
49.374
 20
275.213
  0
VERTEX
  6
CONTINUOUS
  8
1
 10
49.421
 20
275.299
  0
VERTEX
  6
CONTINUOUS
  8
1
 10
49.463
 20
275.386
  0
VERTEX
  6
CONTINUOUS
  8
1
 10
49.501
 20
275.472
  0
VERTEX
  6
CONTINUOUS
  8
1
 10
49.533
 20
275.560
  0
VERTEX
  6
CONTINUOUS
  8
1
 10
49.562
 20
275.646
  0
VERTEX
  6
CONTINUOUS
  8
1
 10
49.586
 20
275.733
  0
VERTEX
  6
CONTINUOUS
  8
1
 10
49.605
 20
275.821
  0
VERTEX
  6
CONTINUOUS
  8
1
 10
49.620
 20
275.908
  0
VERTEX
  6
CONTINUOUS
  8
1
 10
49.631
 20
275.996
  0
VERTEX
  6
CONTINUOUS
  8
1
 10
49.637
 20
276.083
  0
VERTEX
  6
CONTINUOUS
  8
1
 10
49.638
 20
276.170
  0
SEQEND
  0
TEXT
  8
1
 10
24.638
 20
273.981
 40
5.000
 41
0.800
  1
ＳＴＡＲＴ
  7
KANJI
 50
0.000
 51
0.000
  0
TEXT
  8
1
 10
56.358
 20
261.618
 40
4.000
 41
0.750
  1
Ａｕｔｏ
  7
KANJI
 50
0.000
 51
0.000
  0
LINE
  6
CONTINUOUS
  8
1
 10
14.358
 20
257.868
 11
14.358
 21
242.868
  0
LINE
  6
CONTINUOUS
  8
1
 10
14.358
 20
212.868
 11
14.358
 21
227.868
  0
LINE
  6
CONTINUOUS
  8
1
 10
14.358
 20
257.868
 11
54.358
 21
257.868
  0
LINE
  6
CONTINUOUS
  8
1
 10
54.358
 20
257.868
 11
54.358
 21
242.868
  0
LINE
  6
CONTINUOUS
  8
1
 10
54.358
 20
242.868
 11
14.358
 21
242.868
  0
TEXT
  8
1
 10
29.358
 20
247.868
 40
4.000
 41
0.750
  1
移動
  7
KANJI
 50
0.000
 51
0.000
  0
TEXT
  8
1
 10
14.358
 20
243.805
 40
4.000
 41
0.750
  1
 スタート位置→隙間手前
  7
KANJI
 50
0.000
 51
0.000
  0
TEXT
  8
1
 10
24.358
 20
252.868
 40
4.000
 41
0.750
  1
Ｍｏｄｅ１
  7
KANJI
 50
0.000
 51
0.000
  0
LINE
  6
CONTINUOUS
  8
1
 10
14.358
 20
227.868
 11
54.358
 21
227.868
  0
LINE
  6
CONTINUOUS
  8
1
 10
54.358
 20
227.868
 11
54.358
 21
212.868
  0
LINE
  6
CONTINUOUS
  8
1
 10
54.358
 20
212.868
 11
14.358
 21
212.868
  0
LINE
  6
CONTINUOUS
  8
1
 10
69.358
 20
227.868
 11
109.358
 21
227.868
  0
LINE
  6
CONTINUOUS
  8
1
 10
109.358
 20
227.868
 11
109.358
 21
212.868
  0
LINE
  6
CONTINUOUS
  8
1
 10
109.358
 20
212.868
 11
69.358
 21
212.868
  0
LINE
  6
CONTINUOUS
  8
1
 10
69.358
 20
212.868
 11
69.358
 21
227.868
  0
LINE
  6
CONTINUOUS
  8
1
 10
14.358
 20
197.868
 11
54.358
 21
197.868
  0
LINE
  6
CONTINUOUS
  8
1
 10
54.358
 20
197.868
 11
54.358
 21
182.868
  0
LINE
  6
CONTINUOUS
  8
1
 10
54.358
 20
182.868
 11
14.358
 21
182.868
  0
LINE
  6
CONTINUOUS
  8
1
 10
14.358
 20
182.868
 11
14.358
 21
197.868
  0
LINE
  6
CONTINUOUS
  8
1
 10
14.358
 20
167.868
 11
54.358
 21
167.868
  0
LINE
  6
CONTINUOUS
  8
1
 10
54.358
 20
167.868
 11
54.358
 21
152.868
  0
LINE
  6
CONTINUOUS
  8
1
 10
54.358
 20
152.868
 11
14.358
 21
152.868
  0
LINE
  6
CONTINUOUS
  8
1
 10
14.358
 20
152.868
 11
14.358
 21
167.868
  0
LINE
  6
CONTINUOUS
  8
1
 10
69.358
 20
167.868
 11
69.358
 21
152.868
  0
LINE
  6
CONTINUOUS
  8
1
 10
69.358
 20
152.868
 11
109.358
 21
152.868
  0
LINE
  6
CONTINUOUS
  8
1
 10
109.358
 20
152.868
 11
109.358
 21
167.868
  0
LINE
  6
CONTINUOUS
  8
1
 10
109.358
 20
167.868
 11
69.358
 21
167.868
  0
LINE
  6
CONTINUOUS
  8
1
 10
14.358
 20
137.868
 11
54.358
 21
137.868
  0
LINE
  6
CONTINUOUS
  8
1
 10
54.358
 20
137.868
 11
54.358
 21
122.868
  0
LINE
  6
CONTINUOUS
  8
1
 10
54.358
 20
122.868
 11
14.358
 21
122.868
  0
LINE
  6
CONTINUOUS
  8
1
 10
14.358
 20
122.868
 11
14.358
 21
137.868
  0
LINE
  6
CONTINUOUS
  8
1
 10
69.358
 20
137.868
 11
69.358
 21
122.868
  0
LINE
  6
CONTINUOUS
  8
1
 10
69.358
 20
122.868
 11
109.358
 21
122.868
  0
LINE
  6
CONTINUOUS
  8
1
 10
109.358
 20
122.868
 11
109.358
 21
137.868
  0
LINE
  6
CONTINUOUS
  8
1
 10
109.358
 20
137.868
 11
69.358
 21
137.868
  0
LINE
  6
CONTINUOUS
  8
1
 10
39.358
 20
107.868
 11
79.358
 21
107.868
  0
LINE
  6
CONTINUOUS
  8
1
 10
79.358
 20
107.868
 11
79.358
 21
92.868
  0
LINE
  6
CONTINUOUS
  8
1
 10
79.358
 20
92.868
 11
39.358
 21
92.868
  0
LINE
  6
CONTINUOUS
  8
1
 10
39.358
 20
92.868
 11
39.358
 21
107.868
  0
TEXT
  8
1
 10
14.358
 20
213.805
 40
4.000
 41
0.750
  1
　　　隙間を抜ける
  7
KANJI
 50
0.000
 51
0.000
  0
TEXT
  8
1
 10
24.358
 20
222.868
 40
4.000
 41
0.750
  1
Ｍｏｄｅ２
  7
KANJI
 50
0.000
 51
0.000
  0
TEXT
  8
1
 10
69.358
 20
213.805
 40
4.000
 41
0.750
  1
　　　左回転／右回転
  7
KANJI
 50
0.000
 51
0.000
  0
TEXT
  8
1
 10
79.358
 20
222.868
 40
4.000
 41
0.750
  1
Ｍｏｄｅ３
  7
KANJI
 50
0.000
 51
0.000
  0
TEXT
  8
1
 10
29.358
 20
187.868
 40
4.000
 41
0.750
  1
移動
  7
KANJI
 50
0.000
 51
0.000
  0
TEXT
  8
1
 10
14.358
 20
183.805
 40
4.000
 41
0.750
  1
　　 隙間→パイロン
  7
KANJI
 50
0.000
 51
0.000
  0
TEXT
  8
1
 10
24.358
 20
192.868
 40
4.000
 41
0.750
  1
Ｍｏｄｅ４
  7
KANJI
 50
0.000
 51
0.000
  0
TEXT
  8
1
 10
14.358
 20
153.805
 40
4.000
 41
0.750
  1
　　　パイロン探索
  7
KANJI
 50
0.000
 51
0.000
  0
TEXT
  8
1
 10
24.358
 20
162.868
 40
4.000
 41
0.750
  1
Ｍｏｄｅ５
  7
KANJI
 50
0.000
 51
0.000
  0
TEXT
  8
1
 10
69.358
 20
153.805
 40
4.000
 41
0.750
  1
　　　　　停止
  7
KANJI
 50
0.000
 51
0.000
  0
TEXT
  8
1
 10
79.358
 20
162.868
 40
4.000
 41
0.750
  1
Ｍｏｄｅ６
  7
KANJI
 50
0.000
 51
0.000
  0
TEXT
  8
1
 10
14.358
 20
123.805
 40
4.000
 41
0.750
  1
　シュート待機/LED点灯
  7
KANJI
 50
0.000
 51
0.000
  0
TEXT
  8
1
 10
24.358
 20
132.868
 40
4.000
 41
0.750
  1
Ｍｏｄｅ７
  7
KANJI
 50
0.000
 51
0.000
  0
TEXT
  8
1
 10
49.358
 20
102.868
 40
4.000
 41
0.750
  1
Ｍｏｄｅ９
  7
KANJI
 50
0.000
 51
0.000
  0
TEXT
  8
1
 10
79.358
 20
132.868
 40
4.000
 41
0.750
  1
Ｍｏｄｅ８
  7
KANJI
 50
0.000
 51
0.000
  0
TEXT
  8
1
 10
69.358
 20
128.805
 40
4.000
 41
0.750
  1
　輪を倒す・・後退・・
  7
KANJI
 50
0.000
 51
0.000
  0
TEXT
  8
1
 10
69.358
 20
123.805
 40
4.000
 41
0.750
  1
　　　・・回転・・再接近
  7
KANJI
 50
0.000
 51
0.000
  0
TEXT
  8
1
 10
39.358
 20
98.805
 40
4.000
 41
0.750
  1
　輪を倒す・・後退・・
  7
KANJI
 50
0.000
 51
0.000
  0
TEXT
  8
1
 10
39.358
 20
93.805
 40
4.000
 41
0.750
  1
　　　・・回転・・再接近
  7
KANJI
 50
0.000
 51
0.000
  0
LINE
  6
CONTINUOUS
  8
1
 10
34.326
 20
242.868
 11
34.326
 21
227.868
  0
LINE
  6
CONTINUOUS
  8
1
 10
34.389
 20
212.868
 11
34.389
 21
197.868
  0
LINE
  6
CONTINUOUS
  8
1
 10
34.263
 20
182.868
 11
34.263
 21
167.868
  0
LINE
  6
CONTINUOUS
  8
1
 10
34.452
 20
152.868
 11
34.452
 21
137.868
  0
ARC
  6
CONTINUOUS
  8
1
 10
61.930
 20
215.138
 40
10.746
 50
46.271
 51
134.808
  0
ARC
  6
CONTINUOUS
  8
1
 10
61.858
 20
225.740
 40
10.884
 50
226.441
 51
313.559
  0
ARC
  6
CONTINUOUS
  8
1
 10
61.858
 20
155.210
 40
10.670
 50
45.338
 51
134.662
  0
ARC
  6
CONTINUOUS
  8
1
 10
61.932
 20
124.988
 40
10.896
 50
47.034
 51
134.044
  0
ARC
  6
CONTINUOUS
  8
1
 10
61.749
 20
135.485
 40
10.634
 50
225.972
 51
315.682
  0
ARC
  6
CONTINUOUS
  8
1
 10
46.348
 20
115.320
 40
9.002
 50
123.023
 51
235.886
  0
ARC
  6
CONTINUOUS
  8
1
 10
39.494
 20
115.396
 40
9.540
 50
307.898
 51
411.554
  0
ARC
  6
CONTINUOUS
  8
1
 10
78.266
 20
145.349
 40
8.105
 50
292.632
 51
428.045
  0
ARC
  6
CONTINUOUS
  8
1
 10
97.949
 20
130.517
 40
34.029
 50
138.943
 51
221.727
  0
LINE
  6
CONTINUOUS
  8
1
 10
33.358
 20
259.868
 11
34.389
 21
257.868
  0
LINE
  6
CONTINUOUS
  8
1
 10
34.389
 20
257.868
 11
35.358
 21
259.868
  0
LINE
  6
CONTINUOUS
  8
1
 10
33.358
 20
229.868
 11
34.326
 21
227.868
  0
LINE
  6
CONTINUOUS
  8
1
 10
34.326
 20
227.868
 11
35.358
 21
229.868
  0
LINE
  6
CONTINUOUS
  8
1
 10
68.358
 20
224.868
 11
69.358
 21
222.903
  0
LINE
  6
CONTINUOUS
  8
1
 10
69.358
 20
222.903
 11
67.358
 21
222.868
  0
LINE
  6
CONTINUOUS
  8
1
 10
54.358
 20
217.853
 11
56.358
 21
217.868
  0
LINE
  6
CONTINUOUS
  8
1
 10
54.358
 20
217.853
 11
55.358
 21
215.868
  0
LINE
  6
CONTINUOUS
  8
1
 10
33.358
 20
199.868
 11
34.389
 21
197.868
  0
LINE
  6
CONTINUOUS
  8
1
 10
34.389
 20
197.868
 11
35.358
 21
199.868
  0
LINE
  6
CONTINUOUS
  8
1
 10
33.358
 20
169.868
 11
34.263
 21
167.868
  0
LINE
  6
CONTINUOUS
  8
1
 10
34.263
 20
167.868
 11
35.358
 21
169.868
  0
LINE
  6
CONTINUOUS
  8
1
 10
68.358
 20
164.868
 11
69.358
 21
162.799
  0
LINE
  6
CONTINUOUS
  8
1
 10
69.358
 20
162.799
 11
67.358
 21
162.868
  0
LINE
  6
CONTINUOUS
  8
1
 10
33.358
 20
139.868
 11
34.452
 21
137.868
  0
LINE
  6
CONTINUOUS
  8
1
 10
34.452
 20
137.868
 11
35.358
 21
139.868
  0
LINE
  6
CONTINUOUS
  8
1
 10
68.358
 20
134.868
 11
69.358
 21
132.962
  0
LINE
  6
CONTINUOUS
  8
1
 10
69.358
 20
132.962
 11
67.358
 21
132.868
  0
LINE
  6
CONTINUOUS
  8
1
 10
54.358
 20
127.839
 11
55.358
 21
125.868
  0
LINE
  6
CONTINUOUS
  8
1
 10
54.358
 20
127.839
 11
56.358
 21
127.868
  0
LINE
  6
CONTINUOUS
  8
1
 10
72.358
 20
109.868
 11
72.552
 21
107.868
  0
LINE
  6
CONTINUOUS
  8
1
 10
72.552
 20
107.868
 11
70.358
 21
108.868
  0
LINE
  6
CONTINUOUS
  8
1
 10
41.298
 20
107.868
 11
39.358
 21
108.868
  0
LINE
  6
CONTINUOUS
  8
1
 10
40.358
 20
109.868
 11
41.298
 21
107.868
  0
LINE
  6
CONTINUOUS
  8
1
 10
45.425
 20
122.868
 11
46.358
 21
120.868
  0
LINE
  6
CONTINUOUS
  8
1
 10
45.425
 20
122.868
 11
47.358
 21
121.868
  0
LINE
  6
CONTINUOUS
  8
1
 10
82.358
 20
139.868
 11
81.385
 21
137.868
  0
LINE
  6
CONTINUOUS
  8
1
 10
81.385
 20
137.868
 11
84.358
 21
138.868
  0
TEXT
  8
1
 10
36.358
 20
232.868
 40
4.000
 41
0.750
  1
Ｃ３
  7
KANJI
 50
0.000
 51
0.000
  0
TEXT
  8
1
 10
59.358
 20
226.868
 40
4.000
 41
0.750
  1
Ｃ４
  7
KANJI
 50
0.000
 51
0.000
  0
TEXT
  8
1
 10
59.358
 20
210.868
 40
4.000
 41
0.750
  1
Ｃ５
  7
KANJI
 50
0.000
 51
0.000
  0
TEXT
  8
1
 10
87.358
 20
143.868
 40
4.000
 41
0.750
  1
Ｃ１０
  7
KANJI
 50
0.000
 51
0.000
  0
TEXT
  8
1
 10
69.358
 20
144.868
 40
4.000
 41
0.750
  1
Ｃ１１
  7
KANJI
 50
0.000
 51
0.000
  0
TEXT
  8
1
 10
54.358
 20
136.851
 40
4.000
 41
0.750
  1
Ｃ１２
  7
KANJI
 50
359.819
 51
0.000
  0
TEXT
  8
1
 10
54.358
 20
121.868
 40
4.000
 41
0.750
  1
Ｃ１３
  7
KANJI
 50
0.000
 51
0.000
  0
TEXT
  8
1
 10
28.358
 20
114.868
 40
4.000
 41
0.750
  1
Ｃ１４
  7
KANJI
 50
0.000
 51
0.000
  0
TEXT
  8
1
 10
49.358
 20
112.868
 40
4.000
 41
0.750
  1
Ｃ１５
  7
KANJI
 50
0.000
 51
0.000
  0
LINE
  6
CONTINUOUS
  8
1
 10
9.358
 20
262.868
 11
9.358
 21
87.868
  0
LINE
  6
CONTINUOUS
  8
1
 10
9.358
 20
87.868
 11
114.358
 21
87.868
  0
LINE
  6
CONTINUOUS
  8
1
 10
114.358
 20
87.868
 11
114.358
 21
262.868
  0
LINE
  6
CONTINUOUS
  8
1
 10
9.358
 20
262.868
 11
54.358
 21
262.868
  0
LINE
  6
CONTINUOUS
  8
1
 10
69.358
 20
262.868
 11
114.358
 21
262.868
  0
TEXT
  8
1
 10
36.358
 20
266.868
 40
4.000
 41
0.750
  1
Ｃ１/TOUCH ENABLE
  7
KANJI
 50
0.000
 51
0.000
  0
LINE
  6
CONTINUOUS
  8
1
 10
34.242
 20
270.979
 11
34.242
 21
257.868
  0
LINE
  6
CONTINUOUS
  8
1
 10
124.358
 20
262.868
 11
124.358
 21
232.868
  0
LINE
  6
CONTINUOUS
  8
1
 10
124.358
 20
262.868
 11
139.358
 21
262.868
  0
LINE
  6
CONTINUOUS
  8
1
 10
159.358
 20
262.868
 11
174.358
 21
262.868
  0
ARC
  6
CONTINUOUS
  8
1
 10
59.740
 20
64.104
 40
212.307
 50
69.425
 51
92.727
  0
LINE
  6
CONTINUOUS
  8
1
 10
129.358
 20
267.868
 11
134.353
 21
262.868
  0
LINE
  6
CONTINUOUS
  8
1
 10
174.265
 20
262.868
 11
174.265
 21
88.287
  0
LINE
  6
CONTINUOUS
  8
1
 10
174.265
 20
88.287
 11
124.358
 21
88.287
  0
LINE
  6
CONTINUOUS
  8
1
 10
124.358
 20
88.287
 11
124.358
 21
262.868
  0
TEXT
  8
1
 10
140.812
 20
262.727
 40
4.000
 41
0.750
  1
Ｍａｎｕａｌ
  7
KANJI
 50
0.000
 51
0.000
  0
LINE
  8
1
 10
124.358
 20
253.518
 11
120.494
 21
252.483
  0
LINE
  8
1
 10
124.358
 20
253.518
 11
120.494
 21
254.553
  0
LINE
  6
CONTINUOUS
  8
1
 10
124.358
 20
253.518
 11
54.358
 21
253.518
  0
ARC
  6
CONTINUOUS
  8
1
 10
109.412
 20
127.828
 40
116.873
 50
82.653
 51
121.132
  0
LINE
  8
1
 10
124.358
 20
193.036
 11
120.494
 21
192.001
  0
LINE
  8
1
 10
124.358
 20
193.036
 11
120.494
 21
194.071
  0
LINE
  6
CONTINUOUS
  8
1
 10
124.358
 20
193.036
 11
54.358
 21
193.036
  0
LINE
  8
1
 10
124.358
 20
163.249
 11
120.494
 21
162.214
  0
LINE
  8
1
 10
124.358
 20
163.249
 11
120.494
 21
164.284
  0
LINE
  6
CONTINUOUS
  8
1
 10
124.358
 20
163.249
 11
109.358
 21
163.249
  0
LINE
  8
1
 10
109.358
 20
132.781
 11
113.222
 21
133.816
  0
LINE
  8
1
 10
109.358
 20
132.781
 11
113.222
 21
131.746
  0
LINE
  6
CONTINUOUS
  8
1
 10
109.358
 20
132.781
 11
124.358
 21
132.781
  0
LINE
  8
1
 10
79.358
 20
102.995
 11
83.222
 21
104.030
  0
LINE
  8
1
 10
79.358
 20
102.995
 11
83.222
 21
101.960
  0
LINE
  6
CONTINUOUS
  8
1
 10
79.358
 20
102.995
 11
124.358
 21
102.995
  0
ARC
  6
CONTINUOUS
  8
1
 10
95.454
 20
187.014
 40
77.767
 50
235.573
 51
291.819
  0
TEXT
  8
1
 10
83.357
 20
194.265
 40
4.000
 41
0.750
  1
Ｃ１８
  7
KANJI
 50
0.000
 51
0.000
  0
TEXT
  8
1
 10
114.963
 20
165.615
 40
4.000
 41
0.750
  1
Ｃ１９
  7
KANJI
 50
0.000
 51
0.000
  0
TEXT
  8
1
 10
89.496
 20
111.272
 40
4.000
 41
0.750
  1
Ｃ２０
  7
KANJI
 50
0.000
 51
0.000
  0
TEXT
  8
1
 10
114.244
 20
133.303
 40
4.000
 41
0.750
  1
Ｃ２１
  7
KANJI
 50
0.000
 51
0.000
  0
TEXT
  8
1
 10
114.358
 20
97.992
 40
4.000
 41
0.750
  1
Ｃ２２
  7
KANJI
 50
0.000
 51
0.000
  0
LINE
  6
CONTINUOUS
  8
1
 10
124.358
 20
243.741
 11
121.084
 21
246.006
  0
LINE
  6
CONTINUOUS
  8
1
 10
124.357
 20
243.741
 11
121.302
 21
242.519
  0
LINE
  6
CONTINUOUS
  8
1
 10
124.358
 20
114.818
 11
121.956
 21
115.915
  0
LINE
  6
CONTINUOUS
  8
1
 10
124.358
 20
114.818
 11
124.358
 21
112.210
  0
LINE
  6
CONTINUOUS
  8
1
 10
124.358
 20
114.818
 11
122.128
 21
113.965
  0
LINE
  6
CONTINUOUS
  8
1
 10
124.358
 20
114.818
 11
122.174
 21
111.557
  0
TEXT
  8
1
 10
4.223
 20
80.107
 40
4.000
 41
0.750
  1
モード遷移条件
  7
KANJI
 50
0.000
 51
0.000
  0
TEXT
  8
1
 10
25.223
 20
10.857
 40
4.000
 41
0.750
  1
Ｃ１５：エンコーダの自己位置確認による
  7
KANJI
 50
0.000
 51
0.000
  0
TEXT
  8
1
 10
25.223
 20
15.857
 40
4.000
 41
0.750
  1
Ｃ１４：シュートＳＷ２が押された
  7
KANJI
 50
0.000
 51
0.000
  0
TEXT
  8
1
 10
25.223
 20
20.857
 40
4.000
 41
0.750
  1
Ｃ１３：エンコーダの自己位置確認による
  7
KANJI
 50
0.000
 51
0.000
  0
TEXT
  8
1
 10
25.223
 20
25.857
 40
4.000
 41
0.750
  1
Ｃ１２：シュートＳＷ１が押された
  7
KANJI
 50
0.000
 51
0.000
  0
TEXT
  8
1
 10
25.223
 20
30.857
 40
4.000
 41
0.750
  1
Ｃ１１：シュートＳＷ２が押された
  7
KANJI
 50
0.000
 51
0.000
  0
TEXT
  8
1
 10
25.223
 20
35.857
 40
4.000
 41
0.750
  1
Ｃ１０：シュートＳＷ１が押された
  7
KANJI
 50
0.000
 51
0.000
  0
TEXT
  8
1
 10
25.223
 20
40.857
 40
4.000
 41
0.750
  1
Ｃ９　：赤外線センサに反応があった
  7
KANJI
 50
0.000
 51
0.000
  0
TEXT
  8
1
 10
25.223
 20
45.857
 40
4.000
 41
0.750
  1
Ｃ８　：赤外線センサに一定時間反応がなかった
  7
KANJI
 50
0.000
 51
0.000
  0
TEXT
  8
1
 10
25.223
 20
50.857
 40
4.000
 41
0.750
  1
Ｃ７　：エンコーダの自己位置確認による
  7
KANJI
 50
0.000
 51
0.000
  0
TEXT
  8
1
 10
25.223
 20
55.857
 40
4.000
 41
0.750
  1
Ｃ６　：エンコーダの自己位置確認による
  7
KANJI
 50
0.000
 51
0.000
  0
TEXT
  8
1
 10
25.223
 20
60.857
 40
4.000
 41
0.750
  1
Ｃ５　：一定角度回転した
  7
KANJI
 50
0.000
 51
0.000
  0
TEXT
  8
1
 10
25.223
 20
65.857
 40
4.000
 41
0.750
  1
Ｃ４　：タッチセンサに反応があった
  7
KANJI
 50
0.000
 51
0.000
  0
TEXT
  8
1
 10
25.223
 20
70.857
 40
4.000
 41
0.750
  1
Ｃ３　：エンコーダの自己位置確認による
  7
KANJI
 50
0.000
 51
0.000
  0
TEXT
  8
1
 10
25.223
 20
75.857
 40
4.000
 41
0.750
  1
Ｃ２　：スイッチがＭａｎｕａｌモードだった
  7
KANJI
 50
0.000
 51
0.000
  0
TEXT
  8
1
 10
25.223
 20
80.857
 40
4.000
 41
0.750
  1
Ｃ１　：スイッチがＡｕｔｏモードだった
  7
KANJI
 50
0.000
 51
0.000
  0
TEXT
  8
1
 10
101.878
 20
80.406
 40
4.000
 41
0.750
  1
C16:スイッチがManualモードだった
  7
KANJI
 50
0.000
 51
0.000
  0
TEXT
  8
1
 10
101.878
 20
75.656
 40
4.000
 41
0.750
  1
C17:スイッチがManualモードだった
  7
KANJI
 50
0.000
 51
0.000
  0
TEXT
  8
1
 10
101.878
 20
70.906
 40
4.000
 41
0.750
  1
C１８:スイッチがManualモードだった
  7
KANJI
 50
0.000
 51
0.000
  0
TEXT
  8
1
 10
101.878
 20
66.156
 40
4.000
 41
0.750
  1
C１９:スイッチがManualモードだった
  7
KANJI
 50
0.000
 51
0.000
  0
TEXT
  8
1
 10
101.878
 20
61.406
 40
4.000
 41
0.750
  1
C２０:スイッチがManualモードだった
  7
KANJI
 50
359.999
 51
0.000
  0
TEXT
  8
1
 10
101.878
 20
56.656
 40
4.000
 41
0.750
  1
C２１:シュートＳＷ１が押された
  7
KANJI
 50
0.000
 51
0.000
  0
TEXT
  8
1
 10
101.853
 20
51.906
 40
4.000
 41
0.750
  1
C２２:シュートＳＷ２が押された
  7
KANJI
 50
359.644
 51
0.000
  0
TEXT
  8
1
 10
52.993
 20
167.596
 40
4.000
 41
0.750
  1
Ｃ８/IR DISABLE
  7
KANJI
 50
0.000
 51
0.000
  0
TEXT
  8
1
 10
59.596
 20
253.844
 40
4.000
 41
0.750
  1
Ｃ１６/TOUCH DISABLE
  7
KANJI
 50
0.000
 51
0.000
  0
TEXT
  8
1
 10
25.000
 20
145.750
 40
4.000
 41
0.750
  1
Ｃ９/IR DISABLE
  7
KANJI
 50
0.000
 51
0.000
  0
TEXT
  8
1
 10
25.000
 20
175.750
 40
4.000
 41
0.750
  1
Ｃ７/IR ENABLE
  7
KANJI
 50
0.000
 51
0.000
  0
TEXT
  8
1
 10
25.000
 20
205.750
 40
4.000
 41
0.750
  1
Ｃ６/TOUCH DISABLE
  7
KANJI
 50
0.000
 51
0.000
  0
TEXT
  8
1
 10
62.374
 20
245.792
 40
4.000
 41
0.750
  1
Ｃ１７/TOUCH DISABLE
  7
KANJI
 50
0.000
 51
0.000
  0
ENDSEC
  0
EOF
