  0
SECTION
  2
HEADER
  9
$ACADVER
  1
AC1006
  9
$INSBASE
 10
0.000000
 20
0.000000
  9
$EXTMIN
 10
0.000000
 20
0.000000
  9
$EXTMAX
 10
286.680000
 20
199.643000
  9
$LIMMIN
 10
0.000000
 20
0.000000
  9
$LIMMAX
 10
286.680000
 20
199.643000
  9
$VIEWCTR
 10
143.340000
 20
99.821500
  9
$VIEWSIZE
 40
199.644000
  9
$SNAPMODE
 70
     0
  9
$SNAPUNIT
 10
1.000000
 20
1.000000
  9
$SNAPBASE
 10
0.000000
 20
0.000000
  9
$SNAPANG
 50
0.000000
  9
$SNAPISOPAIR
 70
     0
  9
$SNAPSTYLE
 70
     0
  9
$GRIDMODE
 70
     0
  9
$GRIDUNIT
 10
1.000000
 20
1.000000
  9
$ORTHOMODE
 70
     0
  9
$REGENMODE
 70
     1
  9
$FILLMODE
 70
     1
  9
$QTEXTMODE
 70
     0
  9
$DRAGMODE
 70
     2
  9
$LTSCALE
 40
1.000000
  9
$OSMODE
 70
     0
  9
$ATTMODE
 70
     1
  9
$TEXTSIZE
 40
3.175000
  9
$TEXTSTYLE
  7
STANDARD
  9
$TRACEWID
 40
0.050000
  9
$CLAYER
  8
1
  9
$CELTYPE
  6
BYLAYER
  9
$CECOLOR
 62
   256
  9
$DIMSCALE
 40
1.000000
  9
$DIMASZ
 40
1.000000
  9
$DIMEXO
 40
0.000000
  9
$DIMDLI
 40
0.500000
  9
$DIMRND
 40
0.000000
  9
$DIMDLE
 40
0.000000
  9
$DIMEXE
 40
0.000000
  9
$DIMTP
 40
0.000000
  9
$DIMTM
 40
0.000000
  9
$DIMTXT
 40
3.175000
  9
$DIMCEN
 40
0.000000
  9
$DIMTSZ
 40
0.000000
  9
$DIMTOL
 70
     0
  9
$DIMLIM
 70
     0
  9
$DIMTIH
 70
     1
  9
$DIMTOH
 70
     1
  9
$DIMSE1
 70
     0
  9
$DIMSE2
 70
     0
  9
$DIMTAD
 70
     0
  9
$DIMZIN
 70
     0
  9
$DIMBLK
  1

  9
$DIMASO
 70
     0
  9
$DIMSHO
 70
     0
  9
$DIMPOST
  1

  9
$DIMAPOST
  1

  9
$DIMALT
 70
     0
  9
$DIMALTD
 70
     0
  9
$DIMALTF
 40
1.000000
  9
$DIMLFAC
 40
0.000000
  9
$DIMTOFL
 70
     0
  9
$DIMTVP
 40
0.000000
  9
$DIMTIX
 70
     0
  9
$DIMSOXD
 70
     0
  9
$DIMSAH
 70
     0
  9
$DIMBLKL
  1

  9
$DIMBLKR
  1

  9
$LUNITS
 70
     2
  9
$LUPREC
 70
     2
  9
$AXISMODE
 70
     0
  9
$AXISUNIT
 10
1.000000
 20
1.000000
  9
$SKETCHINC
 40
1.000000
  9
$FILLETRAD
 40
0.000000
  9
$AUNITS
 70
     1
  9
$AUPREC
 70
     2
  9
$MENU
  1
ACAD
  9
$ELEVATION
 40
0.000000
  9
$THICKNESS
 40
0.000000
  9
$VIEWDIR
 10
0.000000
 20
0.000000
 30
1.000000
  9
$LIMCHECK
 70
     1
  9
$BLIPMODE
 70
     1
  9
$CHAMFERA
 40
0.000000
  9
$CHAMFERB
 40
0.000000
  9
$FASTZOOM
 70
     1
  9
$SKPOLY
 70
     0
  9
$TDCREATE
 40
0.000000
  9
$TDUPDATE
 40
0.000000
  9
$TDINDWG
 40
0.000000
  9
$TDUSRTIMER
 40
0.000000
  9
$USRTIMER
 70
     1
  9
$ANGBASE
 50
0.000000
  9
$ANGDIR
 70
     0
  9
$PDMODE
 70
     0
  9
$PDSIZE
 40
0.400000
  9
$PLINEWID
 40
0.000000
  9
$COORDS
 70
     2
  9
$USERI1
 70
     0
  9
$USERI2
 70
     0
  9
$USERI3
 70
     0
  9
$USERI4
 70
     0
  9
$USERI5
 70
     0
  9
$USERR1
 40
0.000000
  9
$USERR2
 40
0.000000
  9
$USERR3
 40
0.000000
  9
$USERR4
 40
0.000000
  9
$USERR5
 40
0.000000
  0
ENDSEC
  0
SECTION
  2
TABLES
  0
TABLE
  2
LTYPE
 70
     5
  0
LTYPE
  2
CONTINUOUS
 70
    64
  3
SolidLine
 72
    65
 73
     0
 40
0.0
  0
LTYPE
  2
HIDDEN
 70
    64
  3
- - - - - - - - - -
 72
    65
 73
     2
 40
3.000000
 49
2.000000
 49
-1.000000
  0
LTYPE
  2
DOT
 70
    64
  3
･･･････････････････
 72
    65
 73
     2
 40
2.000000
 49
0.500000
 49
-1.500000
  0
LTYPE
  2
DASHDOT
 70
    64
  3
-･-･-･-･-･-･-･-･-･-
 72
    65
 73
     4
 40
20.000000
 49
15.000000
 49
-2.000000
 49
1.000000
 49
-2.000000
  0
LTYPE
  2
DIVIDE
 70
    64
  3
-･･-･･-･･-･･-･･-･･-
 72
    65
 73
     6
 40
20.000000
 49
15.000000
 49
-1.000000
 49
1.000000
 49
-1.000000
 49
1.000000
 49
-1.000000
  0
ENDTAB
  0
TABLE
  2
LAYER
 70
    30
  0
LAYER
  2
CONTINUOUS
 70
    64
 62
     7
  6
CONTINUOUS
  0
LAYER
  2
HIDDEN
 70
    64
 62
     2
  6
HIDDEN
  0
LAYER
  2
DOT
 70
    64
 62
     7
  6
DOT
  0
LAYER
  2
DASHDOT
 70
    64
 62
     6
  6
DASHDOT
  0
LAYER
  2
DIVIDE
 70
    64
 62
     5
  6
DIVIDE
  0
LAYER
  2
DIMENSION
 70
    64
 62
     7
  6
CONTINUOUS
  0
LAYER
  2
1
70
  0
62
  7
6
CONTINUOUS
  0
LAYER
  2
2
70
  0
62
  7
6
CONTINUOUS
  0
LAYER
  2
3
70
  0
62
  7
6
CONTINUOUS
  0
LAYER
  2
4
70
  0
62
  7
6
CONTINUOUS
  0
LAYER
  2
5
70
  0
62
  7
6
CONTINUOUS
  0
LAYER
  2
6
70
  0
62
  7
6
CONTINUOUS
  0
LAYER
  2
7
70
  0
62
  7
6
CONTINUOUS
  0
LAYER
  2
8
70
  0
62
  7
6
CONTINUOUS
  0
LAYER
  2
9
70
  0
62
  7
6
CONTINUOUS
  0
LAYER
  2
10
70
  0
62
  7
6
CONTINUOUS
  0
LAYER
  2
11
70
  0
62
  7
6
CONTINUOUS
  0
LAYER
  2
12
70
  0
62
  7
6
CONTINUOUS
  0
LAYER
  2
13
70
  0
62
  7
6
CONTINUOUS
  0
LAYER
  2
14
70
  0
62
  7
6
CONTINUOUS
  0
LAYER
  2
15
70
  0
62
  7
6
CONTINUOUS
  0
LAYER
  2
16
70
  0
62
  7
6
CONTINUOUS
  0
LAYER
  2
17
70
  0
62
  7
6
CONTINUOUS
  0
LAYER
  2
18
70
  0
62
  7
6
CONTINUOUS
  0
LAYER
  2
19
70
  0
62
  7
6
CONTINUOUS
  0
LAYER
  2
HATCH
70
  0
62
  7
6
CONTINUOUS
  0
LAYER
  2
GUIDE1
70
  0
62
  4
6
DASHDOT
  0
LAYER
  2
GUIDE2
70
  0
62
  4
6
DASHDOT
  0
LAYER
  2
GUIDE3
70
  0
62
  4
6
DASHDOT
  0
LAYER
  2
GUIDE4
70
  0
62
  4
6
DASHDOT
  0
ENDTAB
  0
TABLE
  2
STYLE
 70
     1
  0
STYLE
  2
STANDARD
 70
    64
 40
0.000000
 41
1.000000
 50
0.000000
 71
     0
 42
3.000000
  3
TXT
  4

  0
STYLE
  2
KANJI
 70
    64
 40
0.000000
 41
1.000000
 50
0.000000
 71
     0
 42
3.000000
  3
TXT
  4
BIGFONT
  0
ENDTAB
  0
TABLE
  2
VIEW
 70
     0
  0
ENDTAB
  0
ENDSEC
  0
SECTION
  2
ENTITIES
  0
LINE
  6
CONTINUOUS
  8
1
 10
195.000
 20
190.000
 11
175.000
 21
190.000
  0
LINE
  6
CONTINUOUS
  8
1
 10
175.000
 20
172.000
 11
195.000
 21
172.000
  0
LINE
  6
CONTINUOUS
  8
1
 10
195.000
 20
154.000
 11
175.000
 21
154.000
  0
LINE
  6
CONTINUOUS
  8
1
 10
175.000
 20
136.000
 11
195.000
 21
136.000
  0
LINE
  6
CONTINUOUS
  8
1
 10
195.000
 20
118.000
 11
175.000
 21
118.000
  0
LINE
  6
CONTINUOUS
  8
1
 10
175.000
 20
100.000
 11
195.000
 21
100.000
  0
LINE
  6
CONTINUOUS
  8
1
 10
175.000
 20
190.000
 11
175.000
 21
100.000
  0
LINE
  6
CONTINUOUS
  8
1
 10
95.000
 20
10.000
 11
75.000
 21
10.000
  0
LINE
  6
CONTINUOUS
  8
1
 10
175.000
 20
82.000
 11
175.000
 21
46.000
  0
LINE
  6
CONTINUOUS
  8
1
 10
175.000
 20
46.000
 11
195.000
 21
46.000
  0
LINE
  6
CONTINUOUS
  8
1
 10
195.000
 20
64.000
 11
175.000
 21
64.000
  0
LINE
  6
CONTINUOUS
  8
1
 10
175.000
 20
82.000
 11
195.000
 21
82.000
  0
LINE
  6
CONTINUOUS
  8
1
 10
75.000
 20
64.000
 11
95.000
 21
64.000
  0
LINE
  6
CONTINUOUS
  8
1
 10
75.000
 20
118.000
 11
95.000
 21
118.000
  0
LINE
  6
CONTINUOUS
  8
1
 10
75.000
 20
118.000
 11
75.000
 21
10.000
  0
LINE
  6
CONTINUOUS
  8
1
 10
75.000
 20
82.000
 11
50.108
 21
82.000
  0
TEXT
  8
1
 10
18.544
 20
78.516
 40
8.000
 41
1.000
  1
全体図
  7
KANJI
 50
0.000
 51
0.000
  0
TEXT
  8
1
 10
100.217
 20
122.706
 40
8.000
 41
1.000
  1
シャーシ部
  7
KANJI
 50
0.000
 51
0.000
  0
TEXT
  8
1
 10
109.686
 20
112.842
 40
8.000
 41
1.000
  1
組立図
  7
KANJI
 50
0.000
 51
0.000
  0
TEXT
  8
1
 10
102.189
 20
67.074
 40
8.000
 41
1.000
  1
輪投下装置
  7
KANJI
 50
0.000
 51
0.000
  0
TEXT
  8
1
 10
111.264
 20
56.762
 40
8.000
 41
1.000
  1
組立図
  7
KANJI
 50
0.000
 51
0.000
  0
TEXT
  8
1
 10
103.767
 20
12.626
 40
8.000
 41
1.000
  1
輪投下装置
  7
KANJI
 50
0.000
 51
0.000
  0
TEXT
  8
1
 10
109.686
 20
0.000
 40
8.000
 41
1.000
  1
取付金具
  7
KANJI
 50
0.000
 51
0.000
  0
LINE
  6
CONTINUOUS
  8
1
 10
157.427
 20
118.000
 11
175.000
 21
118.000
  0
LINE
  6
CONTINUOUS
  8
1
 10
158.610
 20
64.000
 11
175.000
 21
64.000
  0
TEXT
  8
1
 10
199.250
 20
193.908
 40
8.000
 41
1.000
  1
フレーム
  7
KANJI
 50
0.000
 51
0.000
  0
TEXT
  8
1
 10
197.672
 20
185.007
 40
8.000
 41
1.000
  1
アセンブリ
  7
KANJI
 50
0.000
 51
0.000
  0
TEXT
  8
1
 10
198.855
 20
172.741
 40
8.000
 41
1.000
  1
キャスター
  7
KANJI
 50
0.000
 51
0.000
  0
TEXT
  8
1
 10
197.277
 20
163.840
 40
8.000
 41
1.000
  1
アセンブリ
  7
KANJI
 50
0.000
 51
0.000
  0
TEXT
  8
1
 10
201.617
 20
154.000
 40
8.000
 41
1.000
  1
モーター
  7
KANJI
 50
0.000
 51
0.000
  0
TEXT
  8
1
 10
203.590
 20
136.000
 40
8.000
 41
1.000
  1
バンパ
  7
KANJI
 50
0.000
 51
0.000
  0
TEXT
  8
1
 10
199.644
 20
114.420
 40
8.000
 41
1.000
  1
タッチセンサー
  7
KANJI
 50
0.000
 51
0.000
  0
TEXT
  8
1
 10
203.590
 20
100.000
 40
8.000
 41
1.000
  1
輪固定装置
  7
KANJI
 50
0.000
 51
0.000
  0
TEXT
  8
1
 10
199.250
 20
128.599
 40
8.000
 41
1.000
  1
アセンブリ
  7
KANJI
 50
0.000
 51
0.000
  0
TEXT
  8
1
 10
198.066
 20
147.478
 40
8.000
 41
1.000
  1
アセンブリ
  7
KANJI
 50
0.000
 51
0.000
  0
TEXT
  8
1
 10
203.985
 20
91.427
 40
8.000
 41
1.000
  1
アセンブリ
  7
KANJI
 50
0.000
 51
0.000
  0
TEXT
  8
1
 10
201.617
 20
46.557
 40
8.000
 41
1.000
  1
ファン
  7
KANJI
 50
0.000
 51
0.000
  0
TEXT
  8
1
 10
197.427
 20
39.429
 40
8.000
 41
1.000
  1
アセンブリ
  7
KANJI
 50
0.000
 51
0.000
  0
TEXT
  8
1
 10
198.066
 20
61.945
 40
8.000
 41
1.000
  1
ソレノイド
  7
KANJI
 50
0.000
 51
0.000
  0
TEXT
  8
1
 10
198.065
 20
55.498
 40
8.000
 41
1.000
  1
アセンブリ
  7
KANJI
 50
0.000
 51
0.000
  0
TEXT
  8
1
 10
208.718
 20
78.707
 40
8.000
 41
1.000
  1
Ｔ字
  7
KANJI
 50
0.000
 51
0.000
  0
TEXT
  8
1
 10
198.066
 20
71.306
 40
8.000
 41
1.000
  1
アセンブリ
  7
KANJI
 50
0.000
 51
0.000
  0
ENDSEC
  0
EOF
