  0
SECTION
  2
HEADER
  9
$ACADVER
  1
AC1006
  9
$INSBASE
 10
0.000000
 20
0.000000
  9
$EXTMIN
 10
0.000000
 20
0.000000
  9
$EXTMAX
 10
209.999000
 20
296.999000
  9
$LIMMIN
 10
0.000000
 20
0.000000
  9
$LIMMAX
 10
209.999000
 20
296.999000
  9
$VIEWCTR
 10
104.999500
 20
148.499500
  9
$VIEWSIZE
 40
210.000000
  9
$SNAPMODE
 70
     0
  9
$SNAPUNIT
 10
1.000000
 20
1.000000
  9
$SNAPBASE
 10
0.000000
 20
0.000000
  9
$SNAPANG
 50
0.000000
  9
$SNAPISOPAIR
 70
     0
  9
$SNAPSTYLE
 70
     0
  9
$GRIDMODE
 70
     0
  9
$GRIDUNIT
 10
2.000000
 20
2.000000
  9
$ORTHOMODE
 70
     0
  9
$REGENMODE
 70
     1
  9
$FILLMODE
 70
     1
  9
$QTEXTMODE
 70
     0
  9
$DRAGMODE
 70
     2
  9
$LTSCALE
 40
1.000000
  9
$OSMODE
 70
     0
  9
$ATTMODE
 70
     1
  9
$TEXTSIZE
 40
3.175000
  9
$TEXTSTYLE
  7
STANDARD
  9
$TRACEWID
 40
0.050000
  9
$CLAYER
  8
1
  9
$CELTYPE
  6
BYLAYER
  9
$CECOLOR
 62
   256
  9
$DIMSCALE
 40
1.000000
  9
$DIMASZ
 40
1.000000
  9
$DIMEXO
 40
0.000000
  9
$DIMDLI
 40
0.500000
  9
$DIMRND
 40
0.000000
  9
$DIMDLE
 40
0.000000
  9
$DIMEXE
 40
0.000000
  9
$DIMTP
 40
0.000000
  9
$DIMTM
 40
0.000000
  9
$DIMTXT
 40
3.175000
  9
$DIMCEN
 40
0.000000
  9
$DIMTSZ
 40
0.000000
  9
$DIMTOL
 70
     0
  9
$DIMLIM
 70
     0
  9
$DIMTIH
 70
     1
  9
$DIMTOH
 70
     1
  9
$DIMSE1
 70
     0
  9
$DIMSE2
 70
     0
  9
$DIMTAD
 70
     0
  9
$DIMZIN
 70
     0
  9
$DIMBLK
  1

  9
$DIMASO
 70
     0
  9
$DIMSHO
 70
     0
  9
$DIMPOST
  1

  9
$DIMAPOST
  1

  9
$DIMALT
 70
     0
  9
$DIMALTD
 70
     0
  9
$DIMALTF
 40
1.000000
  9
$DIMLFAC
 40
0.000000
  9
$DIMTOFL
 70
     0
  9
$DIMTVP
 40
0.000000
  9
$DIMTIX
 70
     0
  9
$DIMSOXD
 70
     0
  9
$DIMSAH
 70
     0
  9
$DIMBLKL
  1

  9
$DIMBLKR
  1

  9
$LUNITS
 70
     2
  9
$LUPREC
 70
     2
  9
$AXISMODE
 70
     0
  9
$AXISUNIT
 10
1.000000
 20
1.000000
  9
$SKETCHINC
 40
1.000000
  9
$FILLETRAD
 40
0.000000
  9
$AUNITS
 70
     1
  9
$AUPREC
 70
     2
  9
$MENU
  1
ACAD
  9
$ELEVATION
 40
0.000000
  9
$THICKNESS
 40
0.000000
  9
$VIEWDIR
 10
0.000000
 20
0.000000
 30
1.000000
  9
$LIMCHECK
 70
     1
  9
$BLIPMODE
 70
     1
  9
$CHAMFERA
 40
0.000000
  9
$CHAMFERB
 40
0.000000
  9
$FASTZOOM
 70
     1
  9
$SKPOLY
 70
     0
  9
$TDCREATE
 40
0.000000
  9
$TDUPDATE
 40
0.000000
  9
$TDINDWG
 40
0.000000
  9
$TDUSRTIMER
 40
0.000000
  9
$USRTIMER
 70
     1
  9
$ANGBASE
 50
0.000000
  9
$ANGDIR
 70
     0
  9
$PDMODE
 70
     0
  9
$PDSIZE
 40
0.400000
  9
$PLINEWID
 40
0.000000
  9
$COORDS
 70
     2
  9
$USERI1
 70
     0
  9
$USERI2
 70
     0
  9
$USERI3
 70
     0
  9
$USERI4
 70
     0
  9
$USERI5
 70
     0
  9
$USERR1
 40
0.000000
  9
$USERR2
 40
0.000000
  9
$USERR3
 40
0.000000
  9
$USERR4
 40
0.000000
  9
$USERR5
 40
0.000000
  0
ENDSEC
  0
SECTION
  2
TABLES
  0
TABLE
  2
LTYPE
 70
     5
  0
LTYPE
  2
CONTINUOUS
 70
    64
  3
SolidLine
 72
    65
 73
     0
 40
0.0
  0
LTYPE
  2
HIDDEN
 70
    64
  3
- - - - - - - - - -
 72
    65
 73
     2
 40
3.000000
 49
2.000000
 49
-1.000000
  0
LTYPE
  2
DOT
 70
    64
  3
･･･････････････････
 72
    65
 73
     2
 40
2.000000
 49
0.500000
 49
-1.500000
  0
LTYPE
  2
DASHDOT
 70
    64
  3
-･-･-･-･-･-･-･-･-･-
 72
    65
 73
     4
 40
20.000000
 49
15.000000
 49
-2.000000
 49
1.000000
 49
-2.000000
  0
LTYPE
  2
DIVIDE
 70
    64
  3
-･･-･･-･･-･･-･･-･･-
 72
    65
 73
     6
 40
20.000000
 49
15.000000
 49
-1.000000
 49
1.000000
 49
-1.000000
 49
1.000000
 49
-1.000000
  0
ENDTAB
  0
TABLE
  2
LAYER
 70
    30
  0
LAYER
  2
CONTINUOUS
 70
    64
 62
     7
  6
CONTINUOUS
  0
LAYER
  2
HIDDEN
 70
    64
 62
     2
  6
HIDDEN
  0
LAYER
  2
DOT
 70
    64
 62
     7
  6
DOT
  0
LAYER
  2
DASHDOT
 70
    64
 62
     6
  6
DASHDOT
  0
LAYER
  2
DIVIDE
 70
    64
 62
     5
  6
DIVIDE
  0
LAYER
  2
DIMENSION
 70
    64
 62
     7
  6
CONTINUOUS
  0
LAYER
  2
1
70
  0
62
  7
6
CONTINUOUS
  0
LAYER
  2
2
70
  0
62
  7
6
CONTINUOUS
  0
LAYER
  2
3
70
  0
62
  7
6
CONTINUOUS
  0
LAYER
  2
4
70
  0
62
  7
6
CONTINUOUS
  0
LAYER
  2
5
70
  0
62
  7
6
CONTINUOUS
  0
LAYER
  2
6
70
  0
62
  7
6
CONTINUOUS
  0
LAYER
  2
7
70
  0
62
  7
6
CONTINUOUS
  0
LAYER
  2
8
70
  0
62
  7
6
CONTINUOUS
  0
LAYER
  2
9
70
  0
62
  7
6
CONTINUOUS
  0
LAYER
  2
10
70
  0
62
  7
6
CONTINUOUS
  0
LAYER
  2
11
70
  0
62
  7
6
CONTINUOUS
  0
LAYER
  2
12
70
  0
62
  7
6
CONTINUOUS
  0
LAYER
  2
13
70
  0
62
  7
6
CONTINUOUS
  0
LAYER
  2
14
70
  0
62
  7
6
CONTINUOUS
  0
LAYER
  2
15
70
  0
62
  7
6
CONTINUOUS
  0
LAYER
  2
16
70
  0
62
  7
6
CONTINUOUS
  0
LAYER
  2
17
70
  0
62
  7
6
CONTINUOUS
  0
LAYER
  2
18
70
  0
62
  7
6
CONTINUOUS
  0
LAYER
  2
19
70
  0
62
  7
6
CONTINUOUS
  0
LAYER
  2
HATCH
70
  0
62
  7
6
CONTINUOUS
  0
LAYER
  2
GUIDE1
70
  0
62
  4
6
DASHDOT
  0
LAYER
  2
GUIDE2
70
  0
62
  4
6
DASHDOT
  0
LAYER
  2
GUIDE3
70
  0
62
  4
6
DASHDOT
  0
LAYER
  2
GUIDE4
70
  0
62
  4
6
DASHDOT
  0
ENDTAB
  0
TABLE
  2
STYLE
 70
     1
  0
STYLE
  2
STANDARD
 70
    64
 40
0.000000
 41
1.000000
 50
0.000000
 71
     0
 42
3.000000
  3
TXT
  4

  0
STYLE
  2
KANJI
 70
    64
 40
0.000000
 41
1.000000
 50
0.000000
 71
     0
 42
3.000000
  3
TXT
  4
BIGFONT
  0
ENDTAB
  0
TABLE
  2
VIEW
 70
     0
  0
ENDTAB
  0
ENDSEC
  0
SECTION
  2
ENTITIES
  0
LINE
  6
CONTINUOUS
  8
1
 10
10.000
 20
280.000
 11
50.000
 21
280.000
  0
LINE
  6
CONTINUOUS
  8
1
 10
50.000
 20
280.000
 11
50.000
 21
250.000
  0
LINE
  6
CONTINUOUS
  8
1
 10
50.000
 20
250.000
 11
10.000
 21
250.000
  0
LINE
  6
CONTINUOUS
  8
1
 10
10.000
 20
250.000
 11
10.000
 21
280.000
  0
LINE
  6
CONTINUOUS
  8
1
 10
80.000
 20
280.000
 11
120.000
 21
280.000
  0
LINE
  6
CONTINUOUS
  8
1
 10
120.000
 20
280.000
 11
120.000
 21
250.000
  0
LINE
  6
CONTINUOUS
  8
1
 10
120.000
 20
250.000
 11
80.000
 21
250.000
  0
LINE
  6
CONTINUOUS
  8
1
 10
80.000
 20
250.000
 11
80.000
 21
280.000
  0
LINE
  6
CONTINUOUS
  8
1
 10
150.000
 20
280.000
 11
190.000
 21
280.000
  0
LINE
  6
CONTINUOUS
  8
1
 10
190.000
 20
280.000
 11
190.000
 21
250.000
  0
LINE
  6
CONTINUOUS
  8
1
 10
190.000
 20
250.000
 11
150.000
 21
250.000
  0
LINE
  6
CONTINUOUS
  8
1
 10
150.000
 20
250.000
 11
150.000
 21
280.000
  0
LINE
  6
CONTINUOUS
  8
1
 10
10.000
 20
230.000
 11
50.000
 21
230.000
  0
LINE
  6
CONTINUOUS
  8
1
 10
50.000
 20
230.000
 11
50.000
 21
200.000
  0
LINE
  6
CONTINUOUS
  8
1
 10
50.000
 20
200.000
 11
10.000
 21
200.000
  0
LINE
  6
CONTINUOUS
  8
1
 10
10.000
 20
200.000
 11
10.000
 21
230.000
  0
LINE
  6
CONTINUOUS
  8
1
 10
80.000
 20
230.000
 11
120.000
 21
230.000
  0
LINE
  6
CONTINUOUS
  8
1
 10
120.000
 20
230.000
 11
120.000
 21
200.000
  0
LINE
  6
CONTINUOUS
  8
1
 10
120.000
 20
200.000
 11
80.000
 21
200.000
  0
LINE
  6
CONTINUOUS
  8
1
 10
80.000
 20
200.000
 11
80.000
 21
230.000
  0
LINE
  6
CONTINUOUS
  8
1
 10
150.000
 20
230.000
 11
190.000
 21
230.000
  0
LINE
  6
CONTINUOUS
  8
1
 10
190.000
 20
230.000
 11
190.000
 21
200.000
  0
LINE
  6
CONTINUOUS
  8
1
 10
190.000
 20
200.000
 11
150.000
 21
200.000
  0
LINE
  6
CONTINUOUS
  8
1
 10
150.000
 20
200.000
 11
150.000
 21
230.000
  0
LINE
  6
CONTINUOUS
  8
1
 10
50.000
 20
90.000
 11
170.000
 21
90.000
  0
LINE
  6
CONTINUOUS
  8
1
 10
170.000
 20
90.000
 11
170.000
 21
50.000
  0
LINE
  6
CONTINUOUS
  8
1
 10
170.000
 20
50.000
 11
50.000
 21
50.000
  0
LINE
  6
CONTINUOUS
  8
1
 10
50.000
 20
50.000
 11
50.000
 21
90.000
  0
LINE
  6
CONTINUOUS
  8
1
 10
80.000
 20
90.000
 11
120.000
 21
90.000
  0
LINE
  6
CONTINUOUS
  8
1
 10
10.000
 20
120.000
 11
50.000
 21
120.000
  0
LINE
  6
CONTINUOUS
  8
1
 10
50.000
 20
120.000
 11
50.000
 21
160.000
  0
LINE
  6
CONTINUOUS
  8
1
 10
50.000
 20
160.000
 11
10.000
 21
160.000
  0
LINE
  6
CONTINUOUS
  8
1
 10
10.000
 20
160.000
 11
10.000
 21
120.000
  0
LINE
  6
CONTINUOUS
  8
1
 10
80.000
 20
160.000
 11
120.000
 21
160.000
  0
LINE
  6
CONTINUOUS
  8
1
 10
120.000
 20
160.000
 11
120.000
 21
120.000
  0
LINE
  6
CONTINUOUS
  8
1
 10
120.000
 20
120.000
 11
80.000
 21
120.000
  0
LINE
  6
CONTINUOUS
  8
1
 10
80.000
 20
120.000
 11
80.000
 21
160.000
  0
LINE
  6
CONTINUOUS
  8
1
 10
150.000
 20
160.000
 11
190.000
 21
160.000
  0
LINE
  6
CONTINUOUS
  8
1
 10
190.000
 20
160.000
 11
190.000
 21
120.000
  0
LINE
  6
CONTINUOUS
  8
1
 10
190.000
 20
120.000
 11
150.000
 21
120.000
  0
LINE
  6
CONTINUOUS
  8
1
 10
150.000
 20
120.000
 11
150.000
 21
160.000
  0
LINE
  6
CONTINUOUS
  8
1
 10
50.000
 20
90.000
 11
70.000
 21
90.000
  0
LINE
  6
CONTINUOUS
  8
1
 10
70.000
 20
90.000
 11
70.000
 21
80.000
  0
LINE
  6
CONTINUOUS
  8
1
 10
70.000
 20
80.000
 11
50.000
 21
80.000
  0
LINE
  6
CONTINUOUS
  8
1
 10
50.000
 20
80.000
 11
50.000
 21
90.000
  0
LINE
  6
CONTINUOUS
  8
1
 10
90.000
 20
90.000
 11
110.000
 21
90.000
  0
LINE
  6
CONTINUOUS
  8
1
 10
110.000
 20
90.000
 11
110.000
 21
80.000
  0
LINE
  6
CONTINUOUS
  8
1
 10
110.000
 20
80.000
 11
90.000
 21
80.000
  0
LINE
  6
CONTINUOUS
  8
1
 10
90.000
 20
80.000
 11
90.000
 21
90.000
  0
LINE
  6
CONTINUOUS
  8
1
 10
130.000
 20
90.000
 11
150.000
 21
90.000
  0
LINE
  6
CONTINUOUS
  8
1
 10
150.000
 20
90.000
 11
150.000
 21
80.000
  0
LINE
  6
CONTINUOUS
  8
1
 10
150.000
 20
80.000
 11
130.000
 21
80.000
  0
LINE
  6
CONTINUOUS
  8
1
 10
130.000
 20
80.000
 11
130.000
 21
90.000
  0
TEXT
  8
1
 10
50.000
 20
80.000
 40
4.000
 41
0.750
  1
16pinコネクタ
  7
KANJI
 50
0.000
 51
0.000
  0
TEXT
  8
1
 10
90.000
 20
80.000
 40
4.000
 41
0.750
  1
16pinコネクタ
  7
KANJI
 50
0.000
 51
0.000
  0
TEXT
  8
1
 10
130.000
 20
80.000
 40
4.000
 41
0.750
  1
16pinコネクタ
  7
KANJI
 50
0.000
 51
0.000
  0
LINE
  6
CONTINUOUS
  8
1
 10
10.000
 20
150.000
 11
10.000
 21
150.000
  0
LINE
  6
CONTINUOUS
  8
1
 10
10.000
 20
150.000
 11
10.000
 21
130.000
  0
LINE
  6
CONTINUOUS
  8
1
 10
10.000
 20
130.000
 11
10.000
 21
130.000
  0
LINE
  6
CONTINUOUS
  8
1
 10
10.000
 20
130.000
 11
10.000
 21
150.000
  0
LINE
  6
CONTINUOUS
  8
1
 10
10.000
 20
130.000
 11
10.000
 21
130.000
  0
LINE
  6
CONTINUOUS
  8
1
 10
10.000
 20
130.000
 11
10.000
 21
150.000
  0
LINE
  6
CONTINUOUS
  8
1
 10
10.000
 20
150.000
 11
10.000
 21
150.000
  0
LINE
  6
CONTINUOUS
  8
1
 10
10.000
 20
150.000
 11
10.000
 21
130.000
  0
LINE
  6
CONTINUOUS
  8
1
 10
10.000
 20
130.000
 11
10.000
 21
150.000
  0
LINE
  6
CONTINUOUS
  8
1
 10
50.000
 20
130.000
 11
50.000
 21
120.000
  0
LINE
  6
CONTINUOUS
  8
1
 10
50.000
 20
120.000
 11
30.000
 21
120.000
  0
LINE
  6
CONTINUOUS
  8
1
 10
50.000
 20
150.000
 11
50.000
 21
140.000
  0
LINE
  6
CONTINUOUS
  8
1
 10
10.000
 20
150.000
 11
15.000
 21
150.000
  0
LINE
  6
CONTINUOUS
  8
1
 10
15.000
 20
150.000
 11
15.000
 21
130.000
  0
LINE
  6
CONTINUOUS
  8
1
 10
15.000
 20
130.000
 11
10.000
 21
130.000
  0
LINE
  6
CONTINUOUS
  8
1
 10
10.000
 20
130.000
 11
10.000
 21
150.000
  0
LINE
  6
CONTINUOUS
  8
1
 10
25.000
 20
130.000
 11
45.000
 21
130.000
  0
LINE
  6
CONTINUOUS
  8
1
 10
45.000
 20
130.000
 11
45.000
 21
125.000
  0
LINE
  6
CONTINUOUS
  8
1
 10
45.000
 20
125.000
 11
25.000
 21
125.000
  0
LINE
  6
CONTINUOUS
  8
1
 10
25.000
 20
125.000
 11
25.000
 21
130.000
  0
LINE
  6
CONTINUOUS
  8
1
 10
30.000
 20
145.000
 11
40.000
 21
145.000
  0
LINE
  6
CONTINUOUS
  8
1
 10
40.000
 20
145.000
 11
40.000
 21
135.000
  0
LINE
  6
CONTINUOUS
  8
1
 10
40.000
 20
135.000
 11
30.000
 21
135.000
  0
LINE
  6
CONTINUOUS
  8
1
 10
30.000
 20
135.000
 11
30.000
 21
145.000
  0
LINE
  6
CONTINUOUS
  8
1
 10
40.000
 20
160.000
 11
45.000
 21
160.000
  0
LINE
  6
CONTINUOUS
  8
1
 10
45.000
 20
160.000
 11
45.000
 21
160.000
  0
LINE
  6
CONTINUOUS
  8
1
 10
45.000
 20
160.000
 11
40.000
 21
160.000
  0
LINE
  6
CONTINUOUS
  8
1
 10
40.000
 20
160.000
 11
40.000
 21
160.000
  0
LINE
  6
CONTINUOUS
  8
1
 10
10.000
 20
165.000
 11
25.000
 21
165.000
  0
LINE
  6
CONTINUOUS
  8
1
 10
25.000
 20
165.000
 11
25.000
 21
155.000
  0
LINE
  6
CONTINUOUS
  8
1
 10
25.000
 20
155.000
 11
10.000
 21
155.000
  0
LINE
  6
CONTINUOUS
  8
1
 10
10.000
 20
155.000
 11
10.000
 21
165.000
  0
LINE
  6
CONTINUOUS
  8
1
 10
30.000
 20
160.000
 11
35.000
 21
160.000
  0
LINE
  6
CONTINUOUS
  8
1
 10
35.000
 20
160.000
 11
35.000
 21
155.000
  0
LINE
  6
CONTINUOUS
  8
1
 10
35.000
 20
155.000
 11
30.000
 21
155.000
  0
LINE
  6
CONTINUOUS
  8
1
 10
30.000
 20
155.000
 11
30.000
 21
160.000
  0
LINE
  6
CONTINUOUS
  8
1
 10
40.000
 20
160.000
 11
45.000
 21
160.000
  0
LINE
  6
CONTINUOUS
  8
1
 10
45.000
 20
160.000
 11
45.000
 21
155.000
  0
LINE
  6
CONTINUOUS
  8
1
 10
45.000
 20
155.000
 11
40.000
 21
155.000
  0
LINE
  6
CONTINUOUS
  8
1
 10
40.000
 20
155.000
 11
40.000
 21
160.000
  0
LINE
  6
CONTINUOUS
  8
1
 10
45.000
 20
150.000
 11
50.000
 21
150.000
  0
LINE
  6
CONTINUOUS
  8
1
 10
50.000
 20
150.000
 11
50.000
 21
145.000
  0
LINE
  6
CONTINUOUS
  8
1
 10
50.000
 20
145.000
 11
45.000
 21
145.000
  0
LINE
  6
CONTINUOUS
  8
1
 10
45.000
 20
145.000
 11
45.000
 21
150.000
  0
LINE
  6
CONTINUOUS
  8
1
 10
45.000
 20
140.000
 11
50.000
 21
140.000
  0
LINE
  6
CONTINUOUS
  8
1
 10
50.000
 20
140.000
 11
50.000
 21
135.000
  0
LINE
  6
CONTINUOUS
  8
1
 10
50.000
 20
135.000
 11
45.000
 21
135.000
  0
LINE
  6
CONTINUOUS
  8
1
 10
45.000
 20
135.000
 11
45.000
 21
140.000
  0
LINE
  6
CONTINUOUS
  8
1
 10
80.000
 20
150.000
 11
85.000
 21
150.000
  0
LINE
  6
CONTINUOUS
  8
1
 10
85.000
 20
150.000
 11
85.000
 21
130.000
  0
LINE
  6
CONTINUOUS
  8
1
 10
85.000
 20
130.000
 11
80.000
 21
130.000
  0
LINE
  6
CONTINUOUS
  8
1
 10
80.000
 20
130.000
 11
80.000
 21
150.000
  0
LINE
  6
CONTINUOUS
  8
1
 10
95.000
 20
130.000
 11
115.000
 21
130.000
  0
LINE
  6
CONTINUOUS
  8
1
 10
115.000
 20
130.000
 11
115.000
 21
125.000
  0
LINE
  6
CONTINUOUS
  8
1
 10
115.000
 20
125.000
 11
95.000
 21
125.000
  0
LINE
  6
CONTINUOUS
  8
1
 10
95.000
 20
125.000
 11
95.000
 21
130.000
  0
LINE
  6
CONTINUOUS
  8
1
 10
100.000
 20
145.000
 11
110.000
 21
145.000
  0
LINE
  6
CONTINUOUS
  8
1
 10
110.000
 20
145.000
 11
110.000
 21
135.000
  0
LINE
  6
CONTINUOUS
  8
1
 10
110.000
 20
135.000
 11
100.000
 21
135.000
  0
LINE
  6
CONTINUOUS
  8
1
 10
100.000
 20
135.000
 11
100.000
 21
145.000
  0
LINE
  6
CONTINUOUS
  8
1
 10
115.000
 20
150.000
 11
120.000
 21
150.000
  0
LINE
  6
CONTINUOUS
  8
1
 10
120.000
 20
150.000
 11
120.000
 21
145.000
  0
LINE
  6
CONTINUOUS
  8
1
 10
120.000
 20
145.000
 11
115.000
 21
145.000
  0
LINE
  6
CONTINUOUS
  8
1
 10
115.000
 20
145.000
 11
115.000
 21
150.000
  0
LINE
  6
CONTINUOUS
  8
1
 10
115.000
 20
140.000
 11
120.000
 21
140.000
  0
LINE
  6
CONTINUOUS
  8
1
 10
120.000
 20
140.000
 11
120.000
 21
135.000
  0
LINE
  6
CONTINUOUS
  8
1
 10
120.000
 20
135.000
 11
115.000
 21
135.000
  0
LINE
  6
CONTINUOUS
  8
1
 10
115.000
 20
135.000
 11
115.000
 21
140.000
  0
LINE
  6
CONTINUOUS
  8
1
 10
80.000
 20
165.000
 11
95.000
 21
165.000
  0
LINE
  6
CONTINUOUS
  8
1
 10
95.000
 20
165.000
 11
95.000
 21
155.000
  0
LINE
  6
CONTINUOUS
  8
1
 10
95.000
 20
155.000
 11
80.000
 21
155.000
  0
LINE
  6
CONTINUOUS
  8
1
 10
80.000
 20
155.000
 11
80.000
 21
165.000
  0
LINE
  6
CONTINUOUS
  8
1
 10
100.000
 20
160.000
 11
105.000
 21
160.000
  0
LINE
  6
CONTINUOUS
  8
1
 10
105.000
 20
160.000
 11
105.000
 21
155.000
  0
LINE
  6
CONTINUOUS
  8
1
 10
105.000
 20
155.000
 11
100.000
 21
155.000
  0
LINE
  6
CONTINUOUS
  8
1
 10
100.000
 20
155.000
 11
100.000
 21
160.000
  0
LINE
  6
CONTINUOUS
  8
1
 10
110.000
 20
160.000
 11
115.000
 21
160.000
  0
LINE
  6
CONTINUOUS
  8
1
 10
115.000
 20
160.000
 11
115.000
 21
155.000
  0
LINE
  6
CONTINUOUS
  8
1
 10
115.000
 20
155.000
 11
110.000
 21
155.000
  0
LINE
  6
CONTINUOUS
  8
1
 10
110.000
 20
155.000
 11
110.000
 21
160.000
  0
LINE
  6
CONTINUOUS
  8
1
 10
150.000
 20
150.000
 11
155.000
 21
150.000
  0
LINE
  6
CONTINUOUS
  8
1
 10
155.000
 20
150.000
 11
155.000
 21
130.000
  0
LINE
  6
CONTINUOUS
  8
1
 10
155.000
 20
130.000
 11
150.000
 21
130.000
  0
LINE
  6
CONTINUOUS
  8
1
 10
150.000
 20
130.000
 11
150.000
 21
150.000
  0
LINE
  6
CONTINUOUS
  8
1
 10
150.000
 20
165.000
 11
165.000
 21
165.000
  0
LINE
  6
CONTINUOUS
  8
1
 10
165.000
 20
165.000
 11
165.000
 21
155.000
  0
LINE
  6
CONTINUOUS
  8
1
 10
165.000
 20
155.000
 11
150.000
 21
155.000
  0
LINE
  6
CONTINUOUS
  8
1
 10
150.000
 20
155.000
 11
150.000
 21
165.000
  0
LINE
  6
CONTINUOUS
  8
1
 10
170.000
 20
160.000
 11
175.000
 21
160.000
  0
LINE
  6
CONTINUOUS
  8
1
 10
175.000
 20
160.000
 11
175.000
 21
155.000
  0
LINE
  6
CONTINUOUS
  8
1
 10
175.000
 20
155.000
 11
170.000
 21
155.000
  0
LINE
  6
CONTINUOUS
  8
1
 10
170.000
 20
155.000
 11
170.000
 21
160.000
  0
LINE
  6
CONTINUOUS
  8
1
 10
180.000
 20
160.000
 11
185.000
 21
160.000
  0
LINE
  6
CONTINUOUS
  8
1
 10
185.000
 20
160.000
 11
185.000
 21
155.000
  0
LINE
  6
CONTINUOUS
  8
1
 10
185.000
 20
155.000
 11
180.000
 21
155.000
  0
LINE
  6
CONTINUOUS
  8
1
 10
180.000
 20
155.000
 11
180.000
 21
160.000
  0
LINE
  6
CONTINUOUS
  8
1
 10
170.000
 20
145.000
 11
180.000
 21
145.000
  0
LINE
  6
CONTINUOUS
  8
1
 10
180.000
 20
145.000
 11
180.000
 21
135.000
  0
LINE
  6
CONTINUOUS
  8
1
 10
180.000
 20
135.000
 11
170.000
 21
135.000
  0
LINE
  6
CONTINUOUS
  8
1
 10
170.000
 20
135.000
 11
170.000
 21
145.000
  0
LINE
  6
CONTINUOUS
  8
1
 10
185.000
 20
150.000
 11
190.000
 21
150.000
  0
LINE
  6
CONTINUOUS
  8
1
 10
190.000
 20
150.000
 11
190.000
 21
145.000
  0
LINE
  6
CONTINUOUS
  8
1
 10
190.000
 20
145.000
 11
185.000
 21
145.000
  0
LINE
  6
CONTINUOUS
  8
1
 10
185.000
 20
145.000
 11
185.000
 21
150.000
  0
LINE
  6
CONTINUOUS
  8
1
 10
185.000
 20
140.000
 11
190.000
 21
140.000
  0
LINE
  6
CONTINUOUS
  8
1
 10
190.000
 20
140.000
 11
190.000
 21
135.000
  0
LINE
  6
CONTINUOUS
  8
1
 10
190.000
 20
135.000
 11
185.000
 21
135.000
  0
LINE
  6
CONTINUOUS
  8
1
 10
185.000
 20
135.000
 11
185.000
 21
140.000
  0
LINE
  6
CONTINUOUS
  8
1
 10
165.000
 20
130.000
 11
185.000
 21
130.000
  0
LINE
  6
CONTINUOUS
  8
1
 10
185.000
 20
130.000
 11
185.000
 21
125.000
  0
LINE
  6
CONTINUOUS
  8
1
 10
185.000
 20
125.000
 11
165.000
 21
125.000
  0
LINE
  6
CONTINUOUS
  8
1
 10
165.000
 20
125.000
 11
165.000
 21
130.000
  0
TEXT
  8
1
 10
5.000
 20
130.000
 40
2.000
 41
1.000
  1
16pinコネクタ
  7
KANJI
 50
0.000
 51
0.000
  0
TEXT
  8
1
 10
74.909
 20
129.937
 40
2.000
 41
1.000
  1
16pinコネクタ
  7
KANJI
 50
0.709
 51
0.000
  0
TEXT
  8
1
 10
145.123
 20
129.937
 40
2.000
 41
1.000
  1
16pinコネクタ
  7
KANJI
 50
0.000
 51
0.000
  0
TEXT
  8
1
 10
80.000
 20
165.000
 40
2.000
 41
1.000
  1
26pinコネクタ
  7
KANJI
 50
0.000
 51
0.000
  0
TEXT
  8
1
 10
150.000
 20
165.000
 40
2.000
 41
1.000
  1
26pinコネクタ
  7
KANJI
 50
0.000
 51
0.000
  0
TEXT
  8
1
 10
10.000
 20
165.000
 40
2.000
 41
1.000
  1
26pinコネクタ
  7
KANJI
 50
0.000
 51
0.000
  0
TEXT
  8
1
 10
30.000
 20
139.915
 40
2.000
 41
1.000
  1
enc分周器
  7
KANJI
 50
0.000
 51
0.000
  0
TEXT
  8
1
 10
170.000
 20
139.915
 40
2.000
 41
1.000
  1
enc分周器
  7
KANJI
 50
0.000
 51
0.000
  0
TEXT
  8
1
 10
100.000
 20
140.062
 40
2.000
 41
1.000
  1
enc分周器
  7
KANJI
 50
0.000
 51
0.000
  0
TEXT
  8
1
 10
30.008
 20
125.000
 40
2.000
 41
1.000
  1
MOTCNT
  7
KANJI
 50
0.000
 51
0.000
  0
TEXT
  8
1
 10
100.075
 20
125.000
 40
2.000
 41
1.000
  1
MOTCNT
  7
KANJI
 50
0.000
 51
0.000
  0
TEXT
  8
1
 10
170.142
 20
125.000
 40
2.000
 41
1.000
  1
MOTCNT
  7
KANJI
 50
0.000
 51
0.000
  0
TEXT
  8
1
 10
85.254
 20
114.823
 40
4.000
 41
0.750
  1
PWM・ENCボード
  7
KANJI
 50
0.000
 51
0.000
  0
TEXT
  8
1
 10
155.101
 20
114.823
 40
4.000
 41
0.750
  1
PWM・ENCボード
  7
KANJI
 50
0.000
 51
0.000
  0
TEXT
  8
1
 10
15.041
 20
115.117
 40
4.000
 41
0.750
  1
PWM・ENCボード
  7
KANJI
 50
0.000
 51
0.000
  0
TEXT
  8
1
 10
90.097
 20
45.050
 40
4.000
 41
0.750
  1
Control Box
  7
KANJI
 50
0.000
 51
0.000
  0
LINE
  6
CONTINUOUS
  8
1
 10
14.775
 20
230.000
 11
20.230
 21
230.000
  0
LINE
  6
CONTINUOUS
  8
1
 10
20.230
 20
230.000
 11
20.230
 21
225.022
  0
LINE
  6
CONTINUOUS
  8
1
 10
20.230
 20
225.022
 11
14.775
 21
225.022
  0
LINE
  6
CONTINUOUS
  8
1
 10
14.775
 20
225.022
 11
14.775
 21
230.000
  0
LINE
  6
CONTINUOUS
  8
1
 10
15.054
 20
200.000
 11
19.950
 21
200.000
  0
LINE
  6
CONTINUOUS
  8
1
 10
19.950
 20
200.000
 11
19.950
 21
204.879
  0
LINE
  6
CONTINUOUS
  8
1
 10
19.950
 20
204.879
 11
15.054
 21
204.879
  0
LINE
  6
CONTINUOUS
  8
1
 10
15.054
 20
204.879
 11
15.054
 21
200.000
  0
LINE
  6
CONTINUOUS
  8
1
 10
25.126
 20
209.915
 11
40.233
 21
209.915
  0
LINE
  6
CONTINUOUS
  8
1
 10
40.233
 20
209.915
 11
40.233
 21
205.858
  0
LINE
  6
CONTINUOUS
  8
1
 10
40.233
 20
205.858
 11
25.126
 21
205.858
  0
LINE
  6
CONTINUOUS
  8
1
 10
25.126
 20
205.858
 11
25.126
 21
209.915
  0
LINE
  6
CONTINUOUS
  8
1
 10
39.953
 20
220.126
 11
45.269
 21
220.126
  0
LINE
  6
CONTINUOUS
  8
1
 10
45.269
 20
220.126
 11
45.269
 21
214.950
  0
LINE
  6
CONTINUOUS
  8
1
 10
45.269
 20
214.950
 11
39.953
 21
214.950
  0
LINE
  6
CONTINUOUS
  8
1
 10
39.953
 20
214.950
 11
39.953
 21
220.126
  0
LINE
  6
CONTINUOUS
  8
1
 10
84.295
 20
230.000
 11
91.010
 21
230.000
  0
LINE
  6
CONTINUOUS
  8
1
 10
84.855
 20
200.000
 11
89.891
 21
200.000
  0
LINE
  6
CONTINUOUS
  8
1
 10
84.295
 20
230.000
 11
90.100
 21
230.000
  0
LINE
  6
CONTINUOUS
  8
1
 10
90.100
 20
230.000
 11
90.100
 21
224.884
  0
LINE
  6
CONTINUOUS
  8
1
 10
90.100
 20
224.884
 11
84.295
 21
224.884
  0
LINE
  6
CONTINUOUS
  8
1
 10
84.295
 20
224.884
 11
84.295
 21
230.000
  0
LINE
  6
CONTINUOUS
  8
1
 10
84.855
 20
200.000
 11
90.240
 21
200.000
  0
LINE
  6
CONTINUOUS
  8
1
 10
90.240
 20
200.000
 11
90.240
 21
205.021
  0
LINE
  6
CONTINUOUS
  8
1
 10
90.240
 20
205.021
 11
84.855
 21
205.021
  0
LINE
  6
CONTINUOUS
  8
1
 10
84.855
 20
205.021
 11
84.855
 21
200.000
  0
LINE
  6
CONTINUOUS
  8
1
 10
94.996
 20
209.917
 11
110.523
 21
209.917
  0
LINE
  6
CONTINUOUS
  8
1
 10
110.523
 20
209.917
 11
110.523
 21
204.881
  0
LINE
  6
CONTINUOUS
  8
1
 10
110.523
 20
204.881
 11
94.996
 21
204.881
  0
LINE
  6
CONTINUOUS
  8
1
 10
94.996
 20
204.881
 11
94.996
 21
209.917
  0
LINE
  6
CONTINUOUS
  8
1
 10
110.103
 20
219.988
 11
115.139
 21
219.988
  0
LINE
  6
CONTINUOUS
  8
1
 10
115.139
 20
219.988
 11
115.139
 21
214.952
  0
LINE
  6
CONTINUOUS
  8
1
 10
115.139
 20
214.952
 11
110.103
 21
214.952
  0
LINE
  6
CONTINUOUS
  8
1
 10
110.103
 20
214.952
 11
110.103
 21
219.988
  0
LINE
  6
CONTINUOUS
  8
1
 10
154.865
 20
205.021
 11
160.460
 21
205.021
  0
LINE
  6
CONTINUOUS
  8
1
 10
160.460
 20
205.021
 11
160.460
 21
200.000
  0
LINE
  6
CONTINUOUS
  8
1
 10
160.460
 20
200.000
 11
154.865
 21
200.000
  0
LINE
  6
CONTINUOUS
  8
1
 10
154.865
 20
200.000
 11
154.865
 21
205.021
  0
LINE
  6
CONTINUOUS
  8
1
 10
154.865
 20
230.000
 11
160.320
 21
230.000
  0
LINE
  6
CONTINUOUS
  8
1
 10
160.320
 20
230.000
 11
160.320
 21
224.744
  0
LINE
  6
CONTINUOUS
  8
1
 10
160.320
 20
224.744
 11
154.865
 21
224.744
  0
LINE
  6
CONTINUOUS
  8
1
 10
154.865
 20
224.744
 11
154.865
 21
230.000
  0
LINE
  6
CONTINUOUS
  8
1
 10
165.006
 20
210.057
 11
180.114
 21
210.057
  0
LINE
  6
CONTINUOUS
  8
1
 10
180.114
 20
210.057
 11
180.114
 21
205.161
  0
LINE
  6
CONTINUOUS
  8
1
 10
180.114
 20
205.161
 11
165.006
 21
205.161
  0
LINE
  6
CONTINUOUS
  8
1
 10
165.006
 20
205.161
 11
165.006
 21
210.057
  0
LINE
  6
CONTINUOUS
  8
1
 10
179.974
 20
219.988
 11
185.429
 21
219.988
  0
LINE
  6
CONTINUOUS
  8
1
 10
185.429
 20
219.988
 11
185.429
 21
214.952
  0
LINE
  6
CONTINUOUS
  8
1
 10
185.429
 20
214.952
 11
179.974
 21
214.952
  0
LINE
  6
CONTINUOUS
  8
1
 10
179.974
 20
214.952
 11
179.974
 21
219.988
  0
LINE
  6
CONTINUOUS
  8
1
 10
85.064
 20
259.993
 11
95.136
 21
259.993
  0
LINE
  6
CONTINUOUS
  8
1
 10
95.136
 20
259.993
 11
95.136
 21
255.098
  0
LINE
  6
CONTINUOUS
  8
1
 10
95.136
 20
255.098
 11
85.064
 21
255.098
  0
LINE
  6
CONTINUOUS
  8
1
 10
85.064
 20
255.098
 11
85.064
 21
259.993
  0
LINE
  6
CONTINUOUS
  8
1
 10
104.927
 20
260.133
 11
115.558
 21
260.133
  0
LINE
  6
CONTINUOUS
  8
1
 10
115.558
 20
260.133
 11
115.558
 21
255.098
  0
LINE
  6
CONTINUOUS
  8
1
 10
115.558
 20
255.098
 11
104.927
 21
255.098
  0
LINE
  6
CONTINUOUS
  8
1
 10
104.927
 20
255.098
 11
104.927
 21
260.133
  0
LINE
  6
CONTINUOUS
  8
1
 10
154.935
 20
259.993
 11
165.006
 21
259.993
  0
LINE
  6
CONTINUOUS
  8
1
 10
165.006
 20
259.993
 11
165.006
 21
255.098
  0
LINE
  6
CONTINUOUS
  8
1
 10
165.006
 20
255.098
 11
154.935
 21
255.098
  0
LINE
  6
CONTINUOUS
  8
1
 10
154.935
 20
255.098
 11
154.935
 21
259.993
  0
LINE
  6
CONTINUOUS
  8
1
 10
175.078
 20
259.993
 11
185.429
 21
259.993
  0
LINE
  6
CONTINUOUS
  8
1
 10
185.429
 20
259.993
 11
185.429
 21
255.098
  0
LINE
  6
CONTINUOUS
  8
1
 10
185.429
 20
255.098
 11
175.078
 21
255.098
  0
LINE
  6
CONTINUOUS
  8
1
 10
175.078
 20
255.098
 11
175.078
 21
259.993
  0
LINE
  6
CONTINUOUS
  8
1
 10
14.914
 20
259.993
 11
25.265
 21
259.993
  0
LINE
  6
CONTINUOUS
  8
1
 10
25.265
 20
259.993
 11
25.265
 21
255.098
  0
LINE
  6
CONTINUOUS
  8
1
 10
25.265
 20
255.098
 11
14.914
 21
255.098
  0
LINE
  6
CONTINUOUS
  8
1
 10
14.914
 20
255.098
 11
14.914
 21
259.993
  0
LINE
  6
CONTINUOUS
  8
1
 10
34.917
 20
259.993
 11
45.688
 21
259.993
  0
LINE
  6
CONTINUOUS
  8
1
 10
45.688
 20
259.993
 11
45.688
 21
255.098
  0
LINE
  6
CONTINUOUS
  8
1
 10
45.688
 20
255.098
 11
34.917
 21
255.098
  0
LINE
  6
CONTINUOUS
  8
1
 10
34.917
 20
255.098
 11
34.917
 21
259.993
  0
CIRCLE
  6
CONTINUOUS
  8
1
 10
90.100
 20
270.065
 40
5.105
  0
CIRCLE
  6
CONTINUOUS
  8
1
 10
110.103
 20
269.925
 40
4.914
  0
CIRCLE
  6
CONTINUOUS
  8
1
 10
160.092
 20
270.065
 40
5.038
  0
CIRCLE
  6
CONTINUOUS
  8
1
 10
180.235
 20
269.925
 40
4.999
  0
CIRCLE
  6
CONTINUOUS
  8
1
 10
19.904
 20
269.925
 40
4.928
  0
CIRCLE
  6
CONTINUOUS
  8
1
 10
39.907
 20
269.925
 40
5.092
  0
TEXT
  8
1
 10
25.079
 20
230.000
 40
4.000
 41
0.750
  1
Rug Warrior
  7
KANJI
 50
0.129
 51
0.000
  0
TEXT
  8
1
 10
95.020
 20
230.000
 40
4.000
 41
0.750
  1
Rug Warrior
  7
KANJI
 50
0.000
 51
0.000
  0
TEXT
  8
1
 10
165.100
 20
230.000
 40
4.000
 41
0.750
  1
Rug Warrior
  7
KANJI
 50
359.860
 51
0.000
  0
TEXT
  8
1
 10
15.148
 20
245.026
 40
4.000
 41
0.750
  1
Robot本体
  7
KANJI
 50
0.000
 51
0.000
  0
TEXT
  8
1
 10
85.228
 20
245.026
 40
4.000
 41
0.750
  1
Robot本体
  7
KANJI
 50
0.000
 51
0.000
  0
TEXT
  8
1
 10
155.029
 20
245.026
 40
4.000
 41
0.750
  1
Robot本体
  7
KANJI
 50
0.000
 51
0.000
  0
TEXT
  8
1
 10
155.054
 20
270.065
 40
4.000
 41
0.750
  1
MOT
  7
KANJI
 50
0.000
 51
0.000
  0
TEXT
  8
1
 10
175.236
 20
269.925
 40
4.000
 41
0.750
  1
MOT
  7
KANJI
 50
0.000
 51
0.000
  0
TEXT
  8
1
 10
84.995
 20
270.065
 40
4.000
 41
0.750
  1
MOT
  7
KANJI
 50
0.000
 51
0.000
  0
TEXT
  8
1
 10
105.189
 20
269.925
 40
4.000
 41
0.750
  1
MOT
  7
KANJI
 50
0.000
 51
0.000
  0
TEXT
  8
1
 10
85.064
 20
255.098
 40
2.000
 41
1.000
  1
enc
  7
KANJI
 50
0.000
 51
0.000
  0
TEXT
  8
1
 10
104.927
 20
255.098
 40
2.000
 41
1.000
  1
enc
  7
KANJI
 50
0.000
 51
0.000
  0
TEXT
  8
1
 10
154.935
 20
255.098
 40
2.000
 41
1.000
  1
enc
  7
KANJI
 50
0.000
 51
0.000
  0
TEXT
  8
1
 10
175.078
 20
255.098
 40
2.000
 41
1.000
  1
enc
  7
KANJI
 50
0.000
 51
0.000
  0
TEXT
  8
1
 10
14.914
 20
255.098
 40
2.000
 41
1.000
  1
enc
  7
KANJI
 50
0.000
 51
0.000
  0
TEXT
  8
1
 10
34.917
 20
255.098
 40
2.000
 41
1.000
  1
enc
  7
KANJI
 50
0.000
 51
0.000
  0
TEXT
  8
1
 10
20.230
 20
225.022
 40
2.000
 41
1.000
  1
shaftenc
  7
KANJI
 50
0.017
 51
0.000
  0
TEXT
  8
1
 10
19.950
 20
200.000
 40
2.000
 41
1.000
  1
shaftenc
  7
KANJI
 50
0.000
 51
0.000
  0
TEXT
  8
1
 10
90.100
 20
224.884
 40
2.000
 41
1.000
  1
shaftenc
  7
KANJI
 50
0.983
 51
0.000
  0
TEXT
  8
1
 10
90.240
 20
200.000
 40
2.000
 41
1.000
  1
shaftenc
  7
KANJI
 50
0.000
 51
0.000
  0
TEXT
  8
1
 10
160.320
 20
224.744
 40
2.000
 41
1.000
  1
shaftenc
  7
KANJI
 50
0.261
 51
0.000
  0
TEXT
  8
1
 10
160.460
 20
200.000
 40
2.000
 41
1.000
  1
shaftenc
  7
KANJI
 50
0.000
 51
0.000
  0
TEXT
  8
1
 10
34.896
 20
214.889
 40
2.000
 41
1.000
  1
pyro
  7
KANJI
 50
0.000
 51
0.000
  0
TEXT
  8
1
 10
105.116
 20
214.749
 40
2.000
 41
1.000
  1
pyro
  7
KANJI
 50
0.000
 51
0.000
  0
TEXT
  8
1
 10
174.921
 20
214.889
 40
2.000
 41
1.000
  1
pyro
  7
KANJI
 50
0.000
 51
0.000
  0
TEXT
  8
1
 10
165.006
 20
205.161
 40
2.000
 41
1.000
  1
expansion
  7
KANJI
 50
0.000
 51
0.000
  0
TEXT
  8
1
 10
94.996
 20
204.881
 40
2.000
 41
1.000
  1
expansion
  7
KANJI
 50
0.243
 51
0.000
  0
TEXT
  8
1
 10
25.126
 20
205.858
 40
2.000
 41
1.000
  1
expansion
  7
KANJI
 50
0.000
 51
0.000
  0
TEXT
  8
1
 10
34.815
 20
269.925
 40
3.000
 41
1.333
  1
MOT
  7
KANJI
 50
358.885
 51
0.000
  0
TEXT
  8
1
 10
14.976
 20
269.925
 40
3.000
 41
1.333
  1
MOT
  7
KANJI
 50
359.703
 51
0.000
  0
LINE
  6
CONTINUOUS
  8
1
 10
80.000
 20
139.998
 11
79.196
 21
138.970
  0
LINE
  6
CONTINUOUS
  8
1
 10
150.000
 20
140.138
 11
149.132
 21
140.127
  0
LINE
  6
CONTINUOUS
  8
1
 10
14.970
 20
155.000
 11
12.452
 21
150.000
  0
LINE
  6
CONTINUOUS
  8
1
 10
19.866
 20
155.000
 11
20.285
 21
125.753
  0
LINE
  6
CONTINUOUS
  8
1
 10
20.285
 20
125.753
 11
25.000
 21
125.000
  0
LINE
  6
CONTINUOUS
  8
1
 10
22.104
 20
155.000
 11
22.244
 21
127.991
  0
LINE
  6
CONTINUOUS
  8
1
 10
22.244
 20
127.991
 11
25.000
 21
127.432
  0
LINE
  6
CONTINUOUS
  8
1
 10
25.000
 20
155.000
 11
25.041
 21
137.783
  0
LINE
  6
CONTINUOUS
  8
1
 10
25.041
 20
137.783
 11
30.000
 21
137.783
  0
LINE
  6
CONTINUOUS
  8
1
 10
25.000
 20
156.107
 11
26.860
 21
155.827
  0
LINE
  6
CONTINUOUS
  8
1
 10
26.860
 20
155.827
 11
26.860
 21
140.580
  0
LINE
  6
CONTINUOUS
  8
1
 10
26.860
 20
140.580
 11
30.000
 21
140.580
  0
LINE
  6
CONTINUOUS
  8
1
 10
33.294
 20
145.000
 11
33.294
 21
155.000
  0
LINE
  6
CONTINUOUS
  8
1
 10
42.107
 20
155.000
 11
42.107
 21
150.092
  0
LINE
  6
CONTINUOUS
  8
1
 10
42.107
 20
150.092
 11
38.050
 21
145.000
  0
LINE
  6
CONTINUOUS
  8
1
 10
39.729
 20
130.000
 11
42.107
 21
136.664
  0
LINE
  6
CONTINUOUS
  8
1
 10
42.107
 20
136.664
 11
42.107
 21
146.875
  0
LINE
  6
CONTINUOUS
  8
1
 10
42.107
 20
146.875
 11
45.000
 21
146.875
  0
LINE
  6
CONTINUOUS
  8
1
 10
45.000
 20
136.664
 11
43.505
 21
136.804
  0
LINE
  6
CONTINUOUS
  8
1
 10
43.505
 20
136.804
 11
41.407
 21
130.000
  0
LINE
  6
CONTINUOUS
  8
1
 10
109.878
 20
130.000
 11
111.557
 21
137.083
  0
LINE
  6
CONTINUOUS
  8
1
 10
111.557
 20
137.083
 11
111.557
 21
147.574
  0
LINE
  6
CONTINUOUS
  8
1
 10
111.557
 20
147.574
 11
115.000
 21
147.574
  0
LINE
  6
CONTINUOUS
  8
1
 10
112.256
 20
130.000
 11
113.795
 21
136.524
  0
LINE
  6
CONTINUOUS
  8
1
 10
113.795
 20
136.524
 11
115.000
 21
136.664
  0
LINE
  6
CONTINUOUS
  8
1
 10
102.884
 20
155.000
 11
102.884
 21
145.000
  0
LINE
  6
CONTINUOUS
  8
1
 10
112.536
 20
155.000
 11
112.536
 21
151.071
  0
LINE
  6
CONTINUOUS
  8
1
 10
112.536
 20
151.071
 11
107.080
 21
145.000
  0
LINE
  6
CONTINUOUS
  8
1
 10
95.000
 20
156.666
 11
96.829
 21
154.427
  0
LINE
  6
CONTINUOUS
  8
1
 10
96.829
 20
154.427
 11
96.829
 21
139.181
  0
LINE
  6
CONTINUOUS
  8
1
 10
96.829
 20
139.181
 11
100.000
 21
139.687
  0
LINE
  6
CONTINUOUS
  8
1
 10
92.913
 20
155.000
 11
92.913
 21
137.782
  0
LINE
  6
CONTINUOUS
  8
1
 10
92.913
 20
137.782
 11
100.000
 21
137.502
  0
LINE
  6
CONTINUOUS
  8
1
 10
90.115
 20
155.000
 11
90.115
 21
128.270
  0
LINE
  6
CONTINUOUS
  8
1
 10
90.115
 20
128.270
 11
95.000
 21
128.270
  0
LINE
  6
CONTINUOUS
  8
1
 10
87.457
 20
155.000
 11
87.457
 21
127.011
  0
LINE
  6
CONTINUOUS
  8
1
 10
87.457
 20
127.011
 11
95.000
 21
127.011
  0
LINE
  6
CONTINUOUS
  8
1
 10
82.561
 20
155.000
 11
82.561
 21
150.000
  0
LINE
  6
CONTINUOUS
  8
1
 10
172.557
 20
155.000
 11
172.557
 21
145.000
  0
LINE
  6
CONTINUOUS
  8
1
 10
182.348
 20
155.000
 11
182.209
 21
151.768
  0
LINE
  6
CONTINUOUS
  8
1
 10
182.209
 20
151.768
 11
177.313
 21
145.000
  0
LINE
  6
CONTINUOUS
  8
1
 10
185.000
 20
147.292
 11
182.348
 21
147.012
  0
LINE
  6
CONTINUOUS
  8
1
 10
185.000
 20
147.292
 11
182.348
 21
147.012
  0
LINE
  6
CONTINUOUS
  8
1
 10
182.348
 20
147.012
 11
182.348
 21
134.003
  0
LINE
  6
CONTINUOUS
  8
1
 10
182.348
 20
134.003
 11
179.970
 21
130.000
  0
LINE
  6
CONTINUOUS
  8
1
 10
185.000
 20
136.661
 11
181.229
 21
130.000
  0
LINE
  6
CONTINUOUS
  8
1
 10
160.107
 20
155.000
 11
160.107
 21
127.429
  0
LINE
  6
CONTINUOUS
  8
1
 10
160.107
 20
127.429
 11
165.000
 21
127.429
  0
LINE
  6
CONTINUOUS
  8
1
 10
157.869
 20
155.000
 11
157.869
 21
125.750
  0
LINE
  6
CONTINUOUS
  8
1
 10
157.869
 20
125.750
 11
165.000
 21
125.000
  0
LINE
  6
CONTINUOUS
  8
1
 10
165.000
 20
156.664
 11
166.542
 21
154.425
  0
LINE
  6
CONTINUOUS
  8
1
 10
166.542
 20
154.425
 11
166.542
 21
140.018
  0
LINE
  6
CONTINUOUS
  8
1
 10
166.542
 20
140.018
 11
170.000
 21
139.540
  0
LINE
  6
CONTINUOUS
  8
1
 10
163.604
 20
155.000
 11
163.604
 21
137.640
  0
LINE
  6
CONTINUOUS
  8
1
 10
163.604
 20
137.640
 11
170.000
 21
137.640
  0
LINE
  6
CONTINUOUS
  8
1
 10
90.100
 20
264.960
 11
90.167
 21
259.993
  0
LINE
  6
CONTINUOUS
  8
1
 10
110.103
 20
265.011
 11
110.170
 21
260.133
  0
LINE
  6
CONTINUOUS
  8
1
 10
160.092
 20
265.027
 11
160.107
 21
259.993
  0
LINE
  6
CONTINUOUS
  8
1
 10
180.235
 20
264.926
 11
180.250
 21
259.993
  0
LINE
  6
CONTINUOUS
  8
1
 10
39.907
 20
264.833
 11
39.987
 21
259.993
  0
LINE
  6
CONTINUOUS
  8
1
 10
19.904
 20
264.997
 11
19.984
 21
259.993
  0
LINE
  6
CONTINUOUS
  8
1
 10
84.940
 20
184.970
 11
84.940
 21
165.000
  0
LINE
  6
CONTINUOUS
  8
1
 10
154.880
 20
184.830
 11
155.020
 21
165.000
  0
LINE
  6
CONTINUOUS
  8
1
 10
14.930
 20
184.830
 11
15.070
 21
165.000
  0
LINE
  6
CONTINUOUS
  8
1
 10
20.914
 20
255.098
 11
21.084
 21
234.907
  0
LINE
  6
CONTINUOUS
  8
1
 10
21.084
 20
234.907
 11
52.138
 21
234.907
  0
LINE
  6
CONTINUOUS
  8
1
 10
52.138
 20
234.907
 11
52.138
 21
174.759
  0
LINE
  6
CONTINUOUS
  8
1
 10
52.138
 20
174.759
 11
32.834
 21
174.759
  0
LINE
  6
CONTINUOUS
  8
1
 10
32.834
 20
174.759
 11
32.834
 21
160.000
  0
LINE
  6
CONTINUOUS
  8
1
 10
40.917
 20
255.098
 11
40.947
 21
237.985
  0
LINE
  6
CONTINUOUS
  8
1
 10
40.947
 20
237.985
 11
54.656
 21
237.985
  0
LINE
  6
CONTINUOUS
  8
1
 10
54.656
 20
237.985
 11
54.656
 21
172.521
  0
LINE
  6
CONTINUOUS
  8
1
 10
54.656
 20
172.521
 11
42.346
 21
172.521
  0
LINE
  6
CONTINUOUS
  8
1
 10
42.346
 20
172.521
 11
42.346
 21
160.000
  0
LINE
  6
CONTINUOUS
  8
1
 10
44.999
 20
269.925
 11
55.775
 21
270.157
  0
LINE
  6
CONTINUOUS
  8
1
 10
55.775
 20
270.157
 11
58.293
 21
270.157
  0
LINE
  6
CONTINUOUS
  8
1
 10
58.293
 20
270.157
 11
58.293
 21
147.063
  0
LINE
  6
CONTINUOUS
  8
1
 10
58.293
 20
147.063
 11
50.000
 21
147.063
  0
LINE
  6
CONTINUOUS
  8
1
 10
19.904
 20
274.853
 11
19.965
 21
283.306
  0
LINE
  6
CONTINUOUS
  8
1
 10
19.965
 20
283.306
 11
63.048
 21
283.306
  0
LINE
  6
CONTINUOUS
  8
1
 10
63.048
 20
283.306
 11
63.048
 21
137.831
  0
LINE
  6
CONTINUOUS
  8
1
 10
63.048
 20
137.831
 11
50.000
 21
137.831
  0
LINE
  6
CONTINUOUS
  8
1
 10
91.064
 20
255.098
 11
91.025
 21
235.187
  0
LINE
  6
CONTINUOUS
  8
1
 10
91.025
 20
235.187
 11
121.518
 21
235.187
  0
LINE
  6
CONTINUOUS
  8
1
 10
121.518
 20
235.187
 11
121.518
 21
174.759
  0
LINE
  6
CONTINUOUS
  8
1
 10
121.518
 20
174.759
 11
102.495
 21
174.759
  0
LINE
  6
CONTINUOUS
  8
1
 10
102.495
 20
174.759
 11
102.495
 21
160.000
  0
LINE
  6
CONTINUOUS
  8
1
 10
110.608
 20
237.985
 11
123.477
 21
237.985
  0
LINE
  6
CONTINUOUS
  8
1
 10
123.477
 20
237.985
 11
123.477
 21
172.241
  0
LINE
  6
CONTINUOUS
  8
1
 10
123.477
 20
172.241
 11
112.846
 21
172.241
  0
LINE
  6
CONTINUOUS
  8
1
 10
112.846
 20
172.241
 11
112.846
 21
160.000
  0
LINE
  6
CONTINUOUS
  8
1
 10
115.017
 20
269.925
 11
125.995
 21
270.157
  0
LINE
  6
CONTINUOUS
  8
1
 10
125.995
 20
270.157
 11
125.995
 21
147.063
  0
LINE
  6
CONTINUOUS
  8
1
 10
125.995
 20
147.063
 11
120.000
 21
147.063
  0
LINE
  6
CONTINUOUS
  8
1
 10
90.185
 20
283.306
 11
132.149
 21
283.306
  0
LINE
  6
CONTINUOUS
  8
1
 10
132.149
 20
283.306
 11
132.149
 21
136.712
  0
LINE
  6
CONTINUOUS
  8
1
 10
160.935
 20
255.098
 11
161.168
 21
235.187
  0
LINE
  6
CONTINUOUS
  8
1
 10
161.168
 20
235.187
 11
191.382
 21
235.187
  0
LINE
  6
CONTINUOUS
  8
1
 10
191.382
 20
235.187
 11
191.382
 21
175.039
  0
LINE
  6
CONTINUOUS
  8
1
 10
191.382
 20
175.039
 11
172.638
 21
175.039
  0
LINE
  6
CONTINUOUS
  8
1
 10
172.638
 20
175.039
 11
172.638
 21
160.000
  0
LINE
  6
CONTINUOUS
  8
1
 10
181.078
 20
255.098
 11
181.311
 21
238.265
  0
LINE
  6
CONTINUOUS
  8
1
 10
181.311
 20
238.265
 11
193.620
 21
238.265
  0
LINE
  6
CONTINUOUS
  8
1
 10
193.620
 20
238.265
 11
193.620
 21
172.241
  0
LINE
  6
CONTINUOUS
  8
1
 10
193.620
 20
172.241
 11
182.709
 21
172.241
  0
LINE
  6
CONTINUOUS
  8
1
 10
182.709
 20
172.241
 11
182.709
 21
160.000
  0
LINE
  6
CONTINUOUS
  8
1
 10
185.234
 20
269.925
 11
195.858
 21
270.157
  0
LINE
  6
CONTINUOUS
  8
1
 10
195.858
 20
270.157
 11
195.858
 21
147.343
  0
LINE
  6
CONTINUOUS
  8
1
 10
195.858
 20
147.343
 11
190.000
 21
147.343
  0
LINE
  6
CONTINUOUS
  8
1
 10
160.608
 20
282.187
 11
202.013
 21
282.187
  0
LINE
  6
CONTINUOUS
  8
1
 10
202.013
 20
282.187
 11
202.013
 21
137.551
  0
LINE
  6
CONTINUOUS
  8
1
 10
202.013
 20
137.551
 11
190.000
 21
137.551
  0
LINE
  6
CONTINUOUS
  8
1
 10
90.185
 20
283.306
 11
90.100
 21
275.170
  0
LINE
  6
CONTINUOUS
  8
1
 10
160.092
 20
275.103
 11
160.608
 21
282.187
  0
LINE
  6
CONTINUOUS
  8
1
 10
110.927
 20
255.098
 11
110.608
 21
237.985
  0
LINE
  6
CONTINUOUS
  8
1
 10
132.149
 20
136.712
 11
120.000
 21
135.000
  0
LINE
  6
CONTINUOUS
  8
1
 10
10.000
 20
139.230
 11
5.062
 21
139.230
  0
LINE
  6
CONTINUOUS
  8
1
 10
5.062
 20
139.230
 11
5.062
 21
94.748
  0
LINE
  6
CONTINUOUS
  8
1
 10
5.062
 20
94.748
 11
61.014
 21
94.748
  0
LINE
  6
CONTINUOUS
  8
1
 10
61.014
 20
94.748
 11
61.014
 21
90.000
  0
LINE
  6
CONTINUOUS
  8
1
 10
80.000
 20
139.998
 11
74.162
 21
139.790
  0
LINE
  6
CONTINUOUS
  8
1
 10
74.162
 20
139.790
 11
74.162
 21
94.748
  0
LINE
  6
CONTINUOUS
  8
1
 10
74.162
 20
94.748
 11
101.299
 21
94.748
  0
LINE
  6
CONTINUOUS
  8
1
 10
101.299
 20
94.748
 11
101.019
 21
90.000
  0
LINE
  6
CONTINUOUS
  8
1
 10
150.000
 20
140.138
 11
139.067
 21
140.069
  0
LINE
  6
CONTINUOUS
  8
1
 10
139.067
 20
140.069
 11
139.067
 21
90.000
  0
LINE
  6
CONTINUOUS
  8
1
 10
14.775
 20
227.074
 11
7.579
 21
227.074
  0
LINE
  6
CONTINUOUS
  8
1
 10
7.579
 20
227.074
 11
7.579
 21
189.307
  0
LINE
  6
CONTINUOUS
  8
1
 10
7.579
 20
189.307
 11
14.930
 21
184.830
  0
LINE
  6
CONTINUOUS
  8
1
 10
15.054
 20
200.000
 11
14.930
 21
184.830
  0
LINE
  6
CONTINUOUS
  8
1
 10
31.639
 20
205.858
 11
31.639
 21
189.586
  0
LINE
  6
CONTINUOUS
  8
1
 10
31.639
 20
189.586
 11
14.930
 21
184.830
  0
LINE
  6
CONTINUOUS
  8
1
 10
45.269
 20
214.950
 11
45.347
 21
194.902
  0
LINE
  6
CONTINUOUS
  8
1
 10
45.347
 20
194.902
 11
14.930
 21
184.830
  0
LINE
  6
CONTINUOUS
  8
1
 10
84.855
 20
200.000
 11
84.940
 21
184.970
  0
LINE
  6
CONTINUOUS
  8
1
 10
84.295
 20
227.354
 11
77.240
 21
227.074
  0
LINE
  6
CONTINUOUS
  8
1
 10
77.240
 20
227.074
 11
77.240
 21
189.586
  0
LINE
  6
CONTINUOUS
  8
1
 10
77.240
 20
189.586
 11
84.940
 21
184.970
  0
LINE
  6
CONTINUOUS
  8
1
 10
101.579
 20
204.881
 11
101.579
 21
191.545
  0
LINE
  6
CONTINUOUS
  8
1
 10
101.579
 20
191.545
 11
84.940
 21
184.970
  0
LINE
  6
CONTINUOUS
  8
1
 10
113.116
 20
214.749
 11
113.329
 21
194.902
  0
LINE
  6
CONTINUOUS
  8
1
 10
113.329
 20
194.902
 11
84.940
 21
184.970
  0
LINE
  6
CONTINUOUS
  8
1
 10
154.865
 20
200.000
 11
154.880
 21
184.830
  0
LINE
  6
CONTINUOUS
  8
1
 10
154.865
 20
227.074
 11
146.341
 21
227.074
  0
LINE
  6
CONTINUOUS
  8
1
 10
146.341
 20
227.074
 11
146.341
 21
190.985
  0
LINE
  6
CONTINUOUS
  8
1
 10
146.341
 20
190.985
 11
154.880
 21
184.830
  0
LINE
  6
CONTINUOUS
  8
1
 10
171.799
 20
205.161
 11
171.799
 21
191.824
  0
LINE
  6
CONTINUOUS
  8
1
 10
171.799
 20
191.824
 11
154.880
 21
184.830
  0
LINE
  6
CONTINUOUS
  8
1
 10
185.429
 20
214.952
 11
185.507
 21
191.545
  0
LINE
  6
CONTINUOUS
  8
1
 10
185.507
 20
191.545
 11
154.880
 21
184.830
  0
TEXT
  8
1
 10
129.552
 20
34.929
 40
3.000
 41
1.333
  1
☆RW部分は基板に直付けする
  7
KANJI
 50
0.000
 51
0.000
  0
TEXT
  8
1
 10
130.671
 20
29.893
 40
3.000
 41
1.333
  1
☆a部分コネクタは3pinコネクタ
  7
KANJI
 50
0.000
 51
0.000
  0
TEXT
  8
1
 10
130.391
 20
24.857
 40
3.000
 41
1.333
  1
☆b部分コネクタは16pinコネクタ
  7
KANJI
 50
0.000
 51
0.000
  0
TEXT
  8
1
 10
79.755
 20
94.748
 40
5.000
 41
1.000
  1
A
  7
KANJI
 50
0.000
 51
0.000
  0
TEXT
  8
1
 10
84.940
 20
169.772
 40
5.000
 41
1.000
  1
B
  7
KANJI
 50
0.000
 51
0.000
  0
TEXT
  8
1
 10
109.689
 20
174.759
 40
5.000
 41
1.000
  1
C
  7
KANJI
 50
0.000
 51
0.000
  0
TEXT
  8
1
 10
115.284
 20
165.016
 40
5.000
 41
1.000
  1
D
  7
KANJI
 50
0.000
 51
0.000
  0
TEXT
  8
1
 10
125.995
 20
147.063
 40
5.000
 41
1.000
  1
E
  7
KANJI
 50
1.033
 51
0.000
  0
TEXT
  8
1
 10
127.594
 20
133.403
 40
5.000
 41
1.000
  1
F
  7
KANJI
 50
0.000
 51
0.000
  0
TEXT
  8
1
 10
80.034
 20
9.471
 40
10.000
 41
1.000
  1
信号系統図
  7
KANJI
 50
0.000
 51
0.000
  0
LINE
  6
CONTINUOUS
  8
1
 10
10.000
 20
124.067
 11
16.361
 21
124.067
  0
LINE
  6
CONTINUOUS
  8
1
 10
16.361
 20
124.067
 11
16.361
 21
120.000
  0
LINE
  6
CONTINUOUS
  8
1
 10
16.361
 20
120.000
 11
10.000
 21
120.000
  0
LINE
  6
CONTINUOUS
  8
1
 10
10.000
 20
120.000
 11
10.000
 21
124.067
  0
LINE
  6
CONTINUOUS
  8
1
 10
21.643
 20
122.306
 11
36.317
 21
122.306
  0
LINE
  6
CONTINUOUS
  8
1
 10
36.317
 20
122.306
 11
36.317
 21
120.000
  0
LINE
  6
CONTINUOUS
  8
1
 10
36.317
 20
120.000
 11
21.643
 21
120.000
  0
LINE
  6
CONTINUOUS
  8
1
 10
21.643
 20
120.000
 11
21.643
 21
122.306
  0
LINE
  6
CONTINUOUS
  8
1
 10
48.349
 20
123.921
 11
50.000
 21
123.921
  0
LINE
  6
CONTINUOUS
  8
1
 10
50.000
 20
123.921
 11
50.000
 21
122.160
  0
LINE
  6
CONTINUOUS
  8
1
 10
50.000
 20
122.160
 11
48.349
 21
122.160
  0
LINE
  6
CONTINUOUS
  8
1
 10
48.349
 20
122.160
 11
48.349
 21
123.921
  0
LINE
  6
CONTINUOUS
  8
1
 10
48.349
 20
122.160
 11
50.000
 21
122.160
  0
LINE
  6
CONTINUOUS
  8
1
 10
50.000
 20
122.160
 11
50.000
 21
120.000
  0
LINE
  6
CONTINUOUS
  8
1
 10
50.000
 20
120.000
 11
48.349
 21
120.000
  0
LINE
  6
CONTINUOUS
  8
1
 10
48.349
 20
120.000
 11
48.349
 21
122.160
  0
LINE
  6
CONTINUOUS
  8
1
 10
10.000
 20
253.893
 11
18.707
 21
253.893
  0
LINE
  6
CONTINUOUS
  8
1
 10
18.707
 20
253.893
 11
18.707
 21
250.000
  0
LINE
  6
CONTINUOUS
  8
1
 10
18.707
 20
250.000
 11
10.000
 21
250.000
  0
LINE
  6
CONTINUOUS
  8
1
 10
10.000
 20
250.000
 11
10.000
 21
253.893
  0
LINE
  6
CONTINUOUS
  8
1
 10
42.038
 20
254.039
 11
50.000
 21
254.039
  0
LINE
  6
CONTINUOUS
  8
1
 10
50.000
 20
254.039
 11
50.000
 21
250.000
  0
LINE
  6
CONTINUOUS
  8
1
 10
50.000
 20
250.000
 11
42.038
 21
250.000
  0
LINE
  6
CONTINUOUS
  8
1
 10
42.038
 20
250.000
 11
42.038
 21
254.039
  0
LINE
  6
CONTINUOUS
  8
1
 10
80.000
 20
253.908
 11
88.332
 21
253.908
  0
LINE
  6
CONTINUOUS
  8
1
 10
88.332
 20
253.908
 11
88.332
 21
250.000
  0
LINE
  6
CONTINUOUS
  8
1
 10
88.332
 20
250.000
 11
80.000
 21
250.000
  0
LINE
  6
CONTINUOUS
  8
1
 10
80.000
 20
250.000
 11
80.000
 21
253.908
  0
LINE
  6
CONTINUOUS
  8
1
 10
113.571
 20
253.761
 11
120.000
 21
253.761
  0
LINE
  6
CONTINUOUS
  8
1
 10
120.000
 20
253.761
 11
120.000
 21
250.000
  0
LINE
  6
CONTINUOUS
  8
1
 10
120.000
 20
250.000
 11
113.571
 21
250.000
  0
LINE
  6
CONTINUOUS
  8
1
 10
113.571
 20
250.000
 11
113.571
 21
253.761
  0
LINE
  6
CONTINUOUS
  8
1
 10
150.000
 20
253.761
 11
158.473
 21
253.761
  0
LINE
  6
CONTINUOUS
  8
1
 10
158.473
 20
253.761
 11
158.473
 21
250.000
  0
LINE
  6
CONTINUOUS
  8
1
 10
158.473
 20
250.000
 11
150.000
 21
250.000
  0
LINE
  6
CONTINUOUS
  8
1
 10
150.000
 20
250.000
 11
150.000
 21
253.761
  0
LINE
  6
CONTINUOUS
  8
1
 10
190.000
 20
253.907
 11
182.259
 21
253.907
  0
LINE
  6
CONTINUOUS
  8
1
 10
182.259
 20
253.907
 11
182.259
 21
250.000
  0
LINE
  6
CONTINUOUS
  8
1
 10
182.259
 20
250.000
 11
190.000
 21
250.000
  0
LINE
  6
CONTINUOUS
  8
1
 10
190.000
 20
250.000
 11
190.000
 21
253.907
  0
LINE
  6
CONTINUOUS
  8
1
 10
150.000
 20
123.899
 11
158.486
 21
123.899
  0
LINE
  6
CONTINUOUS
  8
1
 10
158.486
 20
123.899
 11
158.486
 21
120.000
  0
LINE
  6
CONTINUOUS
  8
1
 10
158.486
 20
120.000
 11
150.000
 21
120.000
  0
LINE
  6
CONTINUOUS
  8
1
 10
150.000
 20
120.000
 11
150.000
 21
123.899
  0
LINE
  6
CONTINUOUS
  8
1
 10
164.062
 20
122.138
 11
179.762
 21
122.138
  0
LINE
  6
CONTINUOUS
  8
1
 10
179.762
 20
122.138
 11
179.762
 21
120.000
  0
LINE
  6
CONTINUOUS
  8
1
 10
179.762
 20
120.000
 11
164.062
 21
120.000
  0
LINE
  6
CONTINUOUS
  8
1
 10
164.062
 20
120.000
 11
164.062
 21
122.138
  0
LINE
  6
CONTINUOUS
  8
1
 10
190.000
 20
123.899
 11
188.126
 21
123.899
  0
LINE
  6
CONTINUOUS
  8
1
 10
188.126
 20
123.899
 11
188.126
 21
122.138
  0
LINE
  6
CONTINUOUS
  8
1
 10
188.126
 20
122.138
 11
190.000
 21
122.138
  0
LINE
  6
CONTINUOUS
  8
1
 10
190.000
 20
122.138
 11
190.000
 21
123.899
  0
LINE
  6
CONTINUOUS
  8
1
 10
190.000
 20
122.138
 11
188.273
 21
122.138
  0
LINE
  6
CONTINUOUS
  8
1
 10
188.273
 20
122.138
 11
188.273
 21
120.000
  0
LINE
  6
CONTINUOUS
  8
1
 10
188.273
 20
120.000
 11
190.000
 21
120.000
  0
LINE
  6
CONTINUOUS
  8
1
 10
190.000
 20
120.000
 11
190.000
 21
122.138
  0
LINE
  6
CONTINUOUS
  8
1
 10
80.000
 20
123.897
 11
86.994
 21
123.897
  0
LINE
  6
CONTINUOUS
  8
1
 10
86.994
 20
123.897
 11
86.994
 21
120.000
  0
LINE
  6
CONTINUOUS
  8
1
 10
86.994
 20
120.000
 11
80.000
 21
120.000
  0
LINE
  6
CONTINUOUS
  8
1
 10
80.000
 20
120.000
 11
80.000
 21
123.897
  0
LINE
  6
CONTINUOUS
  8
1
 10
91.543
 20
121.989
 11
106.657
 21
121.989
  0
LINE
  6
CONTINUOUS
  8
1
 10
106.657
 20
121.989
 11
106.657
 21
120.000
  0
LINE
  6
CONTINUOUS
  8
1
 10
106.657
 20
120.000
 11
91.543
 21
120.000
  0
LINE
  6
CONTINUOUS
  8
1
 10
91.543
 20
120.000
 11
91.543
 21
121.989
  0
LINE
  6
CONTINUOUS
  8
1
 10
120.000
 20
123.897
 11
118.102
 21
123.897
  0
LINE
  6
CONTINUOUS
  8
1
 10
118.102
 20
123.897
 11
118.102
 21
121.989
  0
LINE
  6
CONTINUOUS
  8
1
 10
118.102
 20
121.989
 11
120.000
 21
121.989
  0
LINE
  6
CONTINUOUS
  8
1
 10
120.000
 20
121.989
 11
120.000
 21
123.897
  0
LINE
  6
CONTINUOUS
  8
1
 10
120.000
 20
121.989
 11
118.102
 21
121.989
  0
LINE
  6
CONTINUOUS
  8
1
 10
118.102
 20
121.989
 11
118.102
 21
120.000
  0
LINE
  6
CONTINUOUS
  8
1
 10
118.102
 20
120.000
 11
120.000
 21
120.000
  0
LINE
  6
CONTINUOUS
  8
1
 10
120.000
 20
120.000
 11
120.000
 21
121.989
  0
LINE
  6
CONTINUOUS
  8
1
 10
16.267
 20
155.000
 11
16.361
 21
124.067
  0
LINE
  6
CONTINUOUS
  8
1
 10
18.174
 20
155.000
 11
18.174
 21
121.842
  0
LINE
  6
CONTINUOUS
  8
1
 10
18.174
 20
121.842
 11
21.643
 21
122.306
  0
LINE
  6
CONTINUOUS
  8
1
 10
36.317
 20
122.306
 11
48.349
 21
123.921
  0
LINE
  6
CONTINUOUS
  8
1
 10
36.317
 20
121.109
 11
48.349
 21
121.109
  0
LINE
  6
CONTINUOUS
  8
1
 10
85.526
 20
155.000
 11
85.526
 21
123.897
  0
LINE
  6
CONTINUOUS
  8
1
 10
91.836
 20
155.000
 11
91.543
 21
121.989
  0
LINE
  6
CONTINUOUS
  8
1
 10
106.657
 20
121.989
 11
118.102
 21
123.897
  0
LINE
  6
CONTINUOUS
  8
1
 10
106.657
 20
121.989
 11
106.657
 21
120.000
  0
LINE
  6
CONTINUOUS
  8
1
 10
106.657
 20
120.000
 11
118.102
 21
120.000
  0
LINE
  6
CONTINUOUS
  8
1
 10
106.657
 20
121.989
 11
118.102
 21
120.000
  0
LINE
  6
CONTINUOUS
  8
1
 10
155.992
 20
155.000
 11
155.992
 21
123.899
  0
LINE
  6
CONTINUOUS
  8
1
 10
162.008
 20
155.000
 11
162.008
 21
121.255
  0
LINE
  6
CONTINUOUS
  8
1
 10
162.008
 20
121.255
 11
164.062
 21
122.138
  0
LINE
  6
CONTINUOUS
  8
1
 10
179.762
 20
122.138
 11
188.126
 21
123.899
  0
LINE
  6
CONTINUOUS
  8
1
 10
179.762
 20
122.138
 11
188.273
 21
120.000
  0
LINE
  6
CONTINUOUS
  8
1
 10
10.000
 20
253.893
 11
10.000
 21
250.000
  0
LINE
  6
CONTINUOUS
  8
1
 10
10.000
 20
253.893
 11
2.063
 21
253.692
  0
LINE
  6
CONTINUOUS
  8
1
 10
2.063
 20
253.692
 11
2.063
 21
121.335
  0
LINE
  6
CONTINUOUS
  8
1
 10
2.063
 20
121.335
 11
10.000
 21
120.000
  0
LINE
  6
CONTINUOUS
  8
1
 10
50.000
 20
254.039
 11
66.921
 21
254.279
  0
LINE
  6
CONTINUOUS
  8
1
 10
66.921
 20
254.279
 11
66.921
 21
124.564
  0
LINE
  6
CONTINUOUS
  8
1
 10
66.921
 20
124.564
 11
50.000
 21
123.921
  0
LINE
  6
CONTINUOUS
  8
1
 10
50.000
 20
120.000
 11
68.976
 21
120.162
  0
LINE
  6
CONTINUOUS
  8
1
 10
68.976
 20
120.162
 11
68.976
 21
251.344
  0
LINE
  6
CONTINUOUS
  8
1
 10
80.000
 20
253.908
 11
71.910
 21
253.986
  0
LINE
  6
CONTINUOUS
  8
1
 10
71.910
 20
253.986
 11
71.617
 21
121.335
  0
LINE
  6
CONTINUOUS
  8
1
 10
71.617
 20
121.335
 11
80.000
 21
120.000
  0
LINE
  6
CONTINUOUS
  8
1
 10
120.000
 20
253.761
 11
135.007
 21
253.692
  0
LINE
  6
CONTINUOUS
  8
1
 10
135.007
 20
253.692
 11
135.007
 21
124.857
  0
LINE
  6
CONTINUOUS
  8
1
 10
135.007
 20
124.857
 11
120.000
 21
123.897
  0
LINE
  6
CONTINUOUS
  8
1
 10
120.000
 20
250.000
 11
128.551
 21
250.170
  0
LINE
  6
CONTINUOUS
  8
1
 10
128.551
 20
250.170
 11
128.551
 21
119.281
  0
LINE
  6
CONTINUOUS
  8
1
 10
128.551
 20
119.281
 11
120.000
 21
120.000
  0
LINE
  6
CONTINUOUS
  8
1
 10
150.000
 20
253.761
 11
141.464
 21
253.692
  0
LINE
  6
CONTINUOUS
  8
1
 10
141.464
 20
253.692
 11
141.757
 21
121.629
  0
LINE
  6
CONTINUOUS
  8
1
 10
141.757
 20
121.629
 11
150.000
 21
120.000
  0
LINE
  6
CONTINUOUS
  8
1
 10
190.000
 20
253.907
 11
207.202
 21
253.692
  0
LINE
  6
CONTINUOUS
  8
1
 10
207.202
 20
253.692
 11
207.202
 21
123.683
  0
LINE
  6
CONTINUOUS
  8
1
 10
207.202
 20
123.683
 11
190.000
 21
123.899
  0
LINE
  6
CONTINUOUS
  8
1
 10
190.000
 20
250.000
 11
199.572
 21
249.877
  0
LINE
  6
CONTINUOUS
  8
1
 10
199.572
 20
249.877
 11
199.278
 21
119.575
  0
LINE
  6
CONTINUOUS
  8
1
 10
199.278
 20
119.575
 11
190.000
 21
120.000
  0
LINE
  6
CONTINUOUS
  8
1
 10
50.000
 20
250.000
 11
68.976
 21
251.344
  0
TEXT
  8
1
 10
114.831
 20
250.000
 40
2.000
 41
1.000
  1
sol
  7
KANJI
 50
0.000
 51
0.000
  0
TEXT
  8
1
 10
183.944
 20
250.000
 40
2.000
 41
1.000
  1
sol
  7
KANJI
 50
0.000
 51
0.000
  0
TEXT
  8
1
 10
43.615
 20
250.000
 40
2.000
 41
1.000
  1
sol
  7
KANJI
 50
0.728
 51
0.000
  0
TEXT
  8
1
 10
82.053
 20
250.000
 40
2.000
 41
1.000
  1
LED
  7
KANJI
 50
0.000
 51
0.000
  0
TEXT
  8
1
 10
151.564
 20
250.000
 40
2.000
 41
1.000
  1
LED
  7
KANJI
 50
0.000
 51
0.000
  0
TEXT
  8
1
 10
10.000
 20
250.000
 40
2.000
 41
1.000
  1
LED
  7
KANJI
 50
0.000
 51
0.000
  0
TEXT
  8
1
 10
11.081
 20
120.000
 40
2.000
 41
1.000
  1
LED
  7
KANJI
 50
0.000
 51
0.000
  0
TEXT
  8
1
 10
81.475
 20
120.000
 40
2.000
 41
1.000
  1
LED
  7
KANJI
 50
0.000
 51
0.000
  0
TEXT
  8
1
 10
151.397
 20
120.000
 40
2.000
 41
1.000
  1
LED
  7
KANJI
 50
0.000
 51
0.000
  0
TEXT
  8
1
 10
94.109
 20
120.000
 40
2.000
 41
1.000
  1
シュート
  7
KANJI
 50
0.000
 51
0.000
  0
TEXT
  8
1
 10
167.302
 20
120.000
 40
2.000
 41
1.000
  1
シュート
  7
KANJI
 50
0.000
 51
0.000
  0
TEXT
  8
1
 10
24.400
 20
120.000
 40
2.000
 41
1.000
  1
シュート
  7
KANJI
 50
0.000
 51
0.000
  0
ENDSEC
  0
EOF
