  0
SECTION
  2
HEADER
  9
$ACADVER
  1
AC1006
  9
$INSBASE
 10
0.000000
 20
0.000000
  9
$EXTMIN
 10
0.000000
 20
0.000000
  9
$EXTMAX
 10
199.599000
 20
286.699000
  9
$LIMMIN
 10
0.000000
 20
0.000000
  9
$LIMMAX
 10
199.599000
 20
286.699000
  9
$VIEWCTR
 10
99.799500
 20
143.349500
  9
$VIEWSIZE
 40
199.600000
  9
$SNAPMODE
 70
     0
  9
$SNAPUNIT
 10
1.000000
 20
1.000000
  9
$SNAPBASE
 10
0.000000
 20
0.000000
  9
$SNAPANG
 50
0.000000
  9
$SNAPISOPAIR
 70
     0
  9
$SNAPSTYLE
 70
     0
  9
$GRIDMODE
 70
     0
  9
$GRIDUNIT
 10
0.001000
 20
0.001000
  9
$ORTHOMODE
 70
     0
  9
$REGENMODE
 70
     1
  9
$FILLMODE
 70
     1
  9
$QTEXTMODE
 70
     0
  9
$DRAGMODE
 70
     2
  9
$LTSCALE
 40
1.000000
  9
$OSMODE
 70
     0
  9
$ATTMODE
 70
     1
  9
$TEXTSIZE
 40
3.175000
  9
$TEXTSTYLE
  7
STANDARD
  9
$TRACEWID
 40
0.050000
  9
$CLAYER
  8
1
  9
$CELTYPE
  6
BYLAYER
  9
$CECOLOR
 62
   256
  9
$DIMSCALE
 40
1.000000
  9
$DIMASZ
 40
1.000000
  9
$DIMEXO
 40
0.000000
  9
$DIMDLI
 40
0.500000
  9
$DIMRND
 40
0.000000
  9
$DIMDLE
 40
0.000000
  9
$DIMEXE
 40
0.000000
  9
$DIMTP
 40
0.000000
  9
$DIMTM
 40
0.000000
  9
$DIMTXT
 40
3.175000
  9
$DIMCEN
 40
0.000000
  9
$DIMTSZ
 40
0.000000
  9
$DIMTOL
 70
     0
  9
$DIMLIM
 70
     0
  9
$DIMTIH
 70
     1
  9
$DIMTOH
 70
     1
  9
$DIMSE1
 70
     0
  9
$DIMSE2
 70
     0
  9
$DIMTAD
 70
     0
  9
$DIMZIN
 70
     0
  9
$DIMBLK
  1

  9
$DIMASO
 70
     0
  9
$DIMSHO
 70
     0
  9
$DIMPOST
  1

  9
$DIMAPOST
  1

  9
$DIMALT
 70
     0
  9
$DIMALTD
 70
     0
  9
$DIMALTF
 40
1.000000
  9
$DIMLFAC
 40
0.000000
  9
$DIMTOFL
 70
     0
  9
$DIMTVP
 40
0.000000
  9
$DIMTIX
 70
     0
  9
$DIMSOXD
 70
     0
  9
$DIMSAH
 70
     0
  9
$DIMBLKL
  1

  9
$DIMBLKR
  1

  9
$LUNITS
 70
     2
  9
$LUPREC
 70
     2
  9
$AXISMODE
 70
     0
  9
$AXISUNIT
 10
1.000000
 20
1.000000
  9
$SKETCHINC
 40
1.000000
  9
$FILLETRAD
 40
0.000000
  9
$AUNITS
 70
     1
  9
$AUPREC
 70
     2
  9
$MENU
  1
ACAD
  9
$ELEVATION
 40
0.000000
  9
$THICKNESS
 40
0.000000
  9
$VIEWDIR
 10
0.000000
 20
0.000000
 30
1.000000
  9
$LIMCHECK
 70
     1
  9
$BLIPMODE
 70
     1
  9
$CHAMFERA
 40
0.000000
  9
$CHAMFERB
 40
0.000000
  9
$FASTZOOM
 70
     1
  9
$SKPOLY
 70
     0
  9
$TDCREATE
 40
0.000000
  9
$TDUPDATE
 40
0.000000
  9
$TDINDWG
 40
0.000000
  9
$TDUSRTIMER
 40
0.000000
  9
$USRTIMER
 70
     1
  9
$ANGBASE
 50
0.000000
  9
$ANGDIR
 70
     0
  9
$PDMODE
 70
     0
  9
$PDSIZE
 40
0.400000
  9
$PLINEWID
 40
0.000000
  9
$COORDS
 70
     2
  9
$USERI1
 70
     0
  9
$USERI2
 70
     0
  9
$USERI3
 70
     0
  9
$USERI4
 70
     0
  9
$USERI5
 70
     0
  9
$USERR1
 40
0.000000
  9
$USERR2
 40
0.000000
  9
$USERR3
 40
0.000000
  9
$USERR4
 40
0.000000
  9
$USERR5
 40
0.000000
  0
ENDSEC
  0
SECTION
  2
TABLES
  0
TABLE
  2
LTYPE
 70
     5
  0
LTYPE
  2
CONTINUOUS
 70
    64
  3
SolidLine
 72
    65
 73
     0
 40
0.0
  0
LTYPE
  2
HIDDEN
 70
    64
  3
- - - - - - - - - -
 72
    65
 73
     2
 40
3.000000
 49
2.000000
 49
-1.000000
  0
LTYPE
  2
DOT
 70
    64
  3
･･･････････････････
 72
    65
 73
     2
 40
2.000000
 49
0.500000
 49
-1.500000
  0
LTYPE
  2
DASHDOT
 70
    64
  3
-･-･-･-･-･-･-･-･-･-
 72
    65
 73
     4
 40
20.000000
 49
15.000000
 49
-2.000000
 49
1.000000
 49
-2.000000
  0
LTYPE
  2
DIVIDE
 70
    64
  3
-･･-･･-･･-･･-･･-･･-
 72
    65
 73
     6
 40
20.000000
 49
15.000000
 49
-1.000000
 49
1.000000
 49
-1.000000
 49
1.000000
 49
-1.000000
  0
ENDTAB
  0
TABLE
  2
LAYER
 70
    30
  0
LAYER
  2
CONTINUOUS
 70
    64
 62
     7
  6
CONTINUOUS
  0
LAYER
  2
HIDDEN
 70
    64
 62
     2
  6
HIDDEN
  0
LAYER
  2
DOT
 70
    64
 62
     7
  6
DOT
  0
LAYER
  2
DASHDOT
 70
    64
 62
     6
  6
DASHDOT
  0
LAYER
  2
DIVIDE
 70
    64
 62
     5
  6
DIVIDE
  0
LAYER
  2
DIMENSION
 70
    64
 62
     7
  6
CONTINUOUS
  0
LAYER
  2
1
70
  0
62
  7
6
CONTINUOUS
  0
LAYER
  2
2
70
  0
62
  7
6
CONTINUOUS
  0
LAYER
  2
3
70
  0
62
  7
6
CONTINUOUS
  0
LAYER
  2
4
70
  0
62
  7
6
CONTINUOUS
  0
LAYER
  2
5
70
  0
62
  7
6
CONTINUOUS
  0
LAYER
  2
6
70
  0
62
  7
6
CONTINUOUS
  0
LAYER
  2
7
70
  0
62
  7
6
CONTINUOUS
  0
LAYER
  2
8
70
  0
62
  7
6
CONTINUOUS
  0
LAYER
  2
9
70
  0
62
  7
6
CONTINUOUS
  0
LAYER
  2
10
70
  0
62
  7
6
CONTINUOUS
  0
LAYER
  2
11
70
  0
62
  7
6
CONTINUOUS
  0
LAYER
  2
12
70
  0
62
  7
6
CONTINUOUS
  0
LAYER
  2
13
70
  0
62
  7
6
CONTINUOUS
  0
LAYER
  2
14
70
  0
62
  7
6
CONTINUOUS
  0
LAYER
  2
15
70
  0
62
  7
6
CONTINUOUS
  0
LAYER
  2
16
70
  0
62
  7
6
CONTINUOUS
  0
LAYER
  2
17
70
  0
62
  7
6
CONTINUOUS
  0
LAYER
  2
18
70
  0
62
  7
6
CONTINUOUS
  0
LAYER
  2
19
70
  0
62
  7
6
CONTINUOUS
  0
LAYER
  2
HATCH
70
  0
62
  7
6
CONTINUOUS
  0
LAYER
  2
GUIDE1
70
  0
62
  4
6
DASHDOT
  0
LAYER
  2
GUIDE2
70
  0
62
  4
6
DASHDOT
  0
LAYER
  2
GUIDE3
70
  0
62
  4
6
DASHDOT
  0
LAYER
  2
GUIDE4
70
  0
62
  4
6
DASHDOT
  0
ENDTAB
  0
TABLE
  2
STYLE
 70
     1
  0
STYLE
  2
STANDARD
 70
    64
 40
0.000000
 41
1.000000
 50
0.000000
 71
     0
 42
3.000000
  3
TXT
  4

  0
STYLE
  2
KANJI
 70
    64
 40
0.000000
 41
1.000000
 50
0.000000
 71
     0
 42
3.000000
  3
TXT
  4
BIGFONT
  0
ENDTAB
  0
TABLE
  2
VIEW
 70
     0
  0
ENDTAB
  0
ENDSEC
  0
SECTION
  2
ENTITIES
  0
LINE
  6
CONTINUOUS
  8
1
 10
84.945
 20
44.815
 11
71.864
 21
37.262
  0
LINE
  6
CONTINUOUS
  8
1
 10
72.571
 20
36.854
 11
85.653
 21
44.406
  0
LINE
  6
CONTINUOUS
  8
1
 10
86.360
 20
43.998
 11
73.278
 21
36.446
  0
LINE
  6
CONTINUOUS
  8
1
 10
73.985
 20
33.588
 11
87.066
 21
41.140
  0
LINE
  6
CONTINUOUS
  8
1
 10
71.864
 20
37.262
 11
71.864
 21
36.445
  0
LINE
  6
CONTINUOUS
  8
1
 10
71.864
 20
37.262
 11
72.571
 21
36.853
  0
LINE
  6
CONTINUOUS
  8
1
 10
72.217
 20
37.058
 11
72.217
 21
36.649
  0
LINE
  6
CONTINUOUS
  8
1
 10
72.217
 20
36.649
 11
71.864
 21
36.853
  0
LINE
  6
CONTINUOUS
  8
1
 10
71.864
 20
35.629
 11
71.864
 21
34.812
  0
LINE
  6
CONTINUOUS
  8
1
 10
71.864
 20
34.812
 11
72.571
 21
34.404
  0
LINE
  6
CONTINUOUS
  8
1
 10
72.217
 20
34.608
 11
72.217
 21
35.016
  0
LINE
  6
CONTINUOUS
  8
1
 10
72.217
 20
35.016
 11
71.864
 21
35.221
  0
LINE
  6
CONTINUOUS
  8
1
 10
73.985
 20
33.588
 11
73.278
 21
33.996
  0
LINE
  6
CONTINUOUS
  8
1
 10
73.985
 20
33.588
 11
73.985
 21
34.404
  0
LINE
  6
CONTINUOUS
  8
1
 10
73.985
 20
33.996
 11
73.631
 21
34.200
  0
LINE
  6
CONTINUOUS
  8
1
 10
73.631
 20
34.200
 11
73.631
 21
33.792
  0
LINE
  6
CONTINUOUS
  8
1
 10
73.985
 20
35.221
 11
73.985
 21
36.037
  0
LINE
  6
CONTINUOUS
  8
1
 10
73.985
 20
36.037
 11
73.278
 21
36.445
  0
LINE
  6
CONTINUOUS
  8
1
 10
73.631
 20
36.241
 11
73.631
 21
35.833
  0
LINE
  6
CONTINUOUS
  8
1
 10
73.631
 20
35.833
 11
73.985
 21
35.629
  0
LINE
  6
CONTINUOUS
  8
1
 10
72.712
 20
35.792
 11
73.136
 21
35.547
  0
LINE
  6
CONTINUOUS
  8
1
 10
73.136
 20
35.547
 11
73.136
 21
35.057
  0
LINE
  6
CONTINUOUS
  8
1
 10
73.136
 20
35.057
 11
72.712
 21
35.302
  0
LINE
  6
CONTINUOUS
  8
1
 10
72.712
 20
35.302
 11
72.712
 21
35.792
  0
LINE
  6
CONTINUOUS
  8
1
 10
72.217
 20
36.649
 11
72.712
 21
35.792
  0
LINE
  6
CONTINUOUS
  8
1
 10
73.136
 20
35.547
 11
73.631
 21
35.833
  0
LINE
  6
CONTINUOUS
  8
1
 10
73.631
 20
34.200
 11
73.136
 21
35.057
  0
LINE
  6
CONTINUOUS
  8
1
 10
72.712
 20
35.302
 11
72.217
 21
35.016
  0
LINE
  6
CONTINUOUS
  8
1
 10
84.945
 20
44.815
 11
85.652
 21
44.406
  0
LINE
  6
CONTINUOUS
  8
1
 10
87.066
 20
43.590
 11
86.359
 21
43.998
  0
LINE
  6
CONTINUOUS
  8
1
 10
87.066
 20
43.590
 11
87.066
 21
42.773
  0
LINE
  6
CONTINUOUS
  8
1
 10
87.066
 20
41.957
 11
87.066
 21
41.141
  0
LINE
  6
CONTINUOUS
  8
1
 10
85.298
 20
44.202
 11
85.652
 21
43.589
  0
LINE
  6
CONTINUOUS
  8
1
 10
86.712
 20
41.753
 11
86.359
 21
42.365
  0
LINE
  6
CONTINUOUS
  8
1
 10
71.864
 20
36.853
 11
72.217
 21
37.057
  0
LINE
  6
CONTINUOUS
  8
1
 10
72.217
 20
36.649
 11
72.571
 21
36.853
  0
LINE
  6
CONTINUOUS
  8
1
 10
72.217
 20
36.649
 11
71.864
 21
36.445
  0
LINE
  6
CONTINUOUS
  8
1
 10
71.864
 20
35.629
 11
72.571
 21
36.037
  0
LINE
  6
CONTINUOUS
  8
1
 10
72.712
 20
35.792
 11
73.561
 21
36.282
  0
LINE
  6
CONTINUOUS
  8
1
 10
72.712
 20
35.711
 11
71.864
 21
35.221
  0
LINE
  6
CONTINUOUS
  8
1
 10
73.066
 20
35.098
 11
72.217
 21
34.608
  0
LINE
  6
CONTINUOUS
  8
1
 10
73.136
 20
35.057
 11
73.985
 21
35.548
  0
LINE
  6
CONTINUOUS
  8
1
 10
72.571
 20
34.404
 11
73.277
 21
34.812
  0
LINE
  6
CONTINUOUS
  8
1
 10
73.278
 20
33.996
 11
73.631
 21
34.200
  0
LINE
  6
CONTINUOUS
  8
1
 10
73.631
 20
34.200
 11
73.985
 21
34.404
  0
LINE
  6
CONTINUOUS
  8
1
 10
73.631
 20
33.792
 11
73.985
 21
33.996
  0
LINE
  6
CONTINUOUS
  8
1
 10
72.712
 20
35.302
 11
73.136
 21
35.546
  0
LINE
  6
CONTINUOUS
  8
1
 10
73.632
 20
35.833
 11
73.985
 21
36.037
  0
LINE
  6
CONTINUOUS
  8
1
 10
71.864
 20
34.812
 11
72.217
 21
35.016
  0
LINE
  6
CONTINUOUS
  8
1
 10
87.066
 20
43.590
 11
73.985
 21
36.037
  0
LINE
  6
CONTINUOUS
  8
1
 10
87.067
 20
43.590
 11
87.774
 21
43.182
  0
LINE
  6
CONTINUOUS
  8
1
 10
89.188
 20
42.366
 11
88.481
 21
42.774
  0
LINE
  6
CONTINUOUS
  8
1
 10
100.148
 20
53.593
 11
100.855
 21
53.184
  0
LINE
  6
CONTINUOUS
  8
1
 10
102.269
 20
52.368
 11
101.562
 21
52.776
  0
LINE
  6
CONTINUOUS
  8
1
 10
102.269
 20
50.735
 11
102.269
 21
49.919
  0
LINE
  6
CONTINUOUS
  8
1
 10
100.501
 20
52.980
 11
100.855
 21
52.367
  0
LINE
  6
CONTINUOUS
  8
1
 10
102.269
 20
52.368
 11
89.188
 21
44.815
  0
LINE
  6
CONTINUOUS
  8
1
 10
73.985
 20
33.588
 11
73.985
 21
33.343
  0
LINE
  6
CONTINUOUS
  8
1
 10
73.985
 20
33.343
 11
76.106
 21
34.568
  0
LINE
  6
CONTINUOUS
  8
1
 10
71.864
 20
34.568
 11
73.985
 21
33.343
  0
LINE
  6
CONTINUOUS
  8
1
 10
73.985
 20
33.343
 11
73.985
 21
33.588
  0
POLYLINE
  6
CONTINUOUS
  8
1
 66
     1
 70
     2
  0
VERTEX
  6
CONTINUOUS
  8
1
 10
74.441
 20
32.738
  0
VERTEX
  6
CONTINUOUS
  8
1
 10
74.440
 20
32.739
  0
VERTEX
  6
CONTINUOUS
  8
1
 10
74.438
 20
32.740
  0
VERTEX
  6
CONTINUOUS
  8
1
 10
74.436
 20
32.741
  0
VERTEX
  6
CONTINUOUS
  8
1
 10
74.434
 20
32.742
  0
VERTEX
  6
CONTINUOUS
  8
1
 10
74.432
 20
32.743
  0
VERTEX
  6
CONTINUOUS
  8
1
 10
74.430
 20
32.744
  0
VERTEX
  6
CONTINUOUS
  8
1
 10
74.429
 20
32.745
  0
VERTEX
  6
CONTINUOUS
  8
1
 10
74.426
 20
32.745
  0
VERTEX
  6
CONTINUOUS
  8
1
 10
74.425
 20
32.746
  0
VERTEX
  6
CONTINUOUS
  8
1
 10
74.423
 20
32.746
  0
VERTEX
  6
CONTINUOUS
  8
1
 10
74.420
 20
32.746
  0
VERTEX
  6
CONTINUOUS
  8
1
 10
74.419
 20
32.747
  0
VERTEX
  6
CONTINUOUS
  8
1
 10
74.416
 20
32.747
  0
VERTEX
  6
CONTINUOUS
  8
1
 10
74.414
 20
32.747
  0
VERTEX
  6
CONTINUOUS
  8
1
 10
74.412
 20
32.747
  0
VERTEX
  6
CONTINUOUS
  8
1
 10
74.410
 20
32.747
  0
VERTEX
  6
CONTINUOUS
  8
1
 10
74.407
 20
32.748
  0
VERTEX
  6
CONTINUOUS
  8
1
 10
74.405
 20
32.748
  0
VERTEX
  6
CONTINUOUS
  8
1
 10
74.404
 20
32.747
  0
VERTEX
  6
CONTINUOUS
  8
1
 10
74.402
 20
32.748
  0
VERTEX
  6
CONTINUOUS
  8
1
 10
74.399
 20
32.748
  0
VERTEX
  6
CONTINUOUS
  8
1
 10
74.397
 20
32.748
  0
VERTEX
  6
CONTINUOUS
  8
1
 10
74.394
 20
32.747
  0
VERTEX
  6
CONTINUOUS
  8
1
 10
74.392
 20
32.747
  0
VERTEX
  6
CONTINUOUS
  8
1
 10
74.389
 20
32.746
  0
VERTEX
  6
CONTINUOUS
  8
1
 10
74.388
 20
32.746
  0
VERTEX
  6
CONTINUOUS
  8
1
 10
74.385
 20
32.745
  0
VERTEX
  6
CONTINUOUS
  8
1
 10
74.383
 20
32.745
  0
VERTEX
  6
CONTINUOUS
  8
1
 10
74.380
 20
32.745
  0
VERTEX
  6
CONTINUOUS
  8
1
 10
74.378
 20
32.743
  0
VERTEX
  6
CONTINUOUS
  8
1
 10
74.376
 20
32.744
  0
VERTEX
  6
CONTINUOUS
  8
1
 10
74.373
 20
32.743
  0
VERTEX
  6
CONTINUOUS
  8
1
 10
74.371
 20
32.742
  0
VERTEX
  6
CONTINUOUS
  8
1
 10
74.369
 20
32.741
  0
VERTEX
  6
CONTINUOUS
  8
1
 10
74.366
 20
32.740
  0
VERTEX
  6
CONTINUOUS
  8
1
 10
74.363
 20
32.739
  0
VERTEX
  6
CONTINUOUS
  8
1
 10
74.362
 20
32.738
  0
VERTEX
  6
CONTINUOUS
  8
1
 10
74.359
 20
32.737
  0
VERTEX
  6
CONTINUOUS
  8
1
 10
74.357
 20
32.736
  0
VERTEX
  6
CONTINUOUS
  8
1
 10
74.354
 20
32.735
  0
VERTEX
  6
CONTINUOUS
  8
1
 10
74.352
 20
32.733
  0
VERTEX
  6
CONTINUOUS
  8
1
 10
74.349
 20
32.733
  0
VERTEX
  6
CONTINUOUS
  8
1
 10
74.347
 20
32.731
  0
VERTEX
  6
CONTINUOUS
  8
1
 10
74.344
 20
32.730
  0
VERTEX
  6
CONTINUOUS
  8
1
 10
74.342
 20
32.729
  0
VERTEX
  6
CONTINUOUS
  8
1
 10
74.339
 20
32.727
  0
VERTEX
  6
CONTINUOUS
  8
1
 10
74.337
 20
32.726
  0
VERTEX
  6
CONTINUOUS
  8
1
 10
74.335
 20
32.724
  0
VERTEX
  6
CONTINUOUS
  8
1
 10
74.332
 20
32.723
  0
VERTEX
  6
CONTINUOUS
  8
1
 10
74.330
 20
32.721
  0
VERTEX
  6
CONTINUOUS
  8
1
 10
74.327
 20
32.719
  0
VERTEX
  6
CONTINUOUS
  8
1
 10
74.325
 20
32.718
  0
VERTEX
  6
CONTINUOUS
  8
1
 10
74.322
 20
32.716
  0
VERTEX
  6
CONTINUOUS
  8
1
 10
74.320
 20
32.714
  0
VERTEX
  6
CONTINUOUS
  8
1
 10
74.317
 20
32.712
  0
VERTEX
  6
CONTINUOUS
  8
1
 10
74.315
 20
32.710
  0
VERTEX
  6
CONTINUOUS
  8
1
 10
74.313
 20
32.708
  0
VERTEX
  6
CONTINUOUS
  8
1
 10
74.309
 20
32.706
  0
VERTEX
  6
CONTINUOUS
  8
1
 10
74.307
 20
32.704
  0
VERTEX
  6
CONTINUOUS
  8
1
 10
74.305
 20
32.703
  0
VERTEX
  6
CONTINUOUS
  8
1
 10
74.302
 20
32.700
  0
VERTEX
  6
CONTINUOUS
  8
1
 10
74.300
 20
32.697
  0
VERTEX
  6
CONTINUOUS
  8
1
 10
74.299
 20
32.695
  0
VERTEX
  6
CONTINUOUS
  8
1
 10
74.296
 20
32.693
  0
VERTEX
  6
CONTINUOUS
  8
1
 10
74.294
 20
32.691
  0
VERTEX
  6
CONTINUOUS
  8
1
 10
74.291
 20
32.689
  0
VERTEX
  6
CONTINUOUS
  8
1
 10
74.289
 20
32.686
  0
VERTEX
  6
CONTINUOUS
  8
1
 10
74.287
 20
32.684
  0
VERTEX
  6
CONTINUOUS
  8
1
 10
74.285
 20
32.681
  0
VERTEX
  6
CONTINUOUS
  8
1
 10
74.282
 20
32.679
  0
VERTEX
  6
CONTINUOUS
  8
1
 10
74.280
 20
32.677
  0
VERTEX
  6
CONTINUOUS
  8
1
 10
74.278
 20
32.673
  0
VERTEX
  6
CONTINUOUS
  8
1
 10
74.276
 20
32.671
  0
VERTEX
  6
CONTINUOUS
  8
1
 10
74.273
 20
32.669
  0
VERTEX
  6
CONTINUOUS
  8
1
 10
74.272
 20
32.666
  0
VERTEX
  6
CONTINUOUS
  8
1
 10
74.269
 20
32.663
  0
VERTEX
  6
CONTINUOUS
  8
1
 10
74.267
 20
32.661
  0
VERTEX
  6
CONTINUOUS
  8
1
 10
74.265
 20
32.657
  0
VERTEX
  6
CONTINUOUS
  8
1
 10
74.263
 20
32.655
  0
VERTEX
  6
CONTINUOUS
  8
1
 10
74.262
 20
32.653
  0
VERTEX
  6
CONTINUOUS
  8
1
 10
74.259
 20
32.650
  0
VERTEX
  6
CONTINUOUS
  8
1
 10
74.257
 20
32.647
  0
VERTEX
  6
CONTINUOUS
  8
1
 10
74.255
 20
32.644
  0
VERTEX
  6
CONTINUOUS
  8
1
 10
74.254
 20
32.641
  0
VERTEX
  6
CONTINUOUS
  8
1
 10
74.251
 20
32.638
  0
VERTEX
  6
CONTINUOUS
  8
1
 10
74.249
 20
32.636
  0
VERTEX
  6
CONTINUOUS
  8
1
 10
74.247
 20
32.632
  0
VERTEX
  6
CONTINUOUS
  8
1
 10
74.246
 20
32.629
  0
VERTEX
  6
CONTINUOUS
  8
1
 10
74.244
 20
32.626
  0
VERTEX
  6
CONTINUOUS
  8
1
 10
74.242
 20
32.623
  0
VERTEX
  6
CONTINUOUS
  8
1
 10
74.241
 20
32.621
  0
VERTEX
  6
CONTINUOUS
  8
1
 10
74.239
 20
32.617
  0
VERTEX
  6
CONTINUOUS
  8
1
 10
74.237
 20
32.615
  0
VERTEX
  6
CONTINUOUS
  8
1
 10
74.235
 20
32.611
  0
VERTEX
  6
CONTINUOUS
  8
1
 10
74.234
 20
32.609
  0
VERTEX
  6
CONTINUOUS
  8
1
 10
74.233
 20
32.605
  0
VERTEX
  6
CONTINUOUS
  8
1
 10
74.231
 20
32.602
  0
VERTEX
  6
CONTINUOUS
  8
1
 10
74.229
 20
32.599
  0
VERTEX
  6
CONTINUOUS
  8
1
 10
74.228
 20
32.596
  0
VERTEX
  6
CONTINUOUS
  8
1
 10
74.227
 20
32.592
  0
VERTEX
  6
CONTINUOUS
  8
1
 10
74.225
 20
32.589
  0
VERTEX
  6
CONTINUOUS
  8
1
 10
74.224
 20
32.586
  0
VERTEX
  6
CONTINUOUS
  8
1
 10
74.222
 20
32.583
  0
VERTEX
  6
CONTINUOUS
  8
1
 10
74.221
 20
32.580
  0
VERTEX
  6
CONTINUOUS
  8
1
 10
74.220
 20
32.576
  0
VERTEX
  6
CONTINUOUS
  8
1
 10
74.218
 20
32.574
  0
VERTEX
  6
CONTINUOUS
  8
1
 10
74.218
 20
32.571
  0
VERTEX
  6
CONTINUOUS
  8
1
 10
74.217
 20
32.568
  0
VERTEX
  6
CONTINUOUS
  8
1
 10
74.215
 20
32.564
  0
VERTEX
  6
CONTINUOUS
  8
1
 10
74.214
 20
32.561
  0
VERTEX
  6
CONTINUOUS
  8
1
 10
74.214
 20
32.558
  0
VERTEX
  6
CONTINUOUS
  8
1
 10
74.212
 20
32.554
  0
VERTEX
  6
CONTINUOUS
  8
1
 10
74.211
 20
32.551
  0
VERTEX
  6
CONTINUOUS
  8
1
 10
74.211
 20
32.548
  0
VERTEX
  6
CONTINUOUS
  8
1
 10
74.210
 20
32.545
  0
VERTEX
  6
CONTINUOUS
  8
1
 10
74.209
 20
32.542
  0
VERTEX
  6
CONTINUOUS
  8
1
 10
74.209
 20
32.539
  0
VERTEX
  6
CONTINUOUS
  8
1
 10
74.207
 20
32.536
  0
VERTEX
  6
CONTINUOUS
  8
1
 10
74.207
 20
32.533
  0
VERTEX
  6
CONTINUOUS
  8
1
 10
74.206
 20
32.530
  0
VERTEX
  6
CONTINUOUS
  8
1
 10
74.205
 20
32.527
  0
VERTEX
  6
CONTINUOUS
  8
1
 10
74.205
 20
32.524
  0
VERTEX
  6
CONTINUOUS
  8
1
 10
74.205
 20
32.520
  0
VERTEX
  6
CONTINUOUS
  8
1
 10
74.204
 20
32.517
  0
VERTEX
  6
CONTINUOUS
  8
1
 10
74.204
 20
32.514
  0
VERTEX
  6
CONTINUOUS
  8
1
 10
74.203
 20
32.511
  0
VERTEX
  6
CONTINUOUS
  8
1
 10
74.202
 20
32.508
  0
VERTEX
  6
CONTINUOUS
  8
1
 10
74.202
 20
32.505
  0
VERTEX
  6
CONTINUOUS
  8
1
 10
74.202
 20
32.502
  0
VERTEX
  6
CONTINUOUS
  8
1
 10
74.202
 20
32.499
  0
VERTEX
  6
CONTINUOUS
  8
1
 10
74.201
 20
32.496
  0
VERTEX
  6
CONTINUOUS
  8
1
 10
74.202
 20
32.493
  0
VERTEX
  6
CONTINUOUS
  8
1
 10
74.201
 20
32.490
  0
VERTEX
  6
CONTINUOUS
  8
1
 10
74.201
 20
32.488
  0
VERTEX
  6
CONTINUOUS
  8
1
 10
74.201
 20
32.484
  0
VERTEX
  6
CONTINUOUS
  8
1
 10
74.201
 20
32.482
  0
VERTEX
  6
CONTINUOUS
  8
1
 10
74.202
 20
32.478
  0
VERTEX
  6
CONTINUOUS
  8
1
 10
74.201
 20
32.476
  0
VERTEX
  6
CONTINUOUS
  8
1
 10
74.202
 20
32.473
  0
VERTEX
  6
CONTINUOUS
  8
1
 10
74.202
 20
32.471
  0
VERTEX
  6
CONTINUOUS
  8
1
 10
74.202
 20
32.468
  0
VERTEX
  6
CONTINUOUS
  8
1
 10
74.202
 20
32.465
  0
VERTEX
  6
CONTINUOUS
  8
1
 10
74.203
 20
32.463
  0
VERTEX
  6
CONTINUOUS
  8
1
 10
74.203
 20
32.460
  0
VERTEX
  6
CONTINUOUS
  8
1
 10
74.203
 20
32.458
  0
VERTEX
  6
CONTINUOUS
  8
1
 10
74.204
 20
32.455
  0
VERTEX
  6
CONTINUOUS
  8
1
 10
74.204
 20
32.453
  0
VERTEX
  6
CONTINUOUS
  8
1
 10
74.205
 20
32.450
  0
VERTEX
  6
CONTINUOUS
  8
1
 10
74.206
 20
32.447
  0
VERTEX
  6
CONTINUOUS
  8
1
 10
74.207
 20
32.445
  0
VERTEX
  6
CONTINUOUS
  8
1
 10
74.207
 20
32.443
  0
VERTEX
  6
CONTINUOUS
  8
1
 10
74.207
 20
32.440
  0
VERTEX
  6
CONTINUOUS
  8
1
 10
74.209
 20
32.439
  0
VERTEX
  6
CONTINUOUS
  8
1
 10
74.209
 20
32.436
  0
VERTEX
  6
CONTINUOUS
  8
1
 10
74.210
 20
32.434
  0
VERTEX
  6
CONTINUOUS
  8
1
 10
74.210
 20
32.432
  0
VERTEX
  6
CONTINUOUS
  8
1
 10
74.212
 20
32.430
  0
VERTEX
  6
CONTINUOUS
  8
1
 10
74.212
 20
32.427
  0
VERTEX
  6
CONTINUOUS
  8
1
 10
74.214
 20
32.425
  0
VERTEX
  6
CONTINUOUS
  8
1
 10
74.215
 20
32.423
  0
VERTEX
  6
CONTINUOUS
  8
1
 10
74.216
 20
32.422
  0
VERTEX
  6
CONTINUOUS
  8
1
 10
74.216
 20
32.420
  0
VERTEX
  6
CONTINUOUS
  8
1
 10
74.218
 20
32.418
  0
VERTEX
  6
CONTINUOUS
  8
1
 10
74.219
 20
32.416
  0
VERTEX
  6
CONTINUOUS
  8
1
 10
74.220
 20
32.415
  0
VERTEX
  6
CONTINUOUS
  8
1
 10
74.221
 20
32.413
  0
VERTEX
  6
CONTINUOUS
  8
1
 10
74.223
 20
32.411
  0
VERTEX
  6
CONTINUOUS
  8
1
 10
74.224
 20
32.409
  0
VERTEX
  6
CONTINUOUS
  8
1
 10
74.226
 20
32.408
  0
VERTEX
  6
CONTINUOUS
  8
1
 10
74.227
 20
32.406
  0
VERTEX
  6
CONTINUOUS
  8
1
 10
74.228
 20
32.404
  0
VERTEX
  6
CONTINUOUS
  8
1
 10
74.230
 20
32.403
  0
VERTEX
  6
CONTINUOUS
  8
1
 10
74.231
 20
32.401
  0
VERTEX
  6
CONTINUOUS
  8
1
 10
74.233
 20
32.400
  0
VERTEX
  6
CONTINUOUS
  8
1
 10
74.235
 20
32.399
  0
VERTEX
  6
CONTINUOUS
  8
1
 10
74.236
 20
32.398
  0
VERTEX
  6
CONTINUOUS
  8
1
 10
74.237
 20
32.397
  0
VERTEX
  6
CONTINUOUS
  8
1
 10
74.239
 20
32.396
  0
VERTEX
  6
CONTINUOUS
  8
1
 10
74.241
 20
32.395
  0
VERTEX
  6
CONTINUOUS
  8
1
 10
74.243
 20
32.394
  0
VERTEX
  6
CONTINUOUS
  8
1
 10
74.244
 20
32.393
  0
VERTEX
  6
CONTINUOUS
  8
1
 10
74.246
 20
32.392
  0
VERTEX
  6
CONTINUOUS
  8
1
 10
74.248
 20
32.391
  0
VERTEX
  6
CONTINUOUS
  8
1
 10
74.250
 20
32.390
  0
VERTEX
  6
CONTINUOUS
  8
1
 10
74.252
 20
32.389
  0
VERTEX
  6
CONTINUOUS
  8
1
 10
74.254
 20
32.388
  0
VERTEX
  6
CONTINUOUS
  8
1
 10
74.255
 20
32.387
  0
VERTEX
  6
CONTINUOUS
  8
1
 10
74.258
 20
32.387
  0
VERTEX
  6
CONTINUOUS
  8
1
 10
74.259
 20
32.386
  0
VERTEX
  6
CONTINUOUS
  8
1
 10
74.261
 20
32.386
  0
VERTEX
  6
CONTINUOUS
  8
1
 10
74.264
 20
32.386
  0
VERTEX
  6
CONTINUOUS
  8
1
 10
74.265
 20
32.385
  0
VERTEX
  6
CONTINUOUS
  8
1
 10
74.268
 20
32.385
  0
VERTEX
  6
CONTINUOUS
  8
1
 10
74.270
 20
32.385
  0
VERTEX
  6
CONTINUOUS
  8
1
 10
74.272
 20
32.385
  0
VERTEX
  6
CONTINUOUS
  8
1
 10
74.274
 20
32.385
  0
VERTEX
  6
CONTINUOUS
  8
1
 10
74.277
 20
32.384
  0
VERTEX
  6
CONTINUOUS
  8
1
 10
74.279
 20
32.384
  0
VERTEX
  6
CONTINUOUS
  8
1
 10
74.280
 20
32.385
  0
VERTEX
  6
CONTINUOUS
  8
1
 10
74.282
 20
32.384
  0
VERTEX
  6
CONTINUOUS
  8
1
 10
74.285
 20
32.384
  0
VERTEX
  6
CONTINUOUS
  8
1
 10
74.287
 20
32.384
  0
VERTEX
  6
CONTINUOUS
  8
1
 10
74.290
 20
32.385
  0
VERTEX
  6
CONTINUOUS
  8
1
 10
74.292
 20
32.385
  0
VERTEX
  6
CONTINUOUS
  8
1
 10
74.295
 20
32.386
  0
VERTEX
  6
CONTINUOUS
  8
1
 10
74.296
 20
32.386
  0
VERTEX
  6
CONTINUOUS
  8
1
 10
74.299
 20
32.387
  0
VERTEX
  6
CONTINUOUS
  8
1
 10
74.301
 20
32.387
  0
VERTEX
  6
CONTINUOUS
  8
1
 10
74.304
 20
32.387
  0
VERTEX
  6
CONTINUOUS
  8
1
 10
74.306
 20
32.389
  0
VERTEX
  6
CONTINUOUS
  8
1
 10
74.308
 20
32.388
  0
VERTEX
  6
CONTINUOUS
  8
1
 10
74.311
 20
32.389
  0
VERTEX
  6
CONTINUOUS
  8
1
 10
74.313
 20
32.390
  0
VERTEX
  6
CONTINUOUS
  8
1
 10
74.315
 20
32.391
  0
VERTEX
  6
CONTINUOUS
  8
1
 10
74.318
 20
32.392
  0
VERTEX
  6
CONTINUOUS
  8
1
 10
74.321
 20
32.393
  0
VERTEX
  6
CONTINUOUS
  8
1
 10
74.322
 20
32.394
  0
VERTEX
  6
CONTINUOUS
  8
1
 10
74.325
 20
32.395
  0
VERTEX
  6
CONTINUOUS
  8
1
 10
74.327
 20
32.396
  0
VERTEX
  6
CONTINUOUS
  8
1
 10
74.330
 20
32.397
  0
VERTEX
  6
CONTINUOUS
  8
1
 10
74.332
 20
32.399
  0
VERTEX
  6
CONTINUOUS
  8
1
 10
74.335
 20
32.399
  0
VERTEX
  6
CONTINUOUS
  8
1
 10
74.337
 20
32.401
  0
VERTEX
  6
CONTINUOUS
  8
1
 10
74.340
 20
32.402
  0
VERTEX
  6
CONTINUOUS
  8
1
 10
74.342
 20
32.403
  0
VERTEX
  6
CONTINUOUS
  8
1
 10
74.345
 20
32.405
  0
VERTEX
  6
CONTINUOUS
  8
1
 10
74.347
 20
32.406
  0
VERTEX
  6
CONTINUOUS
  8
1
 10
74.349
 20
32.408
  0
VERTEX
  6
CONTINUOUS
  8
1
 10
74.352
 20
32.409
  0
VERTEX
  6
CONTINUOUS
  8
1
 10
74.354
 20
32.411
  0
VERTEX
  6
CONTINUOUS
  8
1
 10
74.357
 20
32.413
  0
VERTEX
  6
CONTINUOUS
  8
1
 10
74.359
 20
32.414
  0
VERTEX
  6
CONTINUOUS
  8
1
 10
74.362
 20
32.416
  0
VERTEX
  6
CONTINUOUS
  8
1
 10
74.364
 20
32.418
  0
VERTEX
  6
CONTINUOUS
  8
1
 10
74.367
 20
32.420
  0
VERTEX
  6
CONTINUOUS
  8
1
 10
74.369
 20
32.422
  0
VERTEX
  6
CONTINUOUS
  8
1
 10
74.371
 20
32.424
  0
VERTEX
  6
CONTINUOUS
  8
1
 10
74.375
 20
32.426
  0
VERTEX
  6
CONTINUOUS
  8
1
 10
74.377
 20
32.428
  0
VERTEX
  6
CONTINUOUS
  8
1
 10
74.379
 20
32.429
  0
VERTEX
  6
CONTINUOUS
  8
1
 10
74.382
 20
32.432
  0
VERTEX
  6
CONTINUOUS
  8
1
 10
74.384
 20
32.435
  0
VERTEX
  6
CONTINUOUS
  8
1
 10
74.385
 20
32.437
  0
VERTEX
  6
CONTINUOUS
  8
1
 10
74.388
 20
32.439
  0
VERTEX
  6
CONTINUOUS
  8
1
 10
74.390
 20
32.441
  0
VERTEX
  6
CONTINUOUS
  8
1
 10
74.393
 20
32.443
  0
VERTEX
  6
CONTINUOUS
  8
1
 10
74.395
 20
32.446
  0
VERTEX
  6
CONTINUOUS
  8
1
 10
74.397
 20
32.448
  0
VERTEX
  6
CONTINUOUS
  8
1
 10
74.399
 20
32.451
  0
VERTEX
  6
CONTINUOUS
  8
1
 10
74.402
 20
32.453
  0
VERTEX
  6
CONTINUOUS
  8
1
 10
74.404
 20
32.455
  0
VERTEX
  6
CONTINUOUS
  8
1
 10
74.406
 20
32.459
  0
VERTEX
  6
CONTINUOUS
  8
1
 10
74.408
 20
32.461
  0
VERTEX
  6
CONTINUOUS
  8
1
 10
74.411
 20
32.463
  0
VERTEX
  6
CONTINUOUS
  8
1
 10
74.412
 20
32.466
  0
VERTEX
  6
CONTINUOUS
  8
1
 10
74.415
 20
32.469
  0
VERTEX
  6
CONTINUOUS
  8
1
 10
74.417
 20
32.471
  0
VERTEX
  6
CONTINUOUS
  8
1
 10
74.419
 20
32.475
  0
VERTEX
  6
CONTINUOUS
  8
1
 10
74.421
 20
32.477
  0
VERTEX
  6
CONTINUOUS
  8
1
 10
74.422
 20
32.479
  0
VERTEX
  6
CONTINUOUS
  8
1
 10
74.425
 20
32.482
  0
VERTEX
  6
CONTINUOUS
  8
1
 10
74.427
 20
32.485
  0
VERTEX
  6
CONTINUOUS
  8
1
 10
74.429
 20
32.488
  0
VERTEX
  6
CONTINUOUS
  8
1
 10
74.430
 20
32.491
  0
VERTEX
  6
CONTINUOUS
  8
1
 10
74.433
 20
32.494
  0
VERTEX
  6
CONTINUOUS
  8
1
 10
74.435
 20
32.496
  0
VERTEX
  6
CONTINUOUS
  8
1
 10
74.437
 20
32.500
  0
VERTEX
  6
CONTINUOUS
  8
1
 10
74.438
 20
32.503
  0
VERTEX
  6
CONTINUOUS
  8
1
 10
74.440
 20
32.506
  0
VERTEX
  6
CONTINUOUS
  8
1
 10
74.442
 20
32.509
  0
VERTEX
  6
CONTINUOUS
  8
1
 10
74.443
 20
32.511
  0
VERTEX
  6
CONTINUOUS
  8
1
 10
74.445
 20
32.515
  0
VERTEX
  6
CONTINUOUS
  8
1
 10
74.447
 20
32.517
  0
VERTEX
  6
CONTINUOUS
  8
1
 10
74.449
 20
32.521
  0
VERTEX
  6
CONTINUOUS
  8
1
 10
74.450
 20
32.523
  0
VERTEX
  6
CONTINUOUS
  8
1
 10
74.451
 20
32.527
  0
VERTEX
  6
CONTINUOUS
  8
1
 10
74.453
 20
32.530
  0
VERTEX
  6
CONTINUOUS
  8
1
 10
74.455
 20
32.533
  0
VERTEX
  6
CONTINUOUS
  8
1
 10
74.456
 20
32.536
  0
VERTEX
  6
CONTINUOUS
  8
1
 10
74.457
 20
32.540
  0
VERTEX
  6
CONTINUOUS
  8
1
 10
74.459
 20
32.543
  0
VERTEX
  6
CONTINUOUS
  8
1
 10
74.460
 20
32.546
  0
VERTEX
  6
CONTINUOUS
  8
1
 10
74.462
 20
32.549
  0
VERTEX
  6
CONTINUOUS
  8
1
 10
74.463
 20
32.552
  0
VERTEX
  6
CONTINUOUS
  8
1
 10
74.464
 20
32.556
  0
VERTEX
  6
CONTINUOUS
  8
1
 10
74.466
 20
32.558
  0
VERTEX
  6
CONTINUOUS
  8
1
 10
74.466
 20
32.561
  0
VERTEX
  6
CONTINUOUS
  8
1
 10
74.467
 20
32.564
  0
VERTEX
  6
CONTINUOUS
  8
1
 10
74.469
 20
32.568
  0
VERTEX
  6
CONTINUOUS
  8
1
 10
74.470
 20
32.571
  0
VERTEX
  6
CONTINUOUS
  8
1
 10
74.470
 20
32.574
  0
VERTEX
  6
CONTINUOUS
  8
1
 10
74.472
 20
32.578
  0
VERTEX
  6
CONTINUOUS
  8
1
 10
74.473
 20
32.581
  0
VERTEX
  6
CONTINUOUS
  8
1
 10
74.473
 20
32.584
  0
VERTEX
  6
CONTINUOUS
  8
1
 10
74.474
 20
32.587
  0
VERTEX
  6
CONTINUOUS
  8
1
 10
74.475
 20
32.590
  0
VERTEX
  6
CONTINUOUS
  8
1
 10
74.475
 20
32.593
  0
VERTEX
  6
CONTINUOUS
  8
1
 10
74.477
 20
32.596
  0
VERTEX
  6
CONTINUOUS
  8
1
 10
74.477
 20
32.599
  0
VERTEX
  6
CONTINUOUS
  8
1
 10
74.479
 20
32.603
  0
VERTEX
  6
CONTINUOUS
  8
1
 10
74.479
 20
32.605
  0
VERTEX
  6
CONTINUOUS
  8
1
 10
74.479
 20
32.608
  0
VERTEX
  6
CONTINUOUS
  8
1
 10
74.479
 20
32.612
  0
VERTEX
  6
CONTINUOUS
  8
1
 10
74.480
 20
32.615
  0
VERTEX
  6
CONTINUOUS
  8
1
 10
74.480
 20
32.618
  0
VERTEX
  6
CONTINUOUS
  8
1
 10
74.481
 20
32.621
  0
VERTEX
  6
CONTINUOUS
  8
1
 10
74.482
 20
32.624
  0
VERTEX
  6
CONTINUOUS
  8
1
 10
74.482
 20
32.627
  0
VERTEX
  6
CONTINUOUS
  8
1
 10
74.482
 20
32.630
  0
VERTEX
  6
CONTINUOUS
  8
1
 10
74.482
 20
32.633
  0
VERTEX
  6
CONTINUOUS
  8
1
 10
74.483
 20
32.636
  0
VERTEX
  6
CONTINUOUS
  8
1
 10
74.482
 20
32.639
  0
VERTEX
  6
CONTINUOUS
  8
1
 10
74.483
 20
32.642
  0
VERTEX
  6
CONTINUOUS
  8
1
 10
74.483
 20
32.644
  0
VERTEX
  6
CONTINUOUS
  8
1
 10
74.483
 20
32.648
  0
VERTEX
  6
CONTINUOUS
  8
1
 10
74.483
 20
32.650
  0
VERTEX
  6
CONTINUOUS
  8
1
 10
74.482
 20
32.654
  0
VERTEX
  6
CONTINUOUS
  8
1
 10
74.483
 20
32.656
  0
VERTEX
  6
CONTINUOUS
  8
1
 10
74.482
 20
32.659
  0
VERTEX
  6
CONTINUOUS
  8
1
 10
74.482
 20
32.661
  0
VERTEX
  6
CONTINUOUS
  8
1
 10
74.482
 20
32.664
  0
VERTEX
  6
CONTINUOUS
  8
1
 10
74.482
 20
32.667
  0
VERTEX
  6
CONTINUOUS
  8
1
 10
74.481
 20
32.669
  0
VERTEX
  6
CONTINUOUS
  8
1
 10
74.481
 20
32.672
  0
VERTEX
  6
CONTINUOUS
  8
1
 10
74.481
 20
32.674
  0
VERTEX
  6
CONTINUOUS
  8
1
 10
74.480
 20
32.677
  0
VERTEX
  6
CONTINUOUS
  8
1
 10
74.480
 20
32.679
  0
VERTEX
  6
CONTINUOUS
  8
1
 10
74.479
 20
32.682
  0
VERTEX
  6
CONTINUOUS
  8
1
 10
74.478
 20
32.685
  0
VERTEX
  6
CONTINUOUS
  8
1
 10
74.478
 20
32.686
  0
VERTEX
  6
CONTINUOUS
  8
1
 10
74.477
 20
32.689
  0
VERTEX
  6
CONTINUOUS
  8
1
 10
74.477
 20
32.692
  0
VERTEX
  6
CONTINUOUS
  8
1
 10
74.475
 20
32.693
  0
VERTEX
  6
CONTINUOUS
  8
1
 10
74.475
 20
32.696
  0
VERTEX
  6
CONTINUOUS
  8
1
 10
74.474
 20
32.698
  0
VERTEX
  6
CONTINUOUS
  8
1
 10
74.474
 20
32.700
  0
VERTEX
  6
CONTINUOUS
  8
1
 10
74.472
 20
32.702
  0
VERTEX
  6
CONTINUOUS
  8
1
 10
74.472
 20
32.705
  0
VERTEX
  6
CONTINUOUS
  8
1
 10
74.470
 20
32.707
  0
VERTEX
  6
CONTINUOUS
  8
1
 10
74.469
 20
32.709
  0
VERTEX
  6
CONTINUOUS
  8
1
 10
74.468
 20
32.710
  0
VERTEX
  6
CONTINUOUS
  8
1
 10
74.468
 20
32.712
  0
VERTEX
  6
CONTINUOUS
  8
1
 10
74.466
 20
32.714
  0
VERTEX
  6
CONTINUOUS
  8
1
 10
74.465
 20
32.716
  0
VERTEX
  6
CONTINUOUS
  8
1
 10
74.464
 20
32.717
  0
VERTEX
  6
CONTINUOUS
  8
1
 10
74.463
 20
32.719
  0
VERTEX
  6
CONTINUOUS
  8
1
 10
74.461
 20
32.721
  0
VERTEX
  6
CONTINUOUS
  8
1
 10
74.460
 20
32.723
  0
VERTEX
  6
CONTINUOUS
  8
1
 10
74.458
 20
32.724
  0
VERTEX
  6
CONTINUOUS
  8
1
 10
74.457
 20
32.726
  0
VERTEX
  6
CONTINUOUS
  8
1
 10
74.456
 20
32.728
  0
VERTEX
  6
CONTINUOUS
  8
1
 10
74.454
 20
32.729
  0
VERTEX
  6
CONTINUOUS
  8
1
 10
74.453
 20
32.731
  0
VERTEX
  6
CONTINUOUS
  8
1
 10
74.451
 20
32.732
  0
VERTEX
  6
CONTINUOUS
  8
1
 10
74.449
 20
32.733
  0
VERTEX
  6
CONTINUOUS
  8
1
 10
74.448
 20
32.734
  0
VERTEX
  6
CONTINUOUS
  8
1
 10
74.447
 20
32.735
  0
VERTEX
  6
CONTINUOUS
  8
1
 10
74.445
 20
32.736
  0
VERTEX
  6
CONTINUOUS
  8
1
 10
74.443
 20
32.737
  0
VERTEX
  6
CONTINUOUS
  8
1
 10
74.441
 20
32.738
  0
SEQEND
  0
LINE
  6
CONTINUOUS
  8
1
 10
73.281
 20
33.750
 11
73.973
 21
32.141
  0
POLYLINE
  6
CONTINUOUS
  8
1
 66
     1
 70
     2
  0
VERTEX
  6
CONTINUOUS
  8
1
 10
73.961
 20
32.173
  0
VERTEX
  6
CONTINUOUS
  8
1
 10
73.962
 20
32.169
  0
VERTEX
  6
CONTINUOUS
  8
1
 10
73.965
 20
32.162
  0
VERTEX
  6
CONTINUOUS
  8
1
 10
73.968
 20
32.157
  0
VERTEX
  6
CONTINUOUS
  8
1
 10
73.970
 20
32.151
  0
VERTEX
  6
CONTINUOUS
  8
1
 10
73.974
 20
32.146
  0
VERTEX
  6
CONTINUOUS
  8
1
 10
73.976
 20
32.140
  0
VERTEX
  6
CONTINUOUS
  8
1
 10
73.980
 20
32.134
  0
VERTEX
  6
CONTINUOUS
  8
1
 10
73.984
 20
32.128
  0
VERTEX
  6
CONTINUOUS
  8
1
 10
73.987
 20
32.124
  0
VERTEX
  6
CONTINUOUS
  8
1
 10
73.991
 20
32.119
  0
VERTEX
  6
CONTINUOUS
  8
1
 10
73.995
 20
32.114
  0
VERTEX
  6
CONTINUOUS
  8
1
 10
73.998
 20
32.110
  0
VERTEX
  6
CONTINUOUS
  8
1
 10
74.003
 20
32.105
  0
VERTEX
  6
CONTINUOUS
  8
1
 10
74.007
 20
32.100
  0
VERTEX
  6
CONTINUOUS
  8
1
 10
74.011
 20
32.095
  0
VERTEX
  6
CONTINUOUS
  8
1
 10
74.015
 20
32.092
  0
VERTEX
  6
CONTINUOUS
  8
1
 10
74.019
 20
32.087
  0
VERTEX
  6
CONTINUOUS
  8
1
 10
74.024
 20
32.083
  0
VERTEX
  6
CONTINUOUS
  8
1
 10
74.028
 20
32.080
  0
VERTEX
  6
CONTINUOUS
  8
1
 10
74.033
 20
32.076
  0
VERTEX
  6
CONTINUOUS
  8
1
 10
74.037
 20
32.073
  0
VERTEX
  6
CONTINUOUS
  8
1
 10
74.042
 20
32.069
  0
VERTEX
  6
CONTINUOUS
  8
1
 10
74.047
 20
32.066
  0
VERTEX
  6
CONTINUOUS
  8
1
 10
74.053
 20
32.063
  0
VERTEX
  6
CONTINUOUS
  8
1
 10
74.058
 20
32.060
  0
VERTEX
  6
CONTINUOUS
  8
1
 10
74.063
 20
32.057
  0
VERTEX
  6
CONTINUOUS
  8
1
 10
74.069
 20
32.055
  0
VERTEX
  6
CONTINUOUS
  8
1
 10
74.073
 20
32.053
  0
VERTEX
  6
CONTINUOUS
  8
1
 10
74.079
 20
32.051
  0
VERTEX
  6
CONTINUOUS
  8
1
 10
74.084
 20
32.049
  0
VERTEX
  6
CONTINUOUS
  8
1
 10
74.090
 20
32.046
  0
VERTEX
  6
CONTINUOUS
  8
1
 10
74.096
 20
32.045
  0
VERTEX
  6
CONTINUOUS
  8
1
 10
74.101
 20
32.044
  0
VERTEX
  6
CONTINUOUS
  8
1
 10
74.107
 20
32.042
  0
VERTEX
  6
CONTINUOUS
  8
1
 10
74.113
 20
32.041
  0
VERTEX
  6
CONTINUOUS
  8
1
 10
74.120
 20
32.040
  0
VERTEX
  6
CONTINUOUS
  8
1
 10
74.125
 20
32.039
  0
VERTEX
  6
CONTINUOUS
  8
1
 10
74.131
 20
32.038
  0
VERTEX
  6
CONTINUOUS
  8
1
 10
74.138
 20
32.037
  0
VERTEX
  6
CONTINUOUS
  8
1
 10
74.143
 20
32.037
  0
VERTEX
  6
CONTINUOUS
  8
1
 10
74.150
 20
32.036
  0
VERTEX
  6
CONTINUOUS
  8
1
 10
74.157
 20
32.036
  0
VERTEX
  6
CONTINUOUS
  8
1
 10
74.163
 20
32.037
  0
VERTEX
  6
CONTINUOUS
  8
1
 10
74.170
 20
32.036
  0
VERTEX
  6
CONTINUOUS
  8
1
 10
74.176
 20
32.037
  0
VERTEX
  6
CONTINUOUS
  8
1
 10
74.182
 20
32.037
  0
VERTEX
  6
CONTINUOUS
  8
1
 10
74.189
 20
32.038
  0
VERTEX
  6
CONTINUOUS
  8
1
 10
74.195
 20
32.039
  0
VERTEX
  6
CONTINUOUS
  8
1
 10
74.203
 20
32.039
  0
VERTEX
  6
CONTINUOUS
  8
1
 10
74.209
 20
32.041
  0
VERTEX
  6
CONTINUOUS
  8
1
 10
74.216
 20
32.042
  0
VERTEX
  6
CONTINUOUS
  8
1
 10
74.223
 20
32.044
  0
VERTEX
  6
CONTINUOUS
  8
1
 10
74.229
 20
32.046
  0
VERTEX
  6
CONTINUOUS
  8
1
 10
74.236
 20
32.048
  0
VERTEX
  6
CONTINUOUS
  8
1
 10
74.244
 20
32.049
  0
VERTEX
  6
CONTINUOUS
  8
1
 10
74.251
 20
32.051
  0
VERTEX
  6
CONTINUOUS
  8
1
 10
74.257
 20
32.054
  0
VERTEX
  6
CONTINUOUS
  8
1
 10
74.264
 20
32.056
  0
VERTEX
  6
CONTINUOUS
  8
1
 10
74.271
 20
32.059
  0
VERTEX
  6
CONTINUOUS
  8
1
 10
74.279
 20
32.061
  0
VERTEX
  6
CONTINUOUS
  8
1
 10
74.286
 20
32.064
  0
VERTEX
  6
CONTINUOUS
  8
1
 10
74.292
 20
32.067
  0
VERTEX
  6
CONTINUOUS
  8
1
 10
74.300
 20
32.070
  0
VERTEX
  6
CONTINUOUS
  8
1
 10
74.307
 20
32.074
  0
VERTEX
  6
CONTINUOUS
  8
1
 10
74.314
 20
32.077
  0
VERTEX
  6
CONTINUOUS
  8
1
 10
74.321
 20
32.081
  0
VERTEX
  6
CONTINUOUS
  8
1
 10
74.328
 20
32.085
  0
VERTEX
  6
CONTINUOUS
  8
1
 10
74.336
 20
32.088
  0
VERTEX
  6
CONTINUOUS
  8
1
 10
74.343
 20
32.092
  0
VERTEX
  6
CONTINUOUS
  8
1
 10
74.350
 20
32.096
  0
VERTEX
  6
CONTINUOUS
  8
1
 10
74.357
 20
32.101
  0
VERTEX
  6
CONTINUOUS
  8
1
 10
74.364
 20
32.106
  0
VERTEX
  6
CONTINUOUS
  8
1
 10
74.371
 20
32.110
  0
VERTEX
  6
CONTINUOUS
  8
1
 10
74.379
 20
32.115
  0
VERTEX
  6
CONTINUOUS
  8
1
 10
74.385
 20
32.120
  0
VERTEX
  6
CONTINUOUS
  8
1
 10
74.393
 20
32.125
  0
VERTEX
  6
CONTINUOUS
  8
1
 10
74.400
 20
32.130
  0
VERTEX
  6
CONTINUOUS
  8
1
 10
74.407
 20
32.135
  0
VERTEX
  6
CONTINUOUS
  8
1
 10
74.413
 20
32.141
  0
VERTEX
  6
CONTINUOUS
  8
1
 10
74.421
 20
32.146
  0
VERTEX
  6
CONTINUOUS
  8
1
 10
74.428
 20
32.152
  0
VERTEX
  6
CONTINUOUS
  8
1
 10
74.435
 20
32.158
  0
VERTEX
  6
CONTINUOUS
  8
1
 10
74.441
 20
32.164
  0
VERTEX
  6
CONTINUOUS
  8
1
 10
74.449
 20
32.170
  0
VERTEX
  6
CONTINUOUS
  8
1
 10
74.456
 20
32.176
  0
VERTEX
  6
CONTINUOUS
  8
1
 10
74.463
 20
32.183
  0
VERTEX
  6
CONTINUOUS
  8
1
 10
74.469
 20
32.189
  0
VERTEX
  6
CONTINUOUS
  8
1
 10
74.476
 20
32.196
  0
VERTEX
  6
CONTINUOUS
  8
1
 10
74.483
 20
32.202
  0
VERTEX
  6
CONTINUOUS
  8
1
 10
74.489
 20
32.209
  0
VERTEX
  6
CONTINUOUS
  8
1
 10
74.496
 20
32.216
  0
VERTEX
  6
CONTINUOUS
  8
1
 10
74.503
 20
32.223
  0
VERTEX
  6
CONTINUOUS
  8
1
 10
74.509
 20
32.230
  0
VERTEX
  6
CONTINUOUS
  8
1
 10
74.516
 20
32.237
  0
VERTEX
  6
CONTINUOUS
  8
1
 10
74.522
 20
32.244
  0
VERTEX
  6
CONTINUOUS
  8
1
 10
74.529
 20
32.252
  0
VERTEX
  6
CONTINUOUS
  8
1
 10
74.534
 20
32.259
  0
VERTEX
  6
CONTINUOUS
  8
1
 10
74.541
 20
32.267
  0
VERTEX
  6
CONTINUOUS
  8
1
 10
74.548
 20
32.274
  0
VERTEX
  6
CONTINUOUS
  8
1
 10
74.554
 20
32.282
  0
VERTEX
  6
CONTINUOUS
  8
1
 10
74.560
 20
32.291
  0
VERTEX
  6
CONTINUOUS
  8
1
 10
74.566
 20
32.297
  0
VERTEX
  6
CONTINUOUS
  8
1
 10
74.572
 20
32.306
  0
VERTEX
  6
CONTINUOUS
  8
1
 10
74.578
 20
32.314
  0
VERTEX
  6
CONTINUOUS
  8
1
 10
74.583
 20
32.322
  0
VERTEX
  6
CONTINUOUS
  8
1
 10
74.589
 20
32.330
  0
VERTEX
  6
CONTINUOUS
  8
1
 10
74.595
 20
32.338
  0
VERTEX
  6
CONTINUOUS
  8
1
 10
74.600
 20
32.347
  0
VERTEX
  6
CONTINUOUS
  8
1
 10
74.606
 20
32.355
  0
VERTEX
  6
CONTINUOUS
  8
1
 10
74.611
 20
32.365
  0
VERTEX
  6
CONTINUOUS
  8
1
 10
74.617
 20
32.373
  0
VERTEX
  6
CONTINUOUS
  8
1
 10
74.622
 20
32.381
  0
VERTEX
  6
CONTINUOUS
  8
1
 10
74.627
 20
32.390
  0
VERTEX
  6
CONTINUOUS
  8
1
 10
74.632
 20
32.399
  0
VERTEX
  6
CONTINUOUS
  8
1
 10
74.637
 20
32.407
  0
VERTEX
  6
CONTINUOUS
  8
1
 10
74.642
 20
32.416
  0
VERTEX
  6
CONTINUOUS
  8
1
 10
74.647
 20
32.425
  0
VERTEX
  6
CONTINUOUS
  8
1
 10
74.651
 20
32.434
  0
VERTEX
  6
CONTINUOUS
  8
1
 10
74.657
 20
32.443
  0
VERTEX
  6
CONTINUOUS
  8
1
 10
74.661
 20
32.453
  0
VERTEX
  6
CONTINUOUS
  8
1
 10
74.666
 20
32.461
  0
VERTEX
  6
CONTINUOUS
  8
1
 10
74.670
 20
32.470
  0
VERTEX
  6
CONTINUOUS
  8
1
 10
74.674
 20
32.480
  0
VERTEX
  6
CONTINUOUS
  8
1
 10
74.678
 20
32.489
  0
VERTEX
  6
CONTINUOUS
  8
1
 10
74.682
 20
32.498
  0
VERTEX
  6
CONTINUOUS
  8
1
 10
74.687
 20
32.507
  0
VERTEX
  6
CONTINUOUS
  8
1
 10
74.689
 20
32.516
  0
VERTEX
  6
CONTINUOUS
  8
1
 10
74.694
 20
32.525
  0
VERTEX
  6
CONTINUOUS
  8
1
 10
74.698
 20
32.534
  0
VERTEX
  6
CONTINUOUS
  8
1
 10
74.701
 20
32.544
  0
VERTEX
  6
CONTINUOUS
  8
1
 10
74.704
 20
32.554
  0
VERTEX
  6
CONTINUOUS
  8
1
 10
74.708
 20
32.562
  0
VERTEX
  6
CONTINUOUS
  8
1
 10
74.711
 20
32.572
  0
VERTEX
  6
CONTINUOUS
  8
1
 10
74.714
 20
32.580
  0
VERTEX
  6
CONTINUOUS
  8
1
 10
74.717
 20
32.590
  0
VERTEX
  6
CONTINUOUS
  8
1
 10
74.720
 20
32.599
  0
VERTEX
  6
CONTINUOUS
  8
1
 10
74.722
 20
32.607
  0
SEQEND
  0
POLYLINE
  6
CONTINUOUS
  8
1
 66
     1
 70
     2
  0
VERTEX
  6
CONTINUOUS
  8
1
 10
73.600
 20
33.011
  0
VERTEX
  6
CONTINUOUS
  8
1
 10
73.593
 20
32.998
  0
VERTEX
  6
CONTINUOUS
  8
1
 10
73.580
 20
32.975
  0
VERTEX
  6
CONTINUOUS
  8
1
 10
73.567
 20
32.952
  0
VERTEX
  6
CONTINUOUS
  8
1
 10
73.554
 20
32.929
  0
VERTEX
  6
CONTINUOUS
  8
1
 10
73.542
 20
32.906
  0
VERTEX
  6
CONTINUOUS
  8
1
 10
73.530
 20
32.883
  0
VERTEX
  6
CONTINUOUS
  8
1
 10
73.519
 20
32.859
  0
VERTEX
  6
CONTINUOUS
  8
1
 10
73.506
 20
32.836
  0
VERTEX
  6
CONTINUOUS
  8
1
 10
73.495
 20
32.813
  0
VERTEX
  6
CONTINUOUS
  8
1
 10
73.485
 20
32.789
  0
VERTEX
  6
CONTINUOUS
  8
1
 10
73.474
 20
32.765
  0
VERTEX
  6
CONTINUOUS
  8
1
 10
73.464
 20
32.742
  0
VERTEX
  6
CONTINUOUS
  8
1
 10
73.453
 20
32.718
  0
VERTEX
  6
CONTINUOUS
  8
1
 10
73.443
 20
32.694
  0
VERTEX
  6
CONTINUOUS
  8
1
 10
73.434
 20
32.670
  0
VERTEX
  6
CONTINUOUS
  8
1
 10
73.424
 20
32.647
  0
VERTEX
  6
CONTINUOUS
  8
1
 10
73.415
 20
32.622
  0
VERTEX
  6
CONTINUOUS
  8
1
 10
73.406
 20
32.599
  0
VERTEX
  6
CONTINUOUS
  8
1
 10
73.397
 20
32.575
  0
VERTEX
  6
CONTINUOUS
  8
1
 10
73.389
 20
32.551
  0
VERTEX
  6
CONTINUOUS
  8
1
 10
73.381
 20
32.528
  0
VERTEX
  6
CONTINUOUS
  8
1
 10
73.373
 20
32.503
  0
VERTEX
  6
CONTINUOUS
  8
1
 10
73.367
 20
32.480
  0
VERTEX
  6
CONTINUOUS
  8
1
 10
73.360
 20
32.456
  0
VERTEX
  6
CONTINUOUS
  8
1
 10
73.352
 20
32.431
  0
VERTEX
  6
CONTINUOUS
  8
1
 10
73.346
 20
32.408
  0
VERTEX
  6
CONTINUOUS
  8
1
 10
73.340
 20
32.384
  0
VERTEX
  6
CONTINUOUS
  8
1
 10
73.334
 20
32.361
  0
VERTEX
  6
CONTINUOUS
  8
1
 10
73.328
 20
32.337
  0
VERTEX
  6
CONTINUOUS
  8
1
 10
73.323
 20
32.313
  0
VERTEX
  6
CONTINUOUS
  8
1
 10
73.319
 20
32.290
  0
VERTEX
  6
CONTINUOUS
  8
1
 10
73.314
 20
32.266
  0
VERTEX
  6
CONTINUOUS
  8
1
 10
73.309
 20
32.244
  0
VERTEX
  6
CONTINUOUS
  8
1
 10
73.305
 20
32.219
  0
VERTEX
  6
CONTINUOUS
  8
1
 10
73.302
 20
32.197
  0
VERTEX
  6
CONTINUOUS
  8
1
 10
73.298
 20
32.174
  0
VERTEX
  6
CONTINUOUS
  8
1
 10
73.295
 20
32.151
  0
VERTEX
  6
CONTINUOUS
  8
1
 10
73.292
 20
32.129
  0
VERTEX
  6
CONTINUOUS
  8
1
 10
73.290
 20
32.106
  0
VERTEX
  6
CONTINUOUS
  8
1
 10
73.288
 20
32.083
  0
VERTEX
  6
CONTINUOUS
  8
1
 10
73.286
 20
32.061
  0
VERTEX
  6
CONTINUOUS
  8
1
 10
73.284
 20
32.039
  0
VERTEX
  6
CONTINUOUS
  8
1
 10
73.284
 20
32.017
  0
VERTEX
  6
CONTINUOUS
  8
1
 10
73.282
 20
31.995
  0
VERTEX
  6
CONTINUOUS
  8
1
 10
73.282
 20
31.973
  0
VERTEX
  6
CONTINUOUS
  8
1
 10
73.282
 20
31.952
  0
VERTEX
  6
CONTINUOUS
  8
1
 10
73.282
 20
31.930
  0
VERTEX
  6
CONTINUOUS
  8
1
 10
73.283
 20
31.909
  0
VERTEX
  6
CONTINUOUS
  8
1
 10
73.284
 20
31.889
  0
VERTEX
  6
CONTINUOUS
  8
1
 10
73.285
 20
31.868
  0
VERTEX
  6
CONTINUOUS
  8
1
 10
73.286
 20
31.847
  0
VERTEX
  6
CONTINUOUS
  8
1
 10
73.288
 20
31.827
  0
VERTEX
  6
CONTINUOUS
  8
1
 10
73.289
 20
31.807
  0
VERTEX
  6
CONTINUOUS
  8
1
 10
73.292
 20
31.787
  0
VERTEX
  6
CONTINUOUS
  8
1
 10
73.296
 20
31.768
  0
VERTEX
  6
CONTINUOUS
  8
1
 10
73.298
 20
31.748
  0
VERTEX
  6
CONTINUOUS
  8
1
 10
73.301
 20
31.730
  0
VERTEX
  6
CONTINUOUS
  8
1
 10
73.305
 20
31.710
  0
VERTEX
  6
CONTINUOUS
  8
1
 10
73.309
 20
31.692
  0
VERTEX
  6
CONTINUOUS
  8
1
 10
73.313
 20
31.674
  0
VERTEX
  6
CONTINUOUS
  8
1
 10
73.319
 20
31.655
  0
VERTEX
  6
CONTINUOUS
  8
1
 10
73.323
 20
31.638
  0
VERTEX
  6
CONTINUOUS
  8
1
 10
73.329
 20
31.621
  0
VERTEX
  6
CONTINUOUS
  8
1
 10
73.334
 20
31.604
  0
VERTEX
  6
CONTINUOUS
  8
1
 10
73.340
 20
31.587
  0
VERTEX
  6
CONTINUOUS
  8
1
 10
73.346
 20
31.570
  0
VERTEX
  6
CONTINUOUS
  8
1
 10
73.352
 20
31.554
  0
VERTEX
  6
CONTINUOUS
  8
1
 10
73.359
 20
31.537
  0
VERTEX
  6
CONTINUOUS
  8
1
 10
73.366
 20
31.522
  0
VERTEX
  6
CONTINUOUS
  8
1
 10
73.374
 20
31.507
  0
VERTEX
  6
CONTINUOUS
  8
1
 10
73.381
 20
31.492
  0
VERTEX
  6
CONTINUOUS
  8
1
 10
73.389
 20
31.477
  0
VERTEX
  6
CONTINUOUS
  8
1
 10
73.398
 20
31.462
  0
VERTEX
  6
CONTINUOUS
  8
1
 10
73.406
 20
31.449
  0
VERTEX
  6
CONTINUOUS
  8
1
 10
73.415
 20
31.435
  0
VERTEX
  6
CONTINUOUS
  8
1
 10
73.424
 20
31.422
  0
VERTEX
  6
CONTINUOUS
  8
1
 10
73.434
 20
31.409
  0
VERTEX
  6
CONTINUOUS
  8
1
 10
73.442
 20
31.396
  0
VERTEX
  6
CONTINUOUS
  8
1
 10
73.453
 20
31.384
  0
VERTEX
  6
CONTINUOUS
  8
1
 10
73.463
 20
31.372
  0
VERTEX
  6
CONTINUOUS
  8
1
 10
73.474
 20
31.360
  0
VERTEX
  6
CONTINUOUS
  8
1
 10
73.484
 20
31.349
  0
VERTEX
  6
CONTINUOUS
  8
1
 10
73.496
 20
31.338
  0
VERTEX
  6
CONTINUOUS
  8
1
 10
73.507
 20
31.328
  0
VERTEX
  6
CONTINUOUS
  8
1
 10
73.518
 20
31.317
  0
VERTEX
  6
CONTINUOUS
  8
1
 10
73.530
 20
31.308
  0
VERTEX
  6
CONTINUOUS
  8
1
 10
73.542
 20
31.299
  0
VERTEX
  6
CONTINUOUS
  8
1
 10
73.554
 20
31.290
  0
VERTEX
  6
CONTINUOUS
  8
1
 10
73.567
 20
31.281
  0
VERTEX
  6
CONTINUOUS
  8
1
 10
73.579
 20
31.273
  0
VERTEX
  6
CONTINUOUS
  8
1
 10
73.592
 20
31.266
  0
VERTEX
  6
CONTINUOUS
  8
1
 10
73.605
 20
31.258
  0
VERTEX
  6
CONTINUOUS
  8
1
 10
73.619
 20
31.251
  0
VERTEX
  6
CONTINUOUS
  8
1
 10
73.632
 20
31.245
  0
VERTEX
  6
CONTINUOUS
  8
1
 10
73.646
 20
31.239
  0
VERTEX
  6
CONTINUOUS
  8
1
 10
73.660
 20
31.233
  0
VERTEX
  6
CONTINUOUS
  8
1
 10
73.674
 20
31.228
  0
VERTEX
  6
CONTINUOUS
  8
1
 10
73.689
 20
31.223
  0
VERTEX
  6
CONTINUOUS
  8
1
 10
73.704
 20
31.219
  0
VERTEX
  6
CONTINUOUS
  8
1
 10
73.718
 20
31.214
  0
VERTEX
  6
CONTINUOUS
  8
1
 10
73.734
 20
31.211
  0
VERTEX
  6
CONTINUOUS
  8
1
 10
73.749
 20
31.207
  0
VERTEX
  6
CONTINUOUS
  8
1
 10
73.765
 20
31.204
  0
VERTEX
  6
CONTINUOUS
  8
1
 10
73.780
 20
31.201
  0
VERTEX
  6
CONTINUOUS
  8
1
 10
73.796
 20
31.200
  0
VERTEX
  6
CONTINUOUS
  8
1
 10
73.812
 20
31.198
  0
VERTEX
  6
CONTINUOUS
  8
1
 10
73.828
 20
31.197
  0
VERTEX
  6
CONTINUOUS
  8
1
 10
73.845
 20
31.196
  0
VERTEX
  6
CONTINUOUS
  8
1
 10
73.860
 20
31.195
  0
VERTEX
  6
CONTINUOUS
  8
1
 10
73.878
 20
31.196
  0
VERTEX
  6
CONTINUOUS
  8
1
 10
73.894
 20
31.197
  0
VERTEX
  6
CONTINUOUS
  8
1
 10
73.911
 20
31.197
  0
VERTEX
  6
CONTINUOUS
  8
1
 10
73.928
 20
31.198
  0
VERTEX
  6
CONTINUOUS
  8
1
 10
73.945
 20
31.200
  0
VERTEX
  6
CONTINUOUS
  8
1
 10
73.962
 20
31.202
  0
VERTEX
  6
CONTINUOUS
  8
1
 10
73.980
 20
31.205
  0
VERTEX
  6
CONTINUOUS
  8
1
 10
73.997
 20
31.208
  0
VERTEX
  6
CONTINUOUS
  8
1
 10
74.015
 20
31.211
  0
VERTEX
  6
CONTINUOUS
  8
1
 10
74.032
 20
31.215
  0
VERTEX
  6
CONTINUOUS
  8
1
 10
74.049
 20
31.219
  0
VERTEX
  6
CONTINUOUS
  8
1
 10
74.067
 20
31.224
  0
VERTEX
  6
CONTINUOUS
  8
1
 10
74.086
 20
31.228
  0
VERTEX
  6
CONTINUOUS
  8
1
 10
74.103
 20
31.234
  0
VERTEX
  6
CONTINUOUS
  8
1
 10
74.121
 20
31.240
  0
VERTEX
  6
CONTINUOUS
  8
1
 10
74.140
 20
31.247
  0
VERTEX
  6
CONTINUOUS
  8
1
 10
74.157
 20
31.253
  0
VERTEX
  6
CONTINUOUS
  8
1
 10
74.176
 20
31.261
  0
VERTEX
  6
CONTINUOUS
  8
1
 10
74.195
 20
31.267
  0
VERTEX
  6
CONTINUOUS
  8
1
 10
74.213
 20
31.275
  0
VERTEX
  6
CONTINUOUS
  8
1
 10
74.231
 20
31.284
  0
VERTEX
  6
CONTINUOUS
  8
1
 10
74.249
 20
31.292
  0
VERTEX
  6
CONTINUOUS
  8
1
 10
74.267
 20
31.301
  0
VERTEX
  6
CONTINUOUS
  8
1
 10
74.287
 20
31.311
  0
VERTEX
  6
CONTINUOUS
  8
1
 10
74.305
 20
31.320
  0
VERTEX
  6
CONTINUOUS
  8
1
 10
74.323
 20
31.330
  0
VERTEX
  6
CONTINUOUS
  8
1
 10
74.342
 20
31.341
  0
VERTEX
  6
CONTINUOUS
  8
1
 10
74.360
 20
31.352
  0
VERTEX
  6
CONTINUOUS
  8
1
 10
74.379
 20
31.363
  0
VERTEX
  6
CONTINUOUS
  8
1
 10
74.398
 20
31.375
  0
VERTEX
  6
CONTINUOUS
  8
1
 10
74.416
 20
31.387
  0
VERTEX
  6
CONTINUOUS
  8
1
 10
74.435
 20
31.399
  0
VERTEX
  6
CONTINUOUS
  8
1
 10
74.452
 20
31.412
  0
VERTEX
  6
CONTINUOUS
  8
1
 10
74.471
 20
31.425
  0
VERTEX
  6
CONTINUOUS
  8
1
 10
74.490
 20
31.439
  0
VERTEX
  6
CONTINUOUS
  8
1
 10
74.508
 20
31.452
  0
VERTEX
  6
CONTINUOUS
  8
1
 10
74.526
 20
31.466
  0
VERTEX
  6
CONTINUOUS
  8
1
 10
74.544
 20
31.481
  0
VERTEX
  6
CONTINUOUS
  8
1
 10
74.562
 20
31.495
  0
VERTEX
  6
CONTINUOUS
  8
1
 10
74.581
 20
31.511
  0
VERTEX
  6
CONTINUOUS
  8
1
 10
74.598
 20
31.526
  0
VERTEX
  6
CONTINUOUS
  8
1
 10
74.616
 20
31.541
  0
VERTEX
  6
CONTINUOUS
  8
1
 10
74.634
 20
31.557
  0
VERTEX
  6
CONTINUOUS
  8
1
 10
74.652
 20
31.574
  0
VERTEX
  6
CONTINUOUS
  8
1
 10
74.670
 20
31.591
  0
VERTEX
  6
CONTINUOUS
  8
1
 10
74.687
 20
31.608
  0
VERTEX
  6
CONTINUOUS
  8
1
 10
74.705
 20
31.625
  0
VERTEX
  6
CONTINUOUS
  8
1
 10
74.721
 20
31.642
  0
VERTEX
  6
CONTINUOUS
  8
1
 10
74.739
 20
31.661
  0
VERTEX
  6
CONTINUOUS
  8
1
 10
74.756
 20
31.679
  0
VERTEX
  6
CONTINUOUS
  8
1
 10
74.773
 20
31.696
  0
VERTEX
  6
CONTINUOUS
  8
1
 10
74.790
 20
31.716
  0
VERTEX
  6
CONTINUOUS
  8
1
 10
74.807
 20
31.734
  0
VERTEX
  6
CONTINUOUS
  8
1
 10
74.823
 20
31.753
  0
VERTEX
  6
CONTINUOUS
  8
1
 10
74.839
 20
31.773
  0
VERTEX
  6
CONTINUOUS
  8
1
 10
74.855
 20
31.792
  0
VERTEX
  6
CONTINUOUS
  8
1
 10
74.873
 20
31.812
  0
VERTEX
  6
CONTINUOUS
  8
1
 10
74.888
 20
31.833
  0
VERTEX
  6
CONTINUOUS
  8
1
 10
74.904
 20
31.852
  0
VERTEX
  6
CONTINUOUS
  8
1
 10
74.919
 20
31.873
  0
VERTEX
  6
CONTINUOUS
  8
1
 10
74.935
 20
31.894
  0
VERTEX
  6
CONTINUOUS
  8
1
 10
74.950
 20
31.914
  0
VERTEX
  6
CONTINUOUS
  8
1
 10
74.965
 20
31.936
  0
VERTEX
  6
CONTINUOUS
  8
1
 10
74.980
 20
31.957
  0
VERTEX
  6
CONTINUOUS
  8
1
 10
74.995
 20
31.978
  0
VERTEX
  6
CONTINUOUS
  8
1
 10
75.009
 20
32.001
  0
VERTEX
  6
CONTINUOUS
  8
1
 10
75.023
 20
32.022
  0
VERTEX
  6
CONTINUOUS
  8
1
 10
75.037
 20
32.044
  0
VERTEX
  6
CONTINUOUS
  8
1
 10
75.051
 20
32.066
  0
VERTEX
  6
CONTINUOUS
  8
1
 10
75.065
 20
32.089
  0
VERTEX
  6
CONTINUOUS
  8
1
 10
75.078
 20
32.112
  0
VERTEX
  6
CONTINUOUS
  8
1
 10
75.091
 20
32.134
  0
VERTEX
  6
CONTINUOUS
  8
1
 10
75.104
 20
32.157
  0
VERTEX
  6
CONTINUOUS
  8
1
 10
75.117
 20
32.180
  0
VERTEX
  6
CONTINUOUS
  8
1
 10
75.130
 20
32.203
  0
VERTEX
  6
CONTINUOUS
  8
1
 10
75.142
 20
32.226
  0
VERTEX
  6
CONTINUOUS
  8
1
 10
75.154
 20
32.249
  0
VERTEX
  6
CONTINUOUS
  8
1
 10
75.165
 20
32.273
  0
VERTEX
  6
CONTINUOUS
  8
1
 10
75.178
 20
32.296
  0
VERTEX
  6
CONTINUOUS
  8
1
 10
75.189
 20
32.319
  0
VERTEX
  6
CONTINUOUS
  8
1
 10
75.199
 20
32.343
  0
VERTEX
  6
CONTINUOUS
  8
1
 10
75.210
 20
32.367
  0
VERTEX
  6
CONTINUOUS
  8
1
 10
75.220
 20
32.390
  0
VERTEX
  6
CONTINUOUS
  8
1
 10
75.231
 20
32.414
  0
VERTEX
  6
CONTINUOUS
  8
1
 10
75.241
 20
32.438
  0
VERTEX
  6
CONTINUOUS
  8
1
 10
75.250
 20
32.462
  0
VERTEX
  6
CONTINUOUS
  8
1
 10
75.260
 20
32.485
  0
VERTEX
  6
CONTINUOUS
  8
1
 10
75.269
 20
32.510
  0
VERTEX
  6
CONTINUOUS
  8
1
 10
75.278
 20
32.533
  0
VERTEX
  6
CONTINUOUS
  8
1
 10
75.287
 20
32.557
  0
VERTEX
  6
CONTINUOUS
  8
1
 10
75.295
 20
32.581
  0
VERTEX
  6
CONTINUOUS
  8
1
 10
75.303
 20
32.604
  0
VERTEX
  6
CONTINUOUS
  8
1
 10
75.311
 20
32.629
  0
VERTEX
  6
CONTINUOUS
  8
1
 10
75.317
 20
32.652
  0
VERTEX
  6
CONTINUOUS
  8
1
 10
75.324
 20
32.676
  0
VERTEX
  6
CONTINUOUS
  8
1
 10
75.332
 20
32.701
  0
VERTEX
  6
CONTINUOUS
  8
1
 10
75.338
 20
32.724
  0
VERTEX
  6
CONTINUOUS
  8
1
 10
75.344
 20
32.748
  0
VERTEX
  6
CONTINUOUS
  8
1
 10
75.350
 20
32.771
  0
VERTEX
  6
CONTINUOUS
  8
1
 10
75.356
 20
32.795
  0
VERTEX
  6
CONTINUOUS
  8
1
 10
75.361
 20
32.819
  0
VERTEX
  6
CONTINUOUS
  8
1
 10
75.366
 20
32.843
  0
VERTEX
  6
CONTINUOUS
  8
1
 10
75.370
 20
32.866
  0
VERTEX
  6
CONTINUOUS
  8
1
 10
75.375
 20
32.888
  0
VERTEX
  6
CONTINUOUS
  8
1
 10
75.379
 20
32.913
  0
VERTEX
  6
CONTINUOUS
  8
1
 10
75.382
 20
32.935
  0
VERTEX
  6
CONTINUOUS
  8
1
 10
75.386
 20
32.958
  0
VERTEX
  6
CONTINUOUS
  8
1
 10
75.389
 20
32.981
  0
VERTEX
  6
CONTINUOUS
  8
1
 10
75.392
 20
33.003
  0
VERTEX
  6
CONTINUOUS
  8
1
 10
75.394
 20
33.026
  0
VERTEX
  6
CONTINUOUS
  8
1
 10
75.396
 20
33.049
  0
VERTEX
  6
CONTINUOUS
  8
1
 10
75.398
 20
33.071
  0
VERTEX
  6
CONTINUOUS
  8
1
 10
75.400
 20
33.093
  0
VERTEX
  6
CONTINUOUS
  8
1
 10
75.400
 20
33.115
  0
VERTEX
  6
CONTINUOUS
  8
1
 10
75.402
 20
33.137
  0
VERTEX
  6
CONTINUOUS
  8
1
 10
75.402
 20
33.159
  0
VERTEX
  6
CONTINUOUS
  8
1
 10
75.402
 20
33.178
  0
SEQEND
  0
POLYLINE
  6
CONTINUOUS
  8
1
 66
     1
 70
     2
  0
VERTEX
  6
CONTINUOUS
  8
1
 10
75.402
 20
33.178
  0
VERTEX
  6
CONTINUOUS
  8
1
 10
75.402
 20
33.180
  0
VERTEX
  6
CONTINUOUS
  8
1
 10
75.402
 20
33.202
  0
VERTEX
  6
CONTINUOUS
  8
1
 10
75.401
 20
33.223
  0
VERTEX
  6
CONTINUOUS
  8
1
 10
75.400
 20
33.243
  0
VERTEX
  6
CONTINUOUS
  8
1
 10
75.399
 20
33.264
  0
VERTEX
  6
CONTINUOUS
  8
1
 10
75.398
 20
33.285
  0
VERTEX
  6
CONTINUOUS
  8
1
 10
75.396
 20
33.305
  0
VERTEX
  6
CONTINUOUS
  8
1
 10
75.395
 20
33.325
  0
VERTEX
  6
CONTINUOUS
  8
1
 10
75.392
 20
33.345
  0
VERTEX
  6
CONTINUOUS
  8
1
 10
75.388
 20
33.364
  0
VERTEX
  6
CONTINUOUS
  8
1
 10
75.386
 20
33.384
  0
VERTEX
  6
CONTINUOUS
  8
1
 10
75.383
 20
33.402
  0
VERTEX
  6
CONTINUOUS
  8
1
 10
75.379
 20
33.422
  0
VERTEX
  6
CONTINUOUS
  8
1
 10
75.375
 20
33.440
  0
VERTEX
  6
CONTINUOUS
  8
1
 10
75.371
 20
33.458
  0
VERTEX
  6
CONTINUOUS
  8
1
 10
75.366
 20
33.476
  0
VERTEX
  6
CONTINUOUS
  8
1
 10
75.361
 20
33.494
  0
VERTEX
  6
CONTINUOUS
  8
1
 10
75.355
 20
33.511
  0
VERTEX
  6
CONTINUOUS
  8
1
 10
75.350
 20
33.528
  0
VERTEX
  6
CONTINUOUS
  8
1
 10
75.344
 20
33.545
  0
VERTEX
  6
CONTINUOUS
  8
1
 10
75.338
 20
33.562
  0
VERTEX
  6
CONTINUOUS
  8
1
 10
75.332
 20
33.578
  0
VERTEX
  6
CONTINUOUS
  8
1
 10
75.325
 20
33.595
  0
VERTEX
  6
CONTINUOUS
  8
1
 10
75.318
 20
33.610
  0
VERTEX
  6
CONTINUOUS
  8
1
 10
75.310
 20
33.625
  0
VERTEX
  6
CONTINUOUS
  8
1
 10
75.303
 20
33.640
  0
VERTEX
  6
CONTINUOUS
  8
1
 10
75.295
 20
33.655
  0
VERTEX
  6
CONTINUOUS
  8
1
 10
75.286
 20
33.670
  0
VERTEX
  6
CONTINUOUS
  8
1
 10
75.278
 20
33.683
  0
VERTEX
  6
CONTINUOUS
  8
1
 10
75.269
 20
33.697
  0
VERTEX
  6
CONTINUOUS
  8
1
 10
75.260
 20
33.710
  0
VERTEX
  6
CONTINUOUS
  8
1
 10
75.250
 20
33.723
  0
VERTEX
  6
CONTINUOUS
  8
1
 10
75.242
 20
33.736
  0
VERTEX
  6
CONTINUOUS
  8
1
 10
75.231
 20
33.748
  0
VERTEX
  6
CONTINUOUS
  8
1
 10
75.221
 20
33.760
  0
VERTEX
  6
CONTINUOUS
  8
1
 10
75.210
 20
33.772
  0
VERTEX
  6
CONTINUOUS
  8
1
 10
75.200
 20
33.783
  0
VERTEX
  6
CONTINUOUS
  8
1
 10
75.188
 20
33.794
  0
VERTEX
  6
CONTINUOUS
  8
1
 10
75.177
 20
33.804
  0
VERTEX
  6
CONTINUOUS
  8
1
 10
75.166
 20
33.815
  0
VERTEX
  6
CONTINUOUS
  8
1
 10
75.154
 20
33.824
  0
VERTEX
  6
CONTINUOUS
  8
1
 10
75.142
 20
33.833
  0
VERTEX
  6
CONTINUOUS
  8
1
 10
75.130
 20
33.842
  0
VERTEX
  6
CONTINUOUS
  8
1
 10
75.117
 20
33.851
  0
VERTEX
  6
CONTINUOUS
  8
1
 10
75.105
 20
33.859
  0
VERTEX
  6
CONTINUOUS
  8
1
 10
75.089
 20
33.868
  0
SEQEND
  0
LINE
  6
CONTINUOUS
  8
1
 10
72.574
 20
34.158
 11
72.892
 21
33.418
  0
POLYLINE
  6
CONTINUOUS
  8
1
 66
     1
 70
     2
  0
VERTEX
  6
CONTINUOUS
  8
1
 10
73.175
 20
33.811
  0
VERTEX
  6
CONTINUOUS
  8
1
 10
73.172
 20
33.808
  0
VERTEX
  6
CONTINUOUS
  8
1
 10
73.156
 20
33.789
  0
VERTEX
  6
CONTINUOUS
  8
1
 10
73.140
 20
33.770
  0
VERTEX
  6
CONTINUOUS
  8
1
 10
73.123
 20
33.749
  0
VERTEX
  6
CONTINUOUS
  8
1
 10
73.107
 20
33.730
  0
VERTEX
  6
CONTINUOUS
  8
1
 10
73.092
 20
33.710
  0
VERTEX
  6
CONTINUOUS
  8
1
 10
73.075
 20
33.689
  0
VERTEX
  6
CONTINUOUS
  8
1
 10
73.060
 20
33.669
  0
VERTEX
  6
CONTINUOUS
  8
1
 10
73.044
 20
33.648
  0
VERTEX
  6
CONTINUOUS
  8
1
 10
73.029
 20
33.627
  0
VERTEX
  6
CONTINUOUS
  8
1
 10
73.015
 20
33.607
  0
VERTEX
  6
CONTINUOUS
  8
1
 10
72.999
 20
33.586
  0
VERTEX
  6
CONTINUOUS
  8
1
 10
72.984
 20
33.564
  0
VERTEX
  6
CONTINUOUS
  8
1
 10
72.970
 20
33.542
  0
VERTEX
  6
CONTINUOUS
  8
1
 10
72.956
 20
33.520
  0
VERTEX
  6
CONTINUOUS
  8
1
 10
72.942
 20
33.498
  0
VERTEX
  6
CONTINUOUS
  8
1
 10
72.928
 20
33.476
  0
VERTEX
  6
CONTINUOUS
  8
1
 10
72.915
 20
33.453
  0
VERTEX
  6
CONTINUOUS
  8
1
 10
72.901
 20
33.431
  0
VERTEX
  6
CONTINUOUS
  8
1
 10
72.895
 20
33.421
  0
SEQEND
  0
LINE
  6
CONTINUOUS
  8
1
 10
72.909
 20
31.661
 11
73.615
 21
31.253
  0
POLYLINE
  6
CONTINUOUS
  8
1
 66
     1
 70
     2
  0
VERTEX
  6
CONTINUOUS
  8
1
 10
72.893
 20
33.419
  0
VERTEX
  6
CONTINUOUS
  8
1
 10
72.886
 20
33.406
  0
VERTEX
  6
CONTINUOUS
  8
1
 10
72.873
 20
33.383
  0
VERTEX
  6
CONTINUOUS
  8
1
 10
72.860
 20
33.360
  0
VERTEX
  6
CONTINUOUS
  8
1
 10
72.847
 20
33.337
  0
VERTEX
  6
CONTINUOUS
  8
1
 10
72.835
 20
33.314
  0
VERTEX
  6
CONTINUOUS
  8
1
 10
72.823
 20
33.291
  0
VERTEX
  6
CONTINUOUS
  8
1
 10
72.812
 20
33.267
  0
VERTEX
  6
CONTINUOUS
  8
1
 10
72.799
 20
33.244
  0
VERTEX
  6
CONTINUOUS
  8
1
 10
72.788
 20
33.221
  0
VERTEX
  6
CONTINUOUS
  8
1
 10
72.778
 20
33.197
  0
VERTEX
  6
CONTINUOUS
  8
1
 10
72.767
 20
33.173
  0
VERTEX
  6
CONTINUOUS
  8
1
 10
72.757
 20
33.150
  0
VERTEX
  6
CONTINUOUS
  8
1
 10
72.746
 20
33.126
  0
VERTEX
  6
CONTINUOUS
  8
1
 10
72.736
 20
33.102
  0
VERTEX
  6
CONTINUOUS
  8
1
 10
72.727
 20
33.078
  0
VERTEX
  6
CONTINUOUS
  8
1
 10
72.717
 20
33.055
  0
VERTEX
  6
CONTINUOUS
  8
1
 10
72.708
 20
33.030
  0
VERTEX
  6
CONTINUOUS
  8
1
 10
72.699
 20
33.007
  0
VERTEX
  6
CONTINUOUS
  8
1
 10
72.690
 20
32.983
  0
VERTEX
  6
CONTINUOUS
  8
1
 10
72.682
 20
32.959
  0
VERTEX
  6
CONTINUOUS
  8
1
 10
72.674
 20
32.936
  0
VERTEX
  6
CONTINUOUS
  8
1
 10
72.666
 20
32.911
  0
VERTEX
  6
CONTINUOUS
  8
1
 10
72.660
 20
32.888
  0
VERTEX
  6
CONTINUOUS
  8
1
 10
72.653
 20
32.864
  0
VERTEX
  6
CONTINUOUS
  8
1
 10
72.645
 20
32.839
  0
VERTEX
  6
CONTINUOUS
  8
1
 10
72.639
 20
32.816
  0
VERTEX
  6
CONTINUOUS
  8
1
 10
72.633
 20
32.792
  0
VERTEX
  6
CONTINUOUS
  8
1
 10
72.627
 20
32.769
  0
VERTEX
  6
CONTINUOUS
  8
1
 10
72.621
 20
32.745
  0
VERTEX
  6
CONTINUOUS
  8
1
 10
72.616
 20
32.721
  0
VERTEX
  6
CONTINUOUS
  8
1
 10
72.612
 20
32.698
  0
VERTEX
  6
CONTINUOUS
  8
1
 10
72.607
 20
32.674
  0
VERTEX
  6
CONTINUOUS
  8
1
 10
72.602
 20
32.652
  0
VERTEX
  6
CONTINUOUS
  8
1
 10
72.598
 20
32.627
  0
VERTEX
  6
CONTINUOUS
  8
1
 10
72.595
 20
32.605
  0
VERTEX
  6
CONTINUOUS
  8
1
 10
72.591
 20
32.582
  0
VERTEX
  6
CONTINUOUS
  8
1
 10
72.588
 20
32.559
  0
VERTEX
  6
CONTINUOUS
  8
1
 10
72.585
 20
32.537
  0
VERTEX
  6
CONTINUOUS
  8
1
 10
72.583
 20
32.514
  0
VERTEX
  6
CONTINUOUS
  8
1
 10
72.581
 20
32.491
  0
VERTEX
  6
CONTINUOUS
  8
1
 10
72.579
 20
32.469
  0
VERTEX
  6
CONTINUOUS
  8
1
 10
72.577
 20
32.447
  0
VERTEX
  6
CONTINUOUS
  8
1
 10
72.577
 20
32.425
  0
VERTEX
  6
CONTINUOUS
  8
1
 10
72.575
 20
32.403
  0
VERTEX
  6
CONTINUOUS
  8
1
 10
72.575
 20
32.381
  0
VERTEX
  6
CONTINUOUS
  8
1
 10
72.575
 20
32.360
  0
VERTEX
  6
CONTINUOUS
  8
1
 10
72.575
 20
32.338
  0
VERTEX
  6
CONTINUOUS
  8
1
 10
72.576
 20
32.317
  0
VERTEX
  6
CONTINUOUS
  8
1
 10
72.577
 20
32.297
  0
VERTEX
  6
CONTINUOUS
  8
1
 10
72.578
 20
32.276
  0
VERTEX
  6
CONTINUOUS
  8
1
 10
72.579
 20
32.255
  0
VERTEX
  6
CONTINUOUS
  8
1
 10
72.581
 20
32.235
  0
VERTEX
  6
CONTINUOUS
  8
1
 10
72.582
 20
32.215
  0
VERTEX
  6
CONTINUOUS
  8
1
 10
72.585
 20
32.195
  0
VERTEX
  6
CONTINUOUS
  8
1
 10
72.589
 20
32.176
  0
VERTEX
  6
CONTINUOUS
  8
1
 10
72.591
 20
32.156
  0
VERTEX
  6
CONTINUOUS
  8
1
 10
72.594
 20
32.138
  0
VERTEX
  6
CONTINUOUS
  8
1
 10
72.598
 20
32.118
  0
VERTEX
  6
CONTINUOUS
  8
1
 10
72.602
 20
32.100
  0
VERTEX
  6
CONTINUOUS
  8
1
 10
72.606
 20
32.082
  0
VERTEX
  6
CONTINUOUS
  8
1
 10
72.612
 20
32.063
  0
VERTEX
  6
CONTINUOUS
  8
1
 10
72.616
 20
32.046
  0
VERTEX
  6
CONTINUOUS
  8
1
 10
72.622
 20
32.029
  0
VERTEX
  6
CONTINUOUS
  8
1
 10
72.627
 20
32.012
  0
VERTEX
  6
CONTINUOUS
  8
1
 10
72.633
 20
31.995
  0
VERTEX
  6
CONTINUOUS
  8
1
 10
72.639
 20
31.978
  0
VERTEX
  6
CONTINUOUS
  8
1
 10
72.645
 20
31.962
  0
VERTEX
  6
CONTINUOUS
  8
1
 10
72.652
 20
31.945
  0
VERTEX
  6
CONTINUOUS
  8
1
 10
72.659
 20
31.930
  0
VERTEX
  6
CONTINUOUS
  8
1
 10
72.667
 20
31.915
  0
VERTEX
  6
CONTINUOUS
  8
1
 10
72.674
 20
31.900
  0
VERTEX
  6
CONTINUOUS
  8
1
 10
72.682
 20
31.885
  0
VERTEX
  6
CONTINUOUS
  8
1
 10
72.691
 20
31.870
  0
VERTEX
  6
CONTINUOUS
  8
1
 10
72.699
 20
31.857
  0
VERTEX
  6
CONTINUOUS
  8
1
 10
72.708
 20
31.843
  0
VERTEX
  6
CONTINUOUS
  8
1
 10
72.717
 20
31.830
  0
VERTEX
  6
CONTINUOUS
  8
1
 10
72.727
 20
31.817
  0
VERTEX
  6
CONTINUOUS
  8
1
 10
72.735
 20
31.804
  0
VERTEX
  6
CONTINUOUS
  8
1
 10
72.746
 20
31.792
  0
VERTEX
  6
CONTINUOUS
  8
1
 10
72.756
 20
31.780
  0
VERTEX
  6
CONTINUOUS
  8
1
 10
72.767
 20
31.768
  0
VERTEX
  6
CONTINUOUS
  8
1
 10
72.777
 20
31.757
  0
VERTEX
  6
CONTINUOUS
  8
1
 10
72.789
 20
31.746
  0
VERTEX
  6
CONTINUOUS
  8
1
 10
72.800
 20
31.736
  0
VERTEX
  6
CONTINUOUS
  8
1
 10
72.811
 20
31.725
  0
VERTEX
  6
CONTINUOUS
  8
1
 10
72.823
 20
31.716
  0
VERTEX
  6
CONTINUOUS
  8
1
 10
72.835
 20
31.707
  0
VERTEX
  6
CONTINUOUS
  8
1
 10
72.847
 20
31.698
  0
VERTEX
  6
CONTINUOUS
  8
1
 10
72.862
 20
31.688
  0
SEQEND
  0
LINE
  6
CONTINUOUS
  8
1
 10
72.862
 20
31.688
 11
72.909
 21
31.661
  0
LINE
  6
CONTINUOUS
  8
1
 10
75.122
 20
34.000
 11
74.710
 21
32.567
  0
LINE
  6
CONTINUOUS
  8
1
 10
71.864
 20
34.812
 11
71.865
 21
34.567
  0
LINE
  6
CONTINUOUS
  8
1
 10
72.571
 20
34.404
 11
73.278
 21
33.996
  0
LINE
  6
CONTINUOUS
  8
1
 10
76.106
 20
34.812
 11
76.106
 21
34.568
  0
POLYLINE
  6
CONTINUOUS
  8
1
 66
     1
 70
     2
  0
VERTEX
  6
CONTINUOUS
  8
1
 10
100.604
 20
47.844
  0
VERTEX
  6
CONTINUOUS
  8
1
 10
100.603
 20
47.845
  0
VERTEX
  6
CONTINUOUS
  8
1
 10
100.601
 20
47.846
  0
VERTEX
  6
CONTINUOUS
  8
1
 10
100.599
 20
47.847
  0
VERTEX
  6
CONTINUOUS
  8
1
 10
100.597
 20
47.848
  0
VERTEX
  6
CONTINUOUS
  8
1
 10
100.595
 20
47.849
  0
VERTEX
  6
CONTINUOUS
  8
1
 10
100.593
 20
47.850
  0
VERTEX
  6
CONTINUOUS
  8
1
 10
100.592
 20
47.851
  0
VERTEX
  6
CONTINUOUS
  8
1
 10
100.589
 20
47.851
  0
VERTEX
  6
CONTINUOUS
  8
1
 10
100.588
 20
47.852
  0
VERTEX
  6
CONTINUOUS
  8
1
 10
100.586
 20
47.852
  0
VERTEX
  6
CONTINUOUS
  8
1
 10
100.583
 20
47.852
  0
VERTEX
  6
CONTINUOUS
  8
1
 10
100.582
 20
47.853
  0
VERTEX
  6
CONTINUOUS
  8
1
 10
100.579
 20
47.853
  0
VERTEX
  6
CONTINUOUS
  8
1
 10
100.577
 20
47.853
  0
VERTEX
  6
CONTINUOUS
  8
1
 10
100.575
 20
47.853
  0
VERTEX
  6
CONTINUOUS
  8
1
 10
100.573
 20
47.853
  0
VERTEX
  6
CONTINUOUS
  8
1
 10
100.570
 20
47.854
  0
VERTEX
  6
CONTINUOUS
  8
1
 10
100.568
 20
47.854
  0
VERTEX
  6
CONTINUOUS
  8
1
 10
100.567
 20
47.853
  0
VERTEX
  6
CONTINUOUS
  8
1
 10
100.565
 20
47.854
  0
VERTEX
  6
CONTINUOUS
  8
1
 10
100.562
 20
47.854
  0
VERTEX
  6
CONTINUOUS
  8
1
 10
100.560
 20
47.854
  0
VERTEX
  6
CONTINUOUS
  8
1
 10
100.557
 20
47.853
  0
VERTEX
  6
CONTINUOUS
  8
1
 10
100.555
 20
47.853
  0
VERTEX
  6
CONTINUOUS
  8
1
 10
100.552
 20
47.852
  0
VERTEX
  6
CONTINUOUS
  8
1
 10
100.551
 20
47.852
  0
VERTEX
  6
CONTINUOUS
  8
1
 10
100.548
 20
47.851
  0
VERTEX
  6
CONTINUOUS
  8
1
 10
100.546
 20
47.851
  0
VERTEX
  6
CONTINUOUS
  8
1
 10
100.543
 20
47.851
  0
VERTEX
  6
CONTINUOUS
  8
1
 10
100.541
 20
47.849
  0
VERTEX
  6
CONTINUOUS
  8
1
 10
100.539
 20
47.850
  0
VERTEX
  6
CONTINUOUS
  8
1
 10
100.536
 20
47.849
  0
VERTEX
  6
CONTINUOUS
  8
1
 10
100.534
 20
47.848
  0
VERTEX
  6
CONTINUOUS
  8
1
 10
100.532
 20
47.847
  0
VERTEX
  6
CONTINUOUS
  8
1
 10
100.529
 20
47.846
  0
VERTEX
  6
CONTINUOUS
  8
1
 10
100.526
 20
47.845
  0
VERTEX
  6
CONTINUOUS
  8
1
 10
100.525
 20
47.844
  0
VERTEX
  6
CONTINUOUS
  8
1
 10
100.522
 20
47.843
  0
VERTEX
  6
CONTINUOUS
  8
1
 10
100.520
 20
47.842
  0
VERTEX
  6
CONTINUOUS
  8
1
 10
100.517
 20
47.841
  0
VERTEX
  6
CONTINUOUS
  8
1
 10
100.515
 20
47.839
  0
VERTEX
  6
CONTINUOUS
  8
1
 10
100.512
 20
47.839
  0
VERTEX
  6
CONTINUOUS
  8
1
 10
100.510
 20
47.837
  0
VERTEX
  6
CONTINUOUS
  8
1
 10
100.507
 20
47.836
  0
VERTEX
  6
CONTINUOUS
  8
1
 10
100.505
 20
47.835
  0
VERTEX
  6
CONTINUOUS
  8
1
 10
100.502
 20
47.833
  0
VERTEX
  6
CONTINUOUS
  8
1
 10
100.500
 20
47.832
  0
VERTEX
  6
CONTINUOUS
  8
1
 10
100.498
 20
47.830
  0
VERTEX
  6
CONTINUOUS
  8
1
 10
100.495
 20
47.829
  0
VERTEX
  6
CONTINUOUS
  8
1
 10
100.493
 20
47.827
  0
VERTEX
  6
CONTINUOUS
  8
1
 10
100.490
 20
47.825
  0
VERTEX
  6
CONTINUOUS
  8
1
 10
100.488
 20
47.824
  0
VERTEX
  6
CONTINUOUS
  8
1
 10
100.485
 20
47.822
  0
VERTEX
  6
CONTINUOUS
  8
1
 10
100.483
 20
47.820
  0
VERTEX
  6
CONTINUOUS
  8
1
 10
100.480
 20
47.818
  0
VERTEX
  6
CONTINUOUS
  8
1
 10
100.478
 20
47.816
  0
VERTEX
  6
CONTINUOUS
  8
1
 10
100.476
 20
47.814
  0
VERTEX
  6
CONTINUOUS
  8
1
 10
100.472
 20
47.812
  0
VERTEX
  6
CONTINUOUS
  8
1
 10
100.470
 20
47.810
  0
VERTEX
  6
CONTINUOUS
  8
1
 10
100.468
 20
47.809
  0
VERTEX
  6
CONTINUOUS
  8
1
 10
100.465
 20
47.806
  0
VERTEX
  6
CONTINUOUS
  8
1
 10
100.463
 20
47.803
  0
VERTEX
  6
CONTINUOUS
  8
1
 10
100.462
 20
47.801
  0
VERTEX
  6
CONTINUOUS
  8
1
 10
100.459
 20
47.799
  0
VERTEX
  6
CONTINUOUS
  8
1
 10
100.457
 20
47.797
  0
VERTEX
  6
CONTINUOUS
  8
1
 10
100.454
 20
47.795
  0
VERTEX
  6
CONTINUOUS
  8
1
 10
100.452
 20
47.792
  0
VERTEX
  6
CONTINUOUS
  8
1
 10
100.450
 20
47.790
  0
VERTEX
  6
CONTINUOUS
  8
1
 10
100.448
 20
47.787
  0
VERTEX
  6
CONTINUOUS
  8
1
 10
100.445
 20
47.785
  0
VERTEX
  6
CONTINUOUS
  8
1
 10
100.443
 20
47.783
  0
VERTEX
  6
CONTINUOUS
  8
1
 10
100.441
 20
47.779
  0
VERTEX
  6
CONTINUOUS
  8
1
 10
100.439
 20
47.777
  0
VERTEX
  6
CONTINUOUS
  8
1
 10
100.436
 20
47.775
  0
VERTEX
  6
CONTINUOUS
  8
1
 10
100.435
 20
47.772
  0
VERTEX
  6
CONTINUOUS
  8
1
 10
100.432
 20
47.769
  0
VERTEX
  6
CONTINUOUS
  8
1
 10
100.430
 20
47.767
  0
VERTEX
  6
CONTINUOUS
  8
1
 10
100.428
 20
47.763
  0
VERTEX
  6
CONTINUOUS
  8
1
 10
100.426
 20
47.761
  0
VERTEX
  6
CONTINUOUS
  8
1
 10
100.425
 20
47.759
  0
VERTEX
  6
CONTINUOUS
  8
1
 10
100.422
 20
47.756
  0
VERTEX
  6
CONTINUOUS
  8
1
 10
100.420
 20
47.753
  0
VERTEX
  6
CONTINUOUS
  8
1
 10
100.418
 20
47.750
  0
VERTEX
  6
CONTINUOUS
  8
1
 10
100.417
 20
47.747
  0
VERTEX
  6
CONTINUOUS
  8
1
 10
100.414
 20
47.744
  0
VERTEX
  6
CONTINUOUS
  8
1
 10
100.412
 20
47.742
  0
VERTEX
  6
CONTINUOUS
  8
1
 10
100.410
 20
47.738
  0
VERTEX
  6
CONTINUOUS
  8
1
 10
100.409
 20
47.735
  0
VERTEX
  6
CONTINUOUS
  8
1
 10
100.407
 20
47.732
  0
VERTEX
  6
CONTINUOUS
  8
1
 10
100.405
 20
47.729
  0
VERTEX
  6
CONTINUOUS
  8
1
 10
100.404
 20
47.727
  0
VERTEX
  6
CONTINUOUS
  8
1
 10
100.402
 20
47.723
  0
VERTEX
  6
CONTINUOUS
  8
1
 10
100.400
 20
47.721
  0
VERTEX
  6
CONTINUOUS
  8
1
 10
100.398
 20
47.717
  0
VERTEX
  6
CONTINUOUS
  8
1
 10
100.397
 20
47.715
  0
VERTEX
  6
CONTINUOUS
  8
1
 10
100.396
 20
47.711
  0
VERTEX
  6
CONTINUOUS
  8
1
 10
100.394
 20
47.708
  0
VERTEX
  6
CONTINUOUS
  8
1
 10
100.392
 20
47.705
  0
VERTEX
  6
CONTINUOUS
  8
1
 10
100.391
 20
47.702
  0
VERTEX
  6
CONTINUOUS
  8
1
 10
100.390
 20
47.698
  0
VERTEX
  6
CONTINUOUS
  8
1
 10
100.388
 20
47.695
  0
VERTEX
  6
CONTINUOUS
  8
1
 10
100.387
 20
47.692
  0
VERTEX
  6
CONTINUOUS
  8
1
 10
100.385
 20
47.689
  0
VERTEX
  6
CONTINUOUS
  8
1
 10
100.384
 20
47.686
  0
VERTEX
  6
CONTINUOUS
  8
1
 10
100.383
 20
47.682
  0
VERTEX
  6
CONTINUOUS
  8
1
 10
100.381
 20
47.680
  0
VERTEX
  6
CONTINUOUS
  8
1
 10
100.381
 20
47.677
  0
VERTEX
  6
CONTINUOUS
  8
1
 10
100.380
 20
47.674
  0
VERTEX
  6
CONTINUOUS
  8
1
 10
100.378
 20
47.670
  0
VERTEX
  6
CONTINUOUS
  8
1
 10
100.377
 20
47.667
  0
VERTEX
  6
CONTINUOUS
  8
1
 10
100.377
 20
47.664
  0
VERTEX
  6
CONTINUOUS
  8
1
 10
100.375
 20
47.660
  0
VERTEX
  6
CONTINUOUS
  8
1
 10
100.374
 20
47.657
  0
VERTEX
  6
CONTINUOUS
  8
1
 10
100.374
 20
47.654
  0
VERTEX
  6
CONTINUOUS
  8
1
 10
100.373
 20
47.651
  0
VERTEX
  6
CONTINUOUS
  8
1
 10
100.372
 20
47.648
  0
VERTEX
  6
CONTINUOUS
  8
1
 10
100.372
 20
47.645
  0
VERTEX
  6
CONTINUOUS
  8
1
 10
100.370
 20
47.642
  0
VERTEX
  6
CONTINUOUS
  8
1
 10
100.370
 20
47.639
  0
VERTEX
  6
CONTINUOUS
  8
1
 10
100.369
 20
47.636
  0
VERTEX
  6
CONTINUOUS
  8
1
 10
100.368
 20
47.633
  0
VERTEX
  6
CONTINUOUS
  8
1
 10
100.368
 20
47.630
  0
VERTEX
  6
CONTINUOUS
  8
1
 10
100.368
 20
47.626
  0
VERTEX
  6
CONTINUOUS
  8
1
 10
100.367
 20
47.623
  0
VERTEX
  6
CONTINUOUS
  8
1
 10
100.367
 20
47.620
  0
VERTEX
  6
CONTINUOUS
  8
1
 10
100.366
 20
47.617
  0
VERTEX
  6
CONTINUOUS
  8
1
 10
100.365
 20
47.614
  0
VERTEX
  6
CONTINUOUS
  8
1
 10
100.365
 20
47.611
  0
VERTEX
  6
CONTINUOUS
  8
1
 10
100.365
 20
47.608
  0
VERTEX
  6
CONTINUOUS
  8
1
 10
100.365
 20
47.605
  0
VERTEX
  6
CONTINUOUS
  8
1
 10
100.364
 20
47.602
  0
VERTEX
  6
CONTINUOUS
  8
1
 10
100.365
 20
47.599
  0
VERTEX
  6
CONTINUOUS
  8
1
 10
100.364
 20
47.596
  0
VERTEX
  6
CONTINUOUS
  8
1
 10
100.364
 20
47.594
  0
VERTEX
  6
CONTINUOUS
  8
1
 10
100.364
 20
47.590
  0
VERTEX
  6
CONTINUOUS
  8
1
 10
100.364
 20
47.588
  0
VERTEX
  6
CONTINUOUS
  8
1
 10
100.365
 20
47.584
  0
VERTEX
  6
CONTINUOUS
  8
1
 10
100.364
 20
47.582
  0
VERTEX
  6
CONTINUOUS
  8
1
 10
100.365
 20
47.579
  0
VERTEX
  6
CONTINUOUS
  8
1
 10
100.365
 20
47.577
  0
VERTEX
  6
CONTINUOUS
  8
1
 10
100.365
 20
47.574
  0
VERTEX
  6
CONTINUOUS
  8
1
 10
100.365
 20
47.571
  0
VERTEX
  6
CONTINUOUS
  8
1
 10
100.366
 20
47.569
  0
VERTEX
  6
CONTINUOUS
  8
1
 10
100.366
 20
47.566
  0
VERTEX
  6
CONTINUOUS
  8
1
 10
100.366
 20
47.564
  0
VERTEX
  6
CONTINUOUS
  8
1
 10
100.367
 20
47.561
  0
VERTEX
  6
CONTINUOUS
  8
1
 10
100.367
 20
47.559
  0
VERTEX
  6
CONTINUOUS
  8
1
 10
100.368
 20
47.556
  0
VERTEX
  6
CONTINUOUS
  8
1
 10
100.369
 20
47.553
  0
VERTEX
  6
CONTINUOUS
  8
1
 10
100.370
 20
47.551
  0
VERTEX
  6
CONTINUOUS
  8
1
 10
100.370
 20
47.549
  0
VERTEX
  6
CONTINUOUS
  8
1
 10
100.370
 20
47.546
  0
VERTEX
  6
CONTINUOUS
  8
1
 10
100.372
 20
47.545
  0
VERTEX
  6
CONTINUOUS
  8
1
 10
100.372
 20
47.542
  0
VERTEX
  6
CONTINUOUS
  8
1
 10
100.373
 20
47.540
  0
VERTEX
  6
CONTINUOUS
  8
1
 10
100.373
 20
47.538
  0
VERTEX
  6
CONTINUOUS
  8
1
 10
100.375
 20
47.536
  0
VERTEX
  6
CONTINUOUS
  8
1
 10
100.375
 20
47.533
  0
VERTEX
  6
CONTINUOUS
  8
1
 10
100.377
 20
47.531
  0
VERTEX
  6
CONTINUOUS
  8
1
 10
100.378
 20
47.529
  0
VERTEX
  6
CONTINUOUS
  8
1
 10
100.379
 20
47.528
  0
VERTEX
  6
CONTINUOUS
  8
1
 10
100.379
 20
47.526
  0
VERTEX
  6
CONTINUOUS
  8
1
 10
100.381
 20
47.524
  0
VERTEX
  6
CONTINUOUS
  8
1
 10
100.382
 20
47.522
  0
VERTEX
  6
CONTINUOUS
  8
1
 10
100.383
 20
47.521
  0
VERTEX
  6
CONTINUOUS
  8
1
 10
100.384
 20
47.519
  0
VERTEX
  6
CONTINUOUS
  8
1
 10
100.386
 20
47.517
  0
VERTEX
  6
CONTINUOUS
  8
1
 10
100.387
 20
47.515
  0
VERTEX
  6
CONTINUOUS
  8
1
 10
100.389
 20
47.514
  0
VERTEX
  6
CONTINUOUS
  8
1
 10
100.390
 20
47.512
  0
VERTEX
  6
CONTINUOUS
  8
1
 10
100.391
 20
47.510
  0
VERTEX
  6
CONTINUOUS
  8
1
 10
100.393
 20
47.509
  0
VERTEX
  6
CONTINUOUS
  8
1
 10
100.394
 20
47.507
  0
VERTEX
  6
CONTINUOUS
  8
1
 10
100.396
 20
47.506
  0
VERTEX
  6
CONTINUOUS
  8
1
 10
100.398
 20
47.505
  0
VERTEX
  6
CONTINUOUS
  8
1
 10
100.399
 20
47.504
  0
VERTEX
  6
CONTINUOUS
  8
1
 10
100.400
 20
47.503
  0
VERTEX
  6
CONTINUOUS
  8
1
 10
100.402
 20
47.502
  0
VERTEX
  6
CONTINUOUS
  8
1
 10
100.404
 20
47.501
  0
VERTEX
  6
CONTINUOUS
  8
1
 10
100.406
 20
47.500
  0
VERTEX
  6
CONTINUOUS
  8
1
 10
100.407
 20
47.499
  0
VERTEX
  6
CONTINUOUS
  8
1
 10
100.409
 20
47.498
  0
VERTEX
  6
CONTINUOUS
  8
1
 10
100.411
 20
47.497
  0
VERTEX
  6
CONTINUOUS
  8
1
 10
100.413
 20
47.496
  0
VERTEX
  6
CONTINUOUS
  8
1
 10
100.415
 20
47.495
  0
VERTEX
  6
CONTINUOUS
  8
1
 10
100.417
 20
47.494
  0
VERTEX
  6
CONTINUOUS
  8
1
 10
100.418
 20
47.493
  0
VERTEX
  6
CONTINUOUS
  8
1
 10
100.421
 20
47.493
  0
VERTEX
  6
CONTINUOUS
  8
1
 10
100.422
 20
47.492
  0
VERTEX
  6
CONTINUOUS
  8
1
 10
100.424
 20
47.492
  0
VERTEX
  6
CONTINUOUS
  8
1
 10
100.427
 20
47.492
  0
VERTEX
  6
CONTINUOUS
  8
1
 10
100.428
 20
47.491
  0
VERTEX
  6
CONTINUOUS
  8
1
 10
100.431
 20
47.491
  0
VERTEX
  6
CONTINUOUS
  8
1
 10
100.433
 20
47.491
  0
VERTEX
  6
CONTINUOUS
  8
1
 10
100.435
 20
47.491
  0
VERTEX
  6
CONTINUOUS
  8
1
 10
100.437
 20
47.491
  0
VERTEX
  6
CONTINUOUS
  8
1
 10
100.440
 20
47.490
  0
VERTEX
  6
CONTINUOUS
  8
1
 10
100.442
 20
47.490
  0
VERTEX
  6
CONTINUOUS
  8
1
 10
100.443
 20
47.491
  0
VERTEX
  6
CONTINUOUS
  8
1
 10
100.445
 20
47.490
  0
VERTEX
  6
CONTINUOUS
  8
1
 10
100.448
 20
47.490
  0
VERTEX
  6
CONTINUOUS
  8
1
 10
100.450
 20
47.490
  0
VERTEX
  6
CONTINUOUS
  8
1
 10
100.453
 20
47.491
  0
VERTEX
  6
CONTINUOUS
  8
1
 10
100.455
 20
47.491
  0
VERTEX
  6
CONTINUOUS
  8
1
 10
100.458
 20
47.492
  0
VERTEX
  6
CONTINUOUS
  8
1
 10
100.459
 20
47.492
  0
VERTEX
  6
CONTINUOUS
  8
1
 10
100.462
 20
47.493
  0
VERTEX
  6
CONTINUOUS
  8
1
 10
100.464
 20
47.493
  0
VERTEX
  6
CONTINUOUS
  8
1
 10
100.467
 20
47.493
  0
VERTEX
  6
CONTINUOUS
  8
1
 10
100.469
 20
47.495
  0
VERTEX
  6
CONTINUOUS
  8
1
 10
100.471
 20
47.494
  0
VERTEX
  6
CONTINUOUS
  8
1
 10
100.474
 20
47.495
  0
VERTEX
  6
CONTINUOUS
  8
1
 10
100.476
 20
47.496
  0
VERTEX
  6
CONTINUOUS
  8
1
 10
100.478
 20
47.497
  0
VERTEX
  6
CONTINUOUS
  8
1
 10
100.481
 20
47.498
  0
VERTEX
  6
CONTINUOUS
  8
1
 10
100.484
 20
47.499
  0
VERTEX
  6
CONTINUOUS
  8
1
 10
100.485
 20
47.500
  0
VERTEX
  6
CONTINUOUS
  8
1
 10
100.488
 20
47.501
  0
VERTEX
  6
CONTINUOUS
  8
1
 10
100.490
 20
47.502
  0
VERTEX
  6
CONTINUOUS
  8
1
 10
100.493
 20
47.503
  0
VERTEX
  6
CONTINUOUS
  8
1
 10
100.495
 20
47.505
  0
VERTEX
  6
CONTINUOUS
  8
1
 10
100.498
 20
47.505
  0
VERTEX
  6
CONTINUOUS
  8
1
 10
100.500
 20
47.507
  0
VERTEX
  6
CONTINUOUS
  8
1
 10
100.503
 20
47.508
  0
VERTEX
  6
CONTINUOUS
  8
1
 10
100.505
 20
47.509
  0
VERTEX
  6
CONTINUOUS
  8
1
 10
100.508
 20
47.511
  0
VERTEX
  6
CONTINUOUS
  8
1
 10
100.510
 20
47.512
  0
VERTEX
  6
CONTINUOUS
  8
1
 10
100.512
 20
47.514
  0
VERTEX
  6
CONTINUOUS
  8
1
 10
100.515
 20
47.515
  0
VERTEX
  6
CONTINUOUS
  8
1
 10
100.517
 20
47.517
  0
VERTEX
  6
CONTINUOUS
  8
1
 10
100.520
 20
47.519
  0
VERTEX
  6
CONTINUOUS
  8
1
 10
100.522
 20
47.520
  0
VERTEX
  6
CONTINUOUS
  8
1
 10
100.525
 20
47.522
  0
VERTEX
  6
CONTINUOUS
  8
1
 10
100.527
 20
47.524
  0
VERTEX
  6
CONTINUOUS
  8
1
 10
100.530
 20
47.526
  0
VERTEX
  6
CONTINUOUS
  8
1
 10
100.532
 20
47.528
  0
VERTEX
  6
CONTINUOUS
  8
1
 10
100.534
 20
47.530
  0
VERTEX
  6
CONTINUOUS
  8
1
 10
100.538
 20
47.532
  0
VERTEX
  6
CONTINUOUS
  8
1
 10
100.540
 20
47.534
  0
VERTEX
  6
CONTINUOUS
  8
1
 10
100.542
 20
47.535
  0
VERTEX
  6
CONTINUOUS
  8
1
 10
100.545
 20
47.538
  0
VERTEX
  6
CONTINUOUS
  8
1
 10
100.547
 20
47.541
  0
VERTEX
  6
CONTINUOUS
  8
1
 10
100.548
 20
47.543
  0
VERTEX
  6
CONTINUOUS
  8
1
 10
100.551
 20
47.545
  0
VERTEX
  6
CONTINUOUS
  8
1
 10
100.553
 20
47.547
  0
VERTEX
  6
CONTINUOUS
  8
1
 10
100.556
 20
47.549
  0
VERTEX
  6
CONTINUOUS
  8
1
 10
100.558
 20
47.552
  0
VERTEX
  6
CONTINUOUS
  8
1
 10
100.560
 20
47.554
  0
VERTEX
  6
CONTINUOUS
  8
1
 10
100.562
 20
47.557
  0
VERTEX
  6
CONTINUOUS
  8
1
 10
100.565
 20
47.559
  0
VERTEX
  6
CONTINUOUS
  8
1
 10
100.567
 20
47.561
  0
VERTEX
  6
CONTINUOUS
  8
1
 10
100.569
 20
47.565
  0
VERTEX
  6
CONTINUOUS
  8
1
 10
100.571
 20
47.567
  0
VERTEX
  6
CONTINUOUS
  8
1
 10
100.574
 20
47.569
  0
VERTEX
  6
CONTINUOUS
  8
1
 10
100.575
 20
47.572
  0
VERTEX
  6
CONTINUOUS
  8
1
 10
100.578
 20
47.575
  0
VERTEX
  6
CONTINUOUS
  8
1
 10
100.580
 20
47.577
  0
VERTEX
  6
CONTINUOUS
  8
1
 10
100.582
 20
47.581
  0
VERTEX
  6
CONTINUOUS
  8
1
 10
100.584
 20
47.583
  0
VERTEX
  6
CONTINUOUS
  8
1
 10
100.585
 20
47.585
  0
VERTEX
  6
CONTINUOUS
  8
1
 10
100.588
 20
47.588
  0
VERTEX
  6
CONTINUOUS
  8
1
 10
100.590
 20
47.591
  0
VERTEX
  6
CONTINUOUS
  8
1
 10
100.592
 20
47.594
  0
VERTEX
  6
CONTINUOUS
  8
1
 10
100.593
 20
47.597
  0
VERTEX
  6
CONTINUOUS
  8
1
 10
100.596
 20
47.600
  0
VERTEX
  6
CONTINUOUS
  8
1
 10
100.598
 20
47.602
  0
VERTEX
  6
CONTINUOUS
  8
1
 10
100.600
 20
47.606
  0
VERTEX
  6
CONTINUOUS
  8
1
 10
100.601
 20
47.609
  0
VERTEX
  6
CONTINUOUS
  8
1
 10
100.603
 20
47.612
  0
VERTEX
  6
CONTINUOUS
  8
1
 10
100.605
 20
47.615
  0
VERTEX
  6
CONTINUOUS
  8
1
 10
100.606
 20
47.617
  0
VERTEX
  6
CONTINUOUS
  8
1
 10
100.608
 20
47.621
  0
VERTEX
  6
CONTINUOUS
  8
1
 10
100.610
 20
47.623
  0
VERTEX
  6
CONTINUOUS
  8
1
 10
100.612
 20
47.627
  0
VERTEX
  6
CONTINUOUS
  8
1
 10
100.613
 20
47.629
  0
VERTEX
  6
CONTINUOUS
  8
1
 10
100.614
 20
47.633
  0
VERTEX
  6
CONTINUOUS
  8
1
 10
100.616
 20
47.636
  0
VERTEX
  6
CONTINUOUS
  8
1
 10
100.618
 20
47.639
  0
VERTEX
  6
CONTINUOUS
  8
1
 10
100.619
 20
47.642
  0
VERTEX
  6
CONTINUOUS
  8
1
 10
100.620
 20
47.646
  0
VERTEX
  6
CONTINUOUS
  8
1
 10
100.622
 20
47.649
  0
VERTEX
  6
CONTINUOUS
  8
1
 10
100.623
 20
47.652
  0
VERTEX
  6
CONTINUOUS
  8
1
 10
100.625
 20
47.655
  0
VERTEX
  6
CONTINUOUS
  8
1
 10
100.626
 20
47.658
  0
VERTEX
  6
CONTINUOUS
  8
1
 10
100.627
 20
47.662
  0
VERTEX
  6
CONTINUOUS
  8
1
 10
100.629
 20
47.664
  0
VERTEX
  6
CONTINUOUS
  8
1
 10
100.629
 20
47.667
  0
VERTEX
  6
CONTINUOUS
  8
1
 10
100.630
 20
47.670
  0
VERTEX
  6
CONTINUOUS
  8
1
 10
100.632
 20
47.674
  0
VERTEX
  6
CONTINUOUS
  8
1
 10
100.633
 20
47.677
  0
VERTEX
  6
CONTINUOUS
  8
1
 10
100.633
 20
47.680
  0
VERTEX
  6
CONTINUOUS
  8
1
 10
100.635
 20
47.684
  0
VERTEX
  6
CONTINUOUS
  8
1
 10
100.636
 20
47.687
  0
VERTEX
  6
CONTINUOUS
  8
1
 10
100.636
 20
47.690
  0
VERTEX
  6
CONTINUOUS
  8
1
 10
100.637
 20
47.693
  0
VERTEX
  6
CONTINUOUS
  8
1
 10
100.638
 20
47.696
  0
VERTEX
  6
CONTINUOUS
  8
1
 10
100.638
 20
47.699
  0
VERTEX
  6
CONTINUOUS
  8
1
 10
100.640
 20
47.702
  0
VERTEX
  6
CONTINUOUS
  8
1
 10
100.640
 20
47.705
  0
VERTEX
  6
CONTINUOUS
  8
1
 10
100.642
 20
47.709
  0
VERTEX
  6
CONTINUOUS
  8
1
 10
100.642
 20
47.711
  0
VERTEX
  6
CONTINUOUS
  8
1
 10
100.642
 20
47.714
  0
VERTEX
  6
CONTINUOUS
  8
1
 10
100.642
 20
47.718
  0
VERTEX
  6
CONTINUOUS
  8
1
 10
100.643
 20
47.721
  0
VERTEX
  6
CONTINUOUS
  8
1
 10
100.643
 20
47.724
  0
VERTEX
  6
CONTINUOUS
  8
1
 10
100.644
 20
47.727
  0
VERTEX
  6
CONTINUOUS
  8
1
 10
100.645
 20
47.730
  0
VERTEX
  6
CONTINUOUS
  8
1
 10
100.645
 20
47.733
  0
VERTEX
  6
CONTINUOUS
  8
1
 10
100.645
 20
47.736
  0
VERTEX
  6
CONTINUOUS
  8
1
 10
100.645
 20
47.739
  0
VERTEX
  6
CONTINUOUS
  8
1
 10
100.646
 20
47.742
  0
VERTEX
  6
CONTINUOUS
  8
1
 10
100.645
 20
47.745
  0
VERTEX
  6
CONTINUOUS
  8
1
 10
100.646
 20
47.748
  0
VERTEX
  6
CONTINUOUS
  8
1
 10
100.646
 20
47.750
  0
VERTEX
  6
CONTINUOUS
  8
1
 10
100.646
 20
47.754
  0
VERTEX
  6
CONTINUOUS
  8
1
 10
100.646
 20
47.756
  0
VERTEX
  6
CONTINUOUS
  8
1
 10
100.645
 20
47.760
  0
VERTEX
  6
CONTINUOUS
  8
1
 10
100.646
 20
47.762
  0
VERTEX
  6
CONTINUOUS
  8
1
 10
100.645
 20
47.765
  0
VERTEX
  6
CONTINUOUS
  8
1
 10
100.645
 20
47.767
  0
VERTEX
  6
CONTINUOUS
  8
1
 10
100.645
 20
47.770
  0
VERTEX
  6
CONTINUOUS
  8
1
 10
100.645
 20
47.773
  0
VERTEX
  6
CONTINUOUS
  8
1
 10
100.644
 20
47.775
  0
VERTEX
  6
CONTINUOUS
  8
1
 10
100.644
 20
47.778
  0
VERTEX
  6
CONTINUOUS
  8
1
 10
100.644
 20
47.780
  0
VERTEX
  6
CONTINUOUS
  8
1
 10
100.643
 20
47.783
  0
VERTEX
  6
CONTINUOUS
  8
1
 10
100.643
 20
47.785
  0
VERTEX
  6
CONTINUOUS
  8
1
 10
100.642
 20
47.788
  0
VERTEX
  6
CONTINUOUS
  8
1
 10
100.641
 20
47.791
  0
VERTEX
  6
CONTINUOUS
  8
1
 10
100.641
 20
47.792
  0
VERTEX
  6
CONTINUOUS
  8
1
 10
100.640
 20
47.795
  0
VERTEX
  6
CONTINUOUS
  8
1
 10
100.640
 20
47.798
  0
VERTEX
  6
CONTINUOUS
  8
1
 10
100.638
 20
47.799
  0
VERTEX
  6
CONTINUOUS
  8
1
 10
100.638
 20
47.802
  0
VERTEX
  6
CONTINUOUS
  8
1
 10
100.637
 20
47.804
  0
VERTEX
  6
CONTINUOUS
  8
1
 10
100.637
 20
47.806
  0
VERTEX
  6
CONTINUOUS
  8
1
 10
100.635
 20
47.808
  0
VERTEX
  6
CONTINUOUS
  8
1
 10
100.635
 20
47.811
  0
VERTEX
  6
CONTINUOUS
  8
1
 10
100.633
 20
47.813
  0
VERTEX
  6
CONTINUOUS
  8
1
 10
100.632
 20
47.815
  0
VERTEX
  6
CONTINUOUS
  8
1
 10
100.631
 20
47.816
  0
VERTEX
  6
CONTINUOUS
  8
1
 10
100.631
 20
47.818
  0
VERTEX
  6
CONTINUOUS
  8
1
 10
100.629
 20
47.820
  0
VERTEX
  6
CONTINUOUS
  8
1
 10
100.628
 20
47.822
  0
VERTEX
  6
CONTINUOUS
  8
1
 10
100.627
 20
47.823
  0
VERTEX
  6
CONTINUOUS
  8
1
 10
100.626
 20
47.825
  0
VERTEX
  6
CONTINUOUS
  8
1
 10
100.624
 20
47.827
  0
VERTEX
  6
CONTINUOUS
  8
1
 10
100.623
 20
47.829
  0
VERTEX
  6
CONTINUOUS
  8
1
 10
100.621
 20
47.830
  0
VERTEX
  6
CONTINUOUS
  8
1
 10
100.620
 20
47.832
  0
VERTEX
  6
CONTINUOUS
  8
1
 10
100.619
 20
47.834
  0
VERTEX
  6
CONTINUOUS
  8
1
 10
100.617
 20
47.835
  0
VERTEX
  6
CONTINUOUS
  8
1
 10
100.616
 20
47.837
  0
VERTEX
  6
CONTINUOUS
  8
1
 10
100.614
 20
47.838
  0
VERTEX
  6
CONTINUOUS
  8
1
 10
100.612
 20
47.839
  0
VERTEX
  6
CONTINUOUS
  8
1
 10
100.611
 20
47.840
  0
VERTEX
  6
CONTINUOUS
  8
1
 10
100.610
 20
47.841
  0
VERTEX
  6
CONTINUOUS
  8
1
 10
100.608
 20
47.842
  0
VERTEX
  6
CONTINUOUS
  8
1
 10
100.606
 20
47.843
  0
VERTEX
  6
CONTINUOUS
  8
1
 10
100.604
 20
47.844
  0
SEQEND
  0
POLYLINE
  6
CONTINUOUS
  8
1
 66
     1
 70
     2
  0
VERTEX
  6
CONTINUOUS
  8
1
 10
100.124
 20
47.279
  0
VERTEX
  6
CONTINUOUS
  8
1
 10
100.125
 20
47.275
  0
VERTEX
  6
CONTINUOUS
  8
1
 10
100.128
 20
47.268
  0
VERTEX
  6
CONTINUOUS
  8
1
 10
100.131
 20
47.263
  0
VERTEX
  6
CONTINUOUS
  8
1
 10
100.133
 20
47.257
  0
VERTEX
  6
CONTINUOUS
  8
1
 10
100.137
 20
47.252
  0
VERTEX
  6
CONTINUOUS
  8
1
 10
100.139
 20
47.246
  0
VERTEX
  6
CONTINUOUS
  8
1
 10
100.143
 20
47.240
  0
VERTEX
  6
CONTINUOUS
  8
1
 10
100.147
 20
47.234
  0
VERTEX
  6
CONTINUOUS
  8
1
 10
100.150
 20
47.230
  0
VERTEX
  6
CONTINUOUS
  8
1
 10
100.154
 20
47.225
  0
VERTEX
  6
CONTINUOUS
  8
1
 10
100.158
 20
47.220
  0
VERTEX
  6
CONTINUOUS
  8
1
 10
100.161
 20
47.216
  0
VERTEX
  6
CONTINUOUS
  8
1
 10
100.166
 20
47.211
  0
VERTEX
  6
CONTINUOUS
  8
1
 10
100.170
 20
47.206
  0
VERTEX
  6
CONTINUOUS
  8
1
 10
100.174
 20
47.201
  0
VERTEX
  6
CONTINUOUS
  8
1
 10
100.178
 20
47.198
  0
VERTEX
  6
CONTINUOUS
  8
1
 10
100.182
 20
47.193
  0
VERTEX
  6
CONTINUOUS
  8
1
 10
100.187
 20
47.189
  0
VERTEX
  6
CONTINUOUS
  8
1
 10
100.191
 20
47.186
  0
VERTEX
  6
CONTINUOUS
  8
1
 10
100.196
 20
47.182
  0
VERTEX
  6
CONTINUOUS
  8
1
 10
100.200
 20
47.179
  0
VERTEX
  6
CONTINUOUS
  8
1
 10
100.205
 20
47.175
  0
VERTEX
  6
CONTINUOUS
  8
1
 10
100.210
 20
47.172
  0
VERTEX
  6
CONTINUOUS
  8
1
 10
100.216
 20
47.169
  0
VERTEX
  6
CONTINUOUS
  8
1
 10
100.221
 20
47.166
  0
VERTEX
  6
CONTINUOUS
  8
1
 10
100.226
 20
47.163
  0
VERTEX
  6
CONTINUOUS
  8
1
 10
100.232
 20
47.161
  0
VERTEX
  6
CONTINUOUS
  8
1
 10
100.236
 20
47.159
  0
VERTEX
  6
CONTINUOUS
  8
1
 10
100.242
 20
47.157
  0
VERTEX
  6
CONTINUOUS
  8
1
 10
100.247
 20
47.155
  0
VERTEX
  6
CONTINUOUS
  8
1
 10
100.253
 20
47.152
  0
VERTEX
  6
CONTINUOUS
  8
1
 10
100.259
 20
47.151
  0
VERTEX
  6
CONTINUOUS
  8
1
 10
100.264
 20
47.150
  0
VERTEX
  6
CONTINUOUS
  8
1
 10
100.270
 20
47.148
  0
VERTEX
  6
CONTINUOUS
  8
1
 10
100.276
 20
47.147
  0
VERTEX
  6
CONTINUOUS
  8
1
 10
100.283
 20
47.146
  0
VERTEX
  6
CONTINUOUS
  8
1
 10
100.288
 20
47.145
  0
VERTEX
  6
CONTINUOUS
  8
1
 10
100.294
 20
47.144
  0
VERTEX
  6
CONTINUOUS
  8
1
 10
100.301
 20
47.143
  0
VERTEX
  6
CONTINUOUS
  8
1
 10
100.306
 20
47.143
  0
VERTEX
  6
CONTINUOUS
  8
1
 10
100.313
 20
47.142
  0
VERTEX
  6
CONTINUOUS
  8
1
 10
100.320
 20
47.142
  0
VERTEX
  6
CONTINUOUS
  8
1
 10
100.326
 20
47.143
  0
VERTEX
  6
CONTINUOUS
  8
1
 10
100.333
 20
47.142
  0
VERTEX
  6
CONTINUOUS
  8
1
 10
100.339
 20
47.143
  0
VERTEX
  6
CONTINUOUS
  8
1
 10
100.345
 20
47.143
  0
VERTEX
  6
CONTINUOUS
  8
1
 10
100.352
 20
47.144
  0
VERTEX
  6
CONTINUOUS
  8
1
 10
100.358
 20
47.145
  0
VERTEX
  6
CONTINUOUS
  8
1
 10
100.366
 20
47.145
  0
VERTEX
  6
CONTINUOUS
  8
1
 10
100.372
 20
47.147
  0
VERTEX
  6
CONTINUOUS
  8
1
 10
100.379
 20
47.148
  0
VERTEX
  6
CONTINUOUS
  8
1
 10
100.386
 20
47.150
  0
VERTEX
  6
CONTINUOUS
  8
1
 10
100.392
 20
47.152
  0
VERTEX
  6
CONTINUOUS
  8
1
 10
100.399
 20
47.154
  0
VERTEX
  6
CONTINUOUS
  8
1
 10
100.407
 20
47.155
  0
VERTEX
  6
CONTINUOUS
  8
1
 10
100.414
 20
47.157
  0
VERTEX
  6
CONTINUOUS
  8
1
 10
100.420
 20
47.160
  0
VERTEX
  6
CONTINUOUS
  8
1
 10
100.427
 20
47.162
  0
VERTEX
  6
CONTINUOUS
  8
1
 10
100.434
 20
47.165
  0
VERTEX
  6
CONTINUOUS
  8
1
 10
100.442
 20
47.167
  0
VERTEX
  6
CONTINUOUS
  8
1
 10
100.449
 20
47.170
  0
VERTEX
  6
CONTINUOUS
  8
1
 10
100.455
 20
47.173
  0
VERTEX
  6
CONTINUOUS
  8
1
 10
100.463
 20
47.176
  0
VERTEX
  6
CONTINUOUS
  8
1
 10
100.470
 20
47.180
  0
VERTEX
  6
CONTINUOUS
  8
1
 10
100.477
 20
47.183
  0
VERTEX
  6
CONTINUOUS
  8
1
 10
100.484
 20
47.187
  0
VERTEX
  6
CONTINUOUS
  8
1
 10
100.491
 20
47.191
  0
VERTEX
  6
CONTINUOUS
  8
1
 10
100.499
 20
47.194
  0
VERTEX
  6
CONTINUOUS
  8
1
 10
100.506
 20
47.198
  0
VERTEX
  6
CONTINUOUS
  8
1
 10
100.513
 20
47.202
  0
VERTEX
  6
CONTINUOUS
  8
1
 10
100.520
 20
47.207
  0
VERTEX
  6
CONTINUOUS
  8
1
 10
100.527
 20
47.212
  0
VERTEX
  6
CONTINUOUS
  8
1
 10
100.534
 20
47.216
  0
VERTEX
  6
CONTINUOUS
  8
1
 10
100.542
 20
47.221
  0
VERTEX
  6
CONTINUOUS
  8
1
 10
100.548
 20
47.226
  0
VERTEX
  6
CONTINUOUS
  8
1
 10
100.556
 20
47.231
  0
VERTEX
  6
CONTINUOUS
  8
1
 10
100.563
 20
47.236
  0
VERTEX
  6
CONTINUOUS
  8
1
 10
100.570
 20
47.241
  0
VERTEX
  6
CONTINUOUS
  8
1
 10
100.576
 20
47.247
  0
VERTEX
  6
CONTINUOUS
  8
1
 10
100.584
 20
47.252
  0
VERTEX
  6
CONTINUOUS
  8
1
 10
100.591
 20
47.258
  0
VERTEX
  6
CONTINUOUS
  8
1
 10
100.598
 20
47.264
  0
VERTEX
  6
CONTINUOUS
  8
1
 10
100.604
 20
47.270
  0
VERTEX
  6
CONTINUOUS
  8
1
 10
100.612
 20
47.276
  0
VERTEX
  6
CONTINUOUS
  8
1
 10
100.619
 20
47.282
  0
VERTEX
  6
CONTINUOUS
  8
1
 10
100.626
 20
47.289
  0
VERTEX
  6
CONTINUOUS
  8
1
 10
100.632
 20
47.295
  0
VERTEX
  6
CONTINUOUS
  8
1
 10
100.639
 20
47.302
  0
VERTEX
  6
CONTINUOUS
  8
1
 10
100.646
 20
47.308
  0
VERTEX
  6
CONTINUOUS
  8
1
 10
100.652
 20
47.315
  0
VERTEX
  6
CONTINUOUS
  8
1
 10
100.659
 20
47.322
  0
VERTEX
  6
CONTINUOUS
  8
1
 10
100.666
 20
47.329
  0
VERTEX
  6
CONTINUOUS
  8
1
 10
100.672
 20
47.336
  0
VERTEX
  6
CONTINUOUS
  8
1
 10
100.679
 20
47.343
  0
VERTEX
  6
CONTINUOUS
  8
1
 10
100.685
 20
47.350
  0
VERTEX
  6
CONTINUOUS
  8
1
 10
100.692
 20
47.358
  0
VERTEX
  6
CONTINUOUS
  8
1
 10
100.697
 20
47.365
  0
VERTEX
  6
CONTINUOUS
  8
1
 10
100.704
 20
47.373
  0
VERTEX
  6
CONTINUOUS
  8
1
 10
100.711
 20
47.380
  0
VERTEX
  6
CONTINUOUS
  8
1
 10
100.717
 20
47.388
  0
VERTEX
  6
CONTINUOUS
  8
1
 10
100.723
 20
47.397
  0
VERTEX
  6
CONTINUOUS
  8
1
 10
100.729
 20
47.403
  0
VERTEX
  6
CONTINUOUS
  8
1
 10
100.735
 20
47.412
  0
VERTEX
  6
CONTINUOUS
  8
1
 10
100.741
 20
47.420
  0
VERTEX
  6
CONTINUOUS
  8
1
 10
100.746
 20
47.428
  0
VERTEX
  6
CONTINUOUS
  8
1
 10
100.752
 20
47.436
  0
VERTEX
  6
CONTINUOUS
  8
1
 10
100.758
 20
47.444
  0
VERTEX
  6
CONTINUOUS
  8
1
 10
100.763
 20
47.453
  0
VERTEX
  6
CONTINUOUS
  8
1
 10
100.769
 20
47.461
  0
VERTEX
  6
CONTINUOUS
  8
1
 10
100.774
 20
47.471
  0
VERTEX
  6
CONTINUOUS
  8
1
 10
100.780
 20
47.479
  0
VERTEX
  6
CONTINUOUS
  8
1
 10
100.785
 20
47.487
  0
VERTEX
  6
CONTINUOUS
  8
1
 10
100.790
 20
47.496
  0
VERTEX
  6
CONTINUOUS
  8
1
 10
100.795
 20
47.505
  0
VERTEX
  6
CONTINUOUS
  8
1
 10
100.800
 20
47.513
  0
VERTEX
  6
CONTINUOUS
  8
1
 10
100.805
 20
47.522
  0
VERTEX
  6
CONTINUOUS
  8
1
 10
100.810
 20
47.531
  0
VERTEX
  6
CONTINUOUS
  8
1
 10
100.814
 20
47.540
  0
VERTEX
  6
CONTINUOUS
  8
1
 10
100.820
 20
47.549
  0
VERTEX
  6
CONTINUOUS
  8
1
 10
100.824
 20
47.559
  0
VERTEX
  6
CONTINUOUS
  8
1
 10
100.829
 20
47.567
  0
VERTEX
  6
CONTINUOUS
  8
1
 10
100.833
 20
47.576
  0
VERTEX
  6
CONTINUOUS
  8
1
 10
100.837
 20
47.586
  0
VERTEX
  6
CONTINUOUS
  8
1
 10
100.841
 20
47.595
  0
VERTEX
  6
CONTINUOUS
  8
1
 10
100.845
 20
47.604
  0
VERTEX
  6
CONTINUOUS
  8
1
 10
100.850
 20
47.613
  0
VERTEX
  6
CONTINUOUS
  8
1
 10
100.852
 20
47.622
  0
VERTEX
  6
CONTINUOUS
  8
1
 10
100.857
 20
47.631
  0
VERTEX
  6
CONTINUOUS
  8
1
 10
100.861
 20
47.640
  0
VERTEX
  6
CONTINUOUS
  8
1
 10
100.864
 20
47.650
  0
VERTEX
  6
CONTINUOUS
  8
1
 10
100.867
 20
47.660
  0
VERTEX
  6
CONTINUOUS
  8
1
 10
100.871
 20
47.668
  0
VERTEX
  6
CONTINUOUS
  8
1
 10
100.874
 20
47.678
  0
VERTEX
  6
CONTINUOUS
  8
1
 10
100.877
 20
47.686
  0
VERTEX
  6
CONTINUOUS
  8
1
 10
100.880
 20
47.696
  0
VERTEX
  6
CONTINUOUS
  8
1
 10
100.883
 20
47.705
  0
VERTEX
  6
CONTINUOUS
  8
1
 10
100.885
 20
47.713
  0
SEQEND
  0
POLYLINE
  6
CONTINUOUS
  8
1
 66
     1
 70
     2
  0
VERTEX
  6
CONTINUOUS
  8
1
 10
99.763
 20
48.117
  0
VERTEX
  6
CONTINUOUS
  8
1
 10
99.756
 20
48.104
  0
VERTEX
  6
CONTINUOUS
  8
1
 10
99.743
 20
48.081
  0
VERTEX
  6
CONTINUOUS
  8
1
 10
99.730
 20
48.058
  0
VERTEX
  6
CONTINUOUS
  8
1
 10
99.717
 20
48.035
  0
VERTEX
  6
CONTINUOUS
  8
1
 10
99.705
 20
48.012
  0
VERTEX
  6
CONTINUOUS
  8
1
 10
99.693
 20
47.989
  0
VERTEX
  6
CONTINUOUS
  8
1
 10
99.682
 20
47.965
  0
VERTEX
  6
CONTINUOUS
  8
1
 10
99.669
 20
47.942
  0
VERTEX
  6
CONTINUOUS
  8
1
 10
99.658
 20
47.919
  0
VERTEX
  6
CONTINUOUS
  8
1
 10
99.648
 20
47.895
  0
VERTEX
  6
CONTINUOUS
  8
1
 10
99.637
 20
47.871
  0
VERTEX
  6
CONTINUOUS
  8
1
 10
99.627
 20
47.848
  0
VERTEX
  6
CONTINUOUS
  8
1
 10
99.616
 20
47.824
  0
VERTEX
  6
CONTINUOUS
  8
1
 10
99.606
 20
47.800
  0
VERTEX
  6
CONTINUOUS
  8
1
 10
99.597
 20
47.776
  0
VERTEX
  6
CONTINUOUS
  8
1
 10
99.587
 20
47.753
  0
VERTEX
  6
CONTINUOUS
  8
1
 10
99.578
 20
47.728
  0
VERTEX
  6
CONTINUOUS
  8
1
 10
99.569
 20
47.705
  0
VERTEX
  6
CONTINUOUS
  8
1
 10
99.560
 20
47.681
  0
VERTEX
  6
CONTINUOUS
  8
1
 10
99.552
 20
47.657
  0
VERTEX
  6
CONTINUOUS
  8
1
 10
99.544
 20
47.634
  0
VERTEX
  6
CONTINUOUS
  8
1
 10
99.536
 20
47.609
  0
VERTEX
  6
CONTINUOUS
  8
1
 10
99.530
 20
47.586
  0
VERTEX
  6
CONTINUOUS
  8
1
 10
99.523
 20
47.562
  0
VERTEX
  6
CONTINUOUS
  8
1
 10
99.515
 20
47.537
  0
VERTEX
  6
CONTINUOUS
  8
1
 10
99.509
 20
47.514
  0
VERTEX
  6
CONTINUOUS
  8
1
 10
99.503
 20
47.490
  0
VERTEX
  6
CONTINUOUS
  8
1
 10
99.497
 20
47.467
  0
VERTEX
  6
CONTINUOUS
  8
1
 10
99.491
 20
47.443
  0
VERTEX
  6
CONTINUOUS
  8
1
 10
99.486
 20
47.419
  0
VERTEX
  6
CONTINUOUS
  8
1
 10
99.482
 20
47.396
  0
VERTEX
  6
CONTINUOUS
  8
1
 10
99.477
 20
47.372
  0
VERTEX
  6
CONTINUOUS
  8
1
 10
99.472
 20
47.350
  0
VERTEX
  6
CONTINUOUS
  8
1
 10
99.468
 20
47.325
  0
VERTEX
  6
CONTINUOUS
  8
1
 10
99.465
 20
47.303
  0
VERTEX
  6
CONTINUOUS
  8
1
 10
99.461
 20
47.280
  0
VERTEX
  6
CONTINUOUS
  8
1
 10
99.458
 20
47.257
  0
VERTEX
  6
CONTINUOUS
  8
1
 10
99.455
 20
47.235
  0
VERTEX
  6
CONTINUOUS
  8
1
 10
99.453
 20
47.212
  0
VERTEX
  6
CONTINUOUS
  8
1
 10
99.451
 20
47.189
  0
VERTEX
  6
CONTINUOUS
  8
1
 10
99.449
 20
47.167
  0
VERTEX
  6
CONTINUOUS
  8
1
 10
99.447
 20
47.145
  0
VERTEX
  6
CONTINUOUS
  8
1
 10
99.447
 20
47.123
  0
VERTEX
  6
CONTINUOUS
  8
1
 10
99.445
 20
47.101
  0
VERTEX
  6
CONTINUOUS
  8
1
 10
99.445
 20
47.079
  0
VERTEX
  6
CONTINUOUS
  8
1
 10
99.445
 20
47.058
  0
VERTEX
  6
CONTINUOUS
  8
1
 10
99.445
 20
47.036
  0
VERTEX
  6
CONTINUOUS
  8
1
 10
99.446
 20
47.015
  0
VERTEX
  6
CONTINUOUS
  8
1
 10
99.447
 20
46.995
  0
VERTEX
  6
CONTINUOUS
  8
1
 10
99.448
 20
46.974
  0
VERTEX
  6
CONTINUOUS
  8
1
 10
99.449
 20
46.953
  0
VERTEX
  6
CONTINUOUS
  8
1
 10
99.451
 20
46.933
  0
VERTEX
  6
CONTINUOUS
  8
1
 10
99.452
 20
46.913
  0
VERTEX
  6
CONTINUOUS
  8
1
 10
99.455
 20
46.893
  0
VERTEX
  6
CONTINUOUS
  8
1
 10
99.459
 20
46.874
  0
VERTEX
  6
CONTINUOUS
  8
1
 10
99.461
 20
46.854
  0
VERTEX
  6
CONTINUOUS
  8
1
 10
99.464
 20
46.836
  0
VERTEX
  6
CONTINUOUS
  8
1
 10
99.468
 20
46.816
  0
VERTEX
  6
CONTINUOUS
  8
1
 10
99.472
 20
46.798
  0
VERTEX
  6
CONTINUOUS
  8
1
 10
99.476
 20
46.780
  0
VERTEX
  6
CONTINUOUS
  8
1
 10
99.482
 20
46.761
  0
VERTEX
  6
CONTINUOUS
  8
1
 10
99.486
 20
46.744
  0
VERTEX
  6
CONTINUOUS
  8
1
 10
99.492
 20
46.727
  0
VERTEX
  6
CONTINUOUS
  8
1
 10
99.497
 20
46.710
  0
VERTEX
  6
CONTINUOUS
  8
1
 10
99.503
 20
46.693
  0
VERTEX
  6
CONTINUOUS
  8
1
 10
99.509
 20
46.676
  0
VERTEX
  6
CONTINUOUS
  8
1
 10
99.515
 20
46.660
  0
VERTEX
  6
CONTINUOUS
  8
1
 10
99.522
 20
46.643
  0
VERTEX
  6
CONTINUOUS
  8
1
 10
99.529
 20
46.628
  0
VERTEX
  6
CONTINUOUS
  8
1
 10
99.537
 20
46.613
  0
VERTEX
  6
CONTINUOUS
  8
1
 10
99.544
 20
46.598
  0
VERTEX
  6
CONTINUOUS
  8
1
 10
99.552
 20
46.583
  0
VERTEX
  6
CONTINUOUS
  8
1
 10
99.561
 20
46.568
  0
VERTEX
  6
CONTINUOUS
  8
1
 10
99.569
 20
46.555
  0
VERTEX
  6
CONTINUOUS
  8
1
 10
99.578
 20
46.541
  0
VERTEX
  6
CONTINUOUS
  8
1
 10
99.587
 20
46.528
  0
VERTEX
  6
CONTINUOUS
  8
1
 10
99.597
 20
46.515
  0
VERTEX
  6
CONTINUOUS
  8
1
 10
99.605
 20
46.502
  0
VERTEX
  6
CONTINUOUS
  8
1
 10
99.616
 20
46.490
  0
VERTEX
  6
CONTINUOUS
  8
1
 10
99.626
 20
46.478
  0
VERTEX
  6
CONTINUOUS
  8
1
 10
99.637
 20
46.466
  0
VERTEX
  6
CONTINUOUS
  8
1
 10
99.647
 20
46.455
  0
VERTEX
  6
CONTINUOUS
  8
1
 10
99.659
 20
46.444
  0
VERTEX
  6
CONTINUOUS
  8
1
 10
99.670
 20
46.434
  0
VERTEX
  6
CONTINUOUS
  8
1
 10
99.681
 20
46.423
  0
VERTEX
  6
CONTINUOUS
  8
1
 10
99.693
 20
46.414
  0
VERTEX
  6
CONTINUOUS
  8
1
 10
99.705
 20
46.405
  0
VERTEX
  6
CONTINUOUS
  8
1
 10
99.717
 20
46.396
  0
VERTEX
  6
CONTINUOUS
  8
1
 10
99.730
 20
46.387
  0
VERTEX
  6
CONTINUOUS
  8
1
 10
99.742
 20
46.379
  0
VERTEX
  6
CONTINUOUS
  8
1
 10
99.755
 20
46.372
  0
VERTEX
  6
CONTINUOUS
  8
1
 10
99.768
 20
46.364
  0
VERTEX
  6
CONTINUOUS
  8
1
 10
99.782
 20
46.357
  0
VERTEX
  6
CONTINUOUS
  8
1
 10
99.795
 20
46.351
  0
VERTEX
  6
CONTINUOUS
  8
1
 10
99.809
 20
46.345
  0
VERTEX
  6
CONTINUOUS
  8
1
 10
99.823
 20
46.339
  0
VERTEX
  6
CONTINUOUS
  8
1
 10
99.837
 20
46.334
  0
VERTEX
  6
CONTINUOUS
  8
1
 10
99.852
 20
46.329
  0
VERTEX
  6
CONTINUOUS
  8
1
 10
99.867
 20
46.325
  0
VERTEX
  6
CONTINUOUS
  8
1
 10
99.881
 20
46.320
  0
VERTEX
  6
CONTINUOUS
  8
1
 10
99.897
 20
46.317
  0
VERTEX
  6
CONTINUOUS
  8
1
 10
99.912
 20
46.313
  0
VERTEX
  6
CONTINUOUS
  8
1
 10
99.928
 20
46.310
  0
VERTEX
  6
CONTINUOUS
  8
1
 10
99.943
 20
46.307
  0
VERTEX
  6
CONTINUOUS
  8
1
 10
99.959
 20
46.306
  0
VERTEX
  6
CONTINUOUS
  8
1
 10
99.975
 20
46.304
  0
VERTEX
  6
CONTINUOUS
  8
1
 10
99.991
 20
46.303
  0
VERTEX
  6
CONTINUOUS
  8
1
 10
100.008
 20
46.302
  0
VERTEX
  6
CONTINUOUS
  8
1
 10
100.023
 20
46.301
  0
VERTEX
  6
CONTINUOUS
  8
1
 10
100.041
 20
46.302
  0
VERTEX
  6
CONTINUOUS
  8
1
 10
100.057
 20
46.303
  0
VERTEX
  6
CONTINUOUS
  8
1
 10
100.074
 20
46.303
  0
VERTEX
  6
CONTINUOUS
  8
1
 10
100.091
 20
46.304
  0
VERTEX
  6
CONTINUOUS
  8
1
 10
100.108
 20
46.306
  0
VERTEX
  6
CONTINUOUS
  8
1
 10
100.125
 20
46.308
  0
VERTEX
  6
CONTINUOUS
  8
1
 10
100.143
 20
46.311
  0
VERTEX
  6
CONTINUOUS
  8
1
 10
100.160
 20
46.314
  0
VERTEX
  6
CONTINUOUS
  8
1
 10
100.178
 20
46.317
  0
VERTEX
  6
CONTINUOUS
  8
1
 10
100.195
 20
46.321
  0
VERTEX
  6
CONTINUOUS
  8
1
 10
100.212
 20
46.325
  0
VERTEX
  6
CONTINUOUS
  8
1
 10
100.230
 20
46.330
  0
VERTEX
  6
CONTINUOUS
  8
1
 10
100.249
 20
46.334
  0
VERTEX
  6
CONTINUOUS
  8
1
 10
100.266
 20
46.340
  0
VERTEX
  6
CONTINUOUS
  8
1
 10
100.284
 20
46.346
  0
VERTEX
  6
CONTINUOUS
  8
1
 10
100.303
 20
46.353
  0
VERTEX
  6
CONTINUOUS
  8
1
 10
100.320
 20
46.359
  0
VERTEX
  6
CONTINUOUS
  8
1
 10
100.339
 20
46.367
  0
VERTEX
  6
CONTINUOUS
  8
1
 10
100.358
 20
46.373
  0
VERTEX
  6
CONTINUOUS
  8
1
 10
100.376
 20
46.381
  0
VERTEX
  6
CONTINUOUS
  8
1
 10
100.394
 20
46.390
  0
VERTEX
  6
CONTINUOUS
  8
1
 10
100.412
 20
46.398
  0
VERTEX
  6
CONTINUOUS
  8
1
 10
100.430
 20
46.407
  0
VERTEX
  6
CONTINUOUS
  8
1
 10
100.450
 20
46.417
  0
VERTEX
  6
CONTINUOUS
  8
1
 10
100.468
 20
46.426
  0
VERTEX
  6
CONTINUOUS
  8
1
 10
100.486
 20
46.436
  0
VERTEX
  6
CONTINUOUS
  8
1
 10
100.505
 20
46.447
  0
VERTEX
  6
CONTINUOUS
  8
1
 10
100.523
 20
46.458
  0
VERTEX
  6
CONTINUOUS
  8
1
 10
100.542
 20
46.469
  0
VERTEX
  6
CONTINUOUS
  8
1
 10
100.561
 20
46.481
  0
VERTEX
  6
CONTINUOUS
  8
1
 10
100.579
 20
46.493
  0
VERTEX
  6
CONTINUOUS
  8
1
 10
100.598
 20
46.505
  0
VERTEX
  6
CONTINUOUS
  8
1
 10
100.615
 20
46.518
  0
VERTEX
  6
CONTINUOUS
  8
1
 10
100.634
 20
46.531
  0
VERTEX
  6
CONTINUOUS
  8
1
 10
100.653
 20
46.545
  0
VERTEX
  6
CONTINUOUS
  8
1
 10
100.671
 20
46.558
  0
VERTEX
  6
CONTINUOUS
  8
1
 10
100.689
 20
46.572
  0
VERTEX
  6
CONTINUOUS
  8
1
 10
100.707
 20
46.587
  0
VERTEX
  6
CONTINUOUS
  8
1
 10
100.725
 20
46.601
  0
VERTEX
  6
CONTINUOUS
  8
1
 10
100.744
 20
46.617
  0
VERTEX
  6
CONTINUOUS
  8
1
 10
100.761
 20
46.632
  0
VERTEX
  6
CONTINUOUS
  8
1
 10
100.779
 20
46.647
  0
VERTEX
  6
CONTINUOUS
  8
1
 10
100.797
 20
46.663
  0
VERTEX
  6
CONTINUOUS
  8
1
 10
100.815
 20
46.680
  0
VERTEX
  6
CONTINUOUS
  8
1
 10
100.833
 20
46.697
  0
VERTEX
  6
CONTINUOUS
  8
1
 10
100.850
 20
46.714
  0
VERTEX
  6
CONTINUOUS
  8
1
 10
100.868
 20
46.731
  0
VERTEX
  6
CONTINUOUS
  8
1
 10
100.884
 20
46.748
  0
VERTEX
  6
CONTINUOUS
  8
1
 10
100.902
 20
46.767
  0
VERTEX
  6
CONTINUOUS
  8
1
 10
100.919
 20
46.785
  0
VERTEX
  6
CONTINUOUS
  8
1
 10
100.936
 20
46.802
  0
VERTEX
  6
CONTINUOUS
  8
1
 10
100.953
 20
46.822
  0
VERTEX
  6
CONTINUOUS
  8
1
 10
100.970
 20
46.840
  0
VERTEX
  6
CONTINUOUS
  8
1
 10
100.986
 20
46.859
  0
VERTEX
  6
CONTINUOUS
  8
1
 10
101.002
 20
46.879
  0
VERTEX
  6
CONTINUOUS
  8
1
 10
101.018
 20
46.898
  0
VERTEX
  6
CONTINUOUS
  8
1
 10
101.036
 20
46.918
  0
VERTEX
  6
CONTINUOUS
  8
1
 10
101.051
 20
46.939
  0
VERTEX
  6
CONTINUOUS
  8
1
 10
101.067
 20
46.958
  0
VERTEX
  6
CONTINUOUS
  8
1
 10
101.082
 20
46.979
  0
VERTEX
  6
CONTINUOUS
  8
1
 10
101.098
 20
47.000
  0
VERTEX
  6
CONTINUOUS
  8
1
 10
101.113
 20
47.020
  0
VERTEX
  6
CONTINUOUS
  8
1
 10
101.128
 20
47.042
  0
VERTEX
  6
CONTINUOUS
  8
1
 10
101.143
 20
47.063
  0
VERTEX
  6
CONTINUOUS
  8
1
 10
101.158
 20
47.084
  0
VERTEX
  6
CONTINUOUS
  8
1
 10
101.172
 20
47.107
  0
VERTEX
  6
CONTINUOUS
  8
1
 10
101.186
 20
47.128
  0
VERTEX
  6
CONTINUOUS
  8
1
 10
101.200
 20
47.150
  0
VERTEX
  6
CONTINUOUS
  8
1
 10
101.214
 20
47.172
  0
VERTEX
  6
CONTINUOUS
  8
1
 10
101.228
 20
47.195
  0
VERTEX
  6
CONTINUOUS
  8
1
 10
101.241
 20
47.218
  0
VERTEX
  6
CONTINUOUS
  8
1
 10
101.254
 20
47.240
  0
VERTEX
  6
CONTINUOUS
  8
1
 10
101.267
 20
47.263
  0
VERTEX
  6
CONTINUOUS
  8
1
 10
101.280
 20
47.286
  0
VERTEX
  6
CONTINUOUS
  8
1
 10
101.293
 20
47.309
  0
VERTEX
  6
CONTINUOUS
  8
1
 10
101.305
 20
47.332
  0
VERTEX
  6
CONTINUOUS
  8
1
 10
101.317
 20
47.355
  0
VERTEX
  6
CONTINUOUS
  8
1
 10
101.328
 20
47.379
  0
VERTEX
  6
CONTINUOUS
  8
1
 10
101.341
 20
47.402
  0
VERTEX
  6
CONTINUOUS
  8
1
 10
101.352
 20
47.425
  0
VERTEX
  6
CONTINUOUS
  8
1
 10
101.362
 20
47.449
  0
VERTEX
  6
CONTINUOUS
  8
1
 10
101.373
 20
47.473
  0
VERTEX
  6
CONTINUOUS
  8
1
 10
101.383
 20
47.496
  0
VERTEX
  6
CONTINUOUS
  8
1
 10
101.394
 20
47.520
  0
VERTEX
  6
CONTINUOUS
  8
1
 10
101.404
 20
47.544
  0
VERTEX
  6
CONTINUOUS
  8
1
 10
101.413
 20
47.568
  0
VERTEX
  6
CONTINUOUS
  8
1
 10
101.423
 20
47.591
  0
VERTEX
  6
CONTINUOUS
  8
1
 10
101.432
 20
47.616
  0
VERTEX
  6
CONTINUOUS
  8
1
 10
101.441
 20
47.639
  0
VERTEX
  6
CONTINUOUS
  8
1
 10
101.450
 20
47.663
  0
VERTEX
  6
CONTINUOUS
  8
1
 10
101.458
 20
47.687
  0
VERTEX
  6
CONTINUOUS
  8
1
 10
101.466
 20
47.710
  0
VERTEX
  6
CONTINUOUS
  8
1
 10
101.474
 20
47.735
  0
VERTEX
  6
CONTINUOUS
  8
1
 10
101.480
 20
47.758
  0
VERTEX
  6
CONTINUOUS
  8
1
 10
101.487
 20
47.782
  0
VERTEX
  6
CONTINUOUS
  8
1
 10
101.495
 20
47.807
  0
VERTEX
  6
CONTINUOUS
  8
1
 10
101.501
 20
47.830
  0
VERTEX
  6
CONTINUOUS
  8
1
 10
101.507
 20
47.854
  0
VERTEX
  6
CONTINUOUS
  8
1
 10
101.513
 20
47.877
  0
VERTEX
  6
CONTINUOUS
  8
1
 10
101.519
 20
47.901
  0
VERTEX
  6
CONTINUOUS
  8
1
 10
101.524
 20
47.925
  0
VERTEX
  6
CONTINUOUS
  8
1
 10
101.529
 20
47.949
  0
VERTEX
  6
CONTINUOUS
  8
1
 10
101.533
 20
47.972
  0
VERTEX
  6
CONTINUOUS
  8
1
 10
101.538
 20
47.994
  0
VERTEX
  6
CONTINUOUS
  8
1
 10
101.542
 20
48.019
  0
VERTEX
  6
CONTINUOUS
  8
1
 10
101.545
 20
48.041
  0
VERTEX
  6
CONTINUOUS
  8
1
 10
101.549
 20
48.064
  0
VERTEX
  6
CONTINUOUS
  8
1
 10
101.552
 20
48.087
  0
VERTEX
  6
CONTINUOUS
  8
1
 10
101.555
 20
48.109
  0
VERTEX
  6
CONTINUOUS
  8
1
 10
101.557
 20
48.132
  0
VERTEX
  6
CONTINUOUS
  8
1
 10
101.559
 20
48.155
  0
VERTEX
  6
CONTINUOUS
  8
1
 10
101.561
 20
48.177
  0
VERTEX
  6
CONTINUOUS
  8
1
 10
101.563
 20
48.199
  0
VERTEX
  6
CONTINUOUS
  8
1
 10
101.563
 20
48.221
  0
VERTEX
  6
CONTINUOUS
  8
1
 10
101.565
 20
48.243
  0
VERTEX
  6
CONTINUOUS
  8
1
 10
101.565
 20
48.265
  0
VERTEX
  6
CONTINUOUS
  8
1
 10
101.565
 20
48.284
  0
SEQEND
  0
LINE
  6
CONTINUOUS
  8
1
 10
99.072
 20
46.767
 11
99.778
 21
46.359
  0
LINE
  6
CONTINUOUS
  8
1
 10
99.025
 20
46.794
 11
99.072
 21
46.767
  0
LINE
  6
CONTINUOUS
  8
1
 10
101.285
 20
49.106
 11
100.873
 21
47.673
  0
POLYLINE
  6
CONTINUOUS
  8
1
 66
     1
 70
     2
  0
VERTEX
  6
CONTINUOUS
  8
1
 10
98.800
 20
47.915
  0
VERTEX
  6
CONTINUOUS
  8
1
 10
98.796
 20
47.898
  0
VERTEX
  6
CONTINUOUS
  8
1
 10
98.790
 20
47.875
  0
VERTEX
  6
CONTINUOUS
  8
1
 10
98.784
 20
47.851
  0
VERTEX
  6
CONTINUOUS
  8
1
 10
98.779
 20
47.827
  0
VERTEX
  6
CONTINUOUS
  8
1
 10
98.775
 20
47.804
  0
VERTEX
  6
CONTINUOUS
  8
1
 10
98.770
 20
47.780
  0
VERTEX
  6
CONTINUOUS
  8
1
 10
98.765
 20
47.758
  0
VERTEX
  6
CONTINUOUS
  8
1
 10
98.761
 20
47.733
  0
VERTEX
  6
CONTINUOUS
  8
1
 10
98.758
 20
47.711
  0
VERTEX
  6
CONTINUOUS
  8
1
 10
98.754
 20
47.688
  0
VERTEX
  6
CONTINUOUS
  8
1
 10
98.751
 20
47.665
  0
VERTEX
  6
CONTINUOUS
  8
1
 10
98.748
 20
47.643
  0
VERTEX
  6
CONTINUOUS
  8
1
 10
98.746
 20
47.620
  0
VERTEX
  6
CONTINUOUS
  8
1
 10
98.744
 20
47.597
  0
VERTEX
  6
CONTINUOUS
  8
1
 10
98.742
 20
47.575
  0
VERTEX
  6
CONTINUOUS
  8
1
 10
98.740
 20
47.553
  0
VERTEX
  6
CONTINUOUS
  8
1
 10
98.740
 20
47.531
  0
VERTEX
  6
CONTINUOUS
  8
1
 10
98.738
 20
47.509
  0
VERTEX
  6
CONTINUOUS
  8
1
 10
98.738
 20
47.487
  0
VERTEX
  6
CONTINUOUS
  8
1
 10
98.738
 20
47.466
  0
VERTEX
  6
CONTINUOUS
  8
1
 10
98.738
 20
47.444
  0
VERTEX
  6
CONTINUOUS
  8
1
 10
98.739
 20
47.423
  0
VERTEX
  6
CONTINUOUS
  8
1
 10
98.740
 20
47.403
  0
VERTEX
  6
CONTINUOUS
  8
1
 10
98.741
 20
47.382
  0
VERTEX
  6
CONTINUOUS
  8
1
 10
98.742
 20
47.361
  0
VERTEX
  6
CONTINUOUS
  8
1
 10
98.744
 20
47.341
  0
VERTEX
  6
CONTINUOUS
  8
1
 10
98.745
 20
47.321
  0
VERTEX
  6
CONTINUOUS
  8
1
 10
98.748
 20
47.301
  0
VERTEX
  6
CONTINUOUS
  8
1
 10
98.752
 20
47.282
  0
VERTEX
  6
CONTINUOUS
  8
1
 10
98.754
 20
47.262
  0
VERTEX
  6
CONTINUOUS
  8
1
 10
98.757
 20
47.244
  0
VERTEX
  6
CONTINUOUS
  8
1
 10
98.761
 20
47.224
  0
VERTEX
  6
CONTINUOUS
  8
1
 10
98.765
 20
47.206
  0
VERTEX
  6
CONTINUOUS
  8
1
 10
98.769
 20
47.188
  0
VERTEX
  6
CONTINUOUS
  8
1
 10
98.775
 20
47.169
  0
VERTEX
  6
CONTINUOUS
  8
1
 10
98.779
 20
47.152
  0
VERTEX
  6
CONTINUOUS
  8
1
 10
98.785
 20
47.135
  0
VERTEX
  6
CONTINUOUS
  8
1
 10
98.790
 20
47.118
  0
VERTEX
  6
CONTINUOUS
  8
1
 10
98.796
 20
47.101
  0
VERTEX
  6
CONTINUOUS
  8
1
 10
98.802
 20
47.084
  0
VERTEX
  6
CONTINUOUS
  8
1
 10
98.808
 20
47.068
  0
VERTEX
  6
CONTINUOUS
  8
1
 10
98.815
 20
47.051
  0
VERTEX
  6
CONTINUOUS
  8
1
 10
98.822
 20
47.036
  0
VERTEX
  6
CONTINUOUS
  8
1
 10
98.830
 20
47.021
  0
VERTEX
  6
CONTINUOUS
  8
1
 10
98.837
 20
47.006
  0
VERTEX
  6
CONTINUOUS
  8
1
 10
98.845
 20
46.991
  0
VERTEX
  6
CONTINUOUS
  8
1
 10
98.854
 20
46.976
  0
VERTEX
  6
CONTINUOUS
  8
1
 10
98.862
 20
46.963
  0
VERTEX
  6
CONTINUOUS
  8
1
 10
98.871
 20
46.949
  0
VERTEX
  6
CONTINUOUS
  8
1
 10
98.880
 20
46.936
  0
VERTEX
  6
CONTINUOUS
  8
1
 10
98.890
 20
46.923
  0
VERTEX
  6
CONTINUOUS
  8
1
 10
98.898
 20
46.910
  0
VERTEX
  6
CONTINUOUS
  8
1
 10
98.909
 20
46.898
  0
VERTEX
  6
CONTINUOUS
  8
1
 10
98.919
 20
46.886
  0
VERTEX
  6
CONTINUOUS
  8
1
 10
98.930
 20
46.874
  0
VERTEX
  6
CONTINUOUS
  8
1
 10
98.940
 20
46.863
  0
VERTEX
  6
CONTINUOUS
  8
1
 10
98.952
 20
46.852
  0
VERTEX
  6
CONTINUOUS
  8
1
 10
98.963
 20
46.842
  0
VERTEX
  6
CONTINUOUS
  8
1
 10
98.974
 20
46.831
  0
VERTEX
  6
CONTINUOUS
  8
1
 10
98.986
 20
46.822
  0
VERTEX
  6
CONTINUOUS
  8
1
 10
98.998
 20
46.813
  0
VERTEX
  6
CONTINUOUS
  8
1
 10
99.010
 20
46.804
  0
VERTEX
  6
CONTINUOUS
  8
1
 10
99.025
 20
46.794
  0
SEQEND
  0
LINE
  6
CONTINUOUS
  8
1
 10
102.269
 20
49.674
 11
102.269
 21
49.919
  0
POLYLINE
  6
CONTINUOUS
  8
1
 66
     1
 70
     2
  0
VERTEX
  6
CONTINUOUS
  8
1
 10
101.565
 20
48.284
  0
VERTEX
  6
CONTINUOUS
  8
1
 10
101.565
 20
48.286
  0
VERTEX
  6
CONTINUOUS
  8
1
 10
101.565
 20
48.308
  0
VERTEX
  6
CONTINUOUS
  8
1
 10
101.564
 20
48.329
  0
VERTEX
  6
CONTINUOUS
  8
1
 10
101.563
 20
48.349
  0
VERTEX
  6
CONTINUOUS
  8
1
 10
101.562
 20
48.370
  0
VERTEX
  6
CONTINUOUS
  8
1
 10
101.561
 20
48.391
  0
VERTEX
  6
CONTINUOUS
  8
1
 10
101.559
 20
48.411
  0
VERTEX
  6
CONTINUOUS
  8
1
 10
101.558
 20
48.431
  0
VERTEX
  6
CONTINUOUS
  8
1
 10
101.555
 20
48.451
  0
VERTEX
  6
CONTINUOUS
  8
1
 10
101.551
 20
48.470
  0
VERTEX
  6
CONTINUOUS
  8
1
 10
101.549
 20
48.490
  0
VERTEX
  6
CONTINUOUS
  8
1
 10
101.546
 20
48.508
  0
VERTEX
  6
CONTINUOUS
  8
1
 10
101.542
 20
48.528
  0
VERTEX
  6
CONTINUOUS
  8
1
 10
101.538
 20
48.546
  0
VERTEX
  6
CONTINUOUS
  8
1
 10
101.534
 20
48.564
  0
VERTEX
  6
CONTINUOUS
  8
1
 10
101.529
 20
48.582
  0
VERTEX
  6
CONTINUOUS
  8
1
 10
101.524
 20
48.600
  0
VERTEX
  6
CONTINUOUS
  8
1
 10
101.518
 20
48.617
  0
VERTEX
  6
CONTINUOUS
  8
1
 10
101.513
 20
48.634
  0
VERTEX
  6
CONTINUOUS
  8
1
 10
101.507
 20
48.651
  0
VERTEX
  6
CONTINUOUS
  8
1
 10
101.501
 20
48.668
  0
VERTEX
  6
CONTINUOUS
  8
1
 10
101.495
 20
48.684
  0
VERTEX
  6
CONTINUOUS
  8
1
 10
101.488
 20
48.701
  0
VERTEX
  6
CONTINUOUS
  8
1
 10
101.481
 20
48.716
  0
VERTEX
  6
CONTINUOUS
  8
1
 10
101.473
 20
48.731
  0
VERTEX
  6
CONTINUOUS
  8
1
 10
101.466
 20
48.746
  0
VERTEX
  6
CONTINUOUS
  8
1
 10
101.458
 20
48.761
  0
VERTEX
  6
CONTINUOUS
  8
1
 10
101.449
 20
48.776
  0
VERTEX
  6
CONTINUOUS
  8
1
 10
101.441
 20
48.789
  0
VERTEX
  6
CONTINUOUS
  8
1
 10
101.432
 20
48.803
  0
VERTEX
  6
CONTINUOUS
  8
1
 10
101.423
 20
48.816
  0
VERTEX
  6
CONTINUOUS
  8
1
 10
101.413
 20
48.829
  0
VERTEX
  6
CONTINUOUS
  8
1
 10
101.405
 20
48.842
  0
VERTEX
  6
CONTINUOUS
  8
1
 10
101.394
 20
48.854
  0
VERTEX
  6
CONTINUOUS
  8
1
 10
101.384
 20
48.866
  0
VERTEX
  6
CONTINUOUS
  8
1
 10
101.373
 20
48.878
  0
VERTEX
  6
CONTINUOUS
  8
1
 10
101.363
 20
48.889
  0
VERTEX
  6
CONTINUOUS
  8
1
 10
101.351
 20
48.900
  0
VERTEX
  6
CONTINUOUS
  8
1
 10
101.340
 20
48.910
  0
VERTEX
  6
CONTINUOUS
  8
1
 10
101.329
 20
48.921
  0
VERTEX
  6
CONTINUOUS
  8
1
 10
101.317
 20
48.930
  0
VERTEX
  6
CONTINUOUS
  8
1
 10
101.305
 20
48.939
  0
VERTEX
  6
CONTINUOUS
  8
1
 10
101.293
 20
48.948
  0
VERTEX
  6
CONTINUOUS
  8
1
 10
101.280
 20
48.957
  0
VERTEX
  6
CONTINUOUS
  8
1
 10
101.268
 20
48.965
  0
VERTEX
  6
CONTINUOUS
  8
1
 10
101.252
 20
48.974
  0
SEQEND
  0
LINE
  6
CONTINUOUS
  8
1
 10
85.059
 20
47.198
 11
77.680
 21
51.459
  0
LINE
  6
CONTINUOUS
  8
1
 10
76.972
 20
51.051
 11
85.047
 21
46.388
  0
LINE
  6
CONTINUOUS
  8
1
 10
75.565
 20
49.414
 11
84.238
 21
44.407
  0
LINE
  6
CONTINUOUS
  8
1
 10
83.531
 20
43.999
 11
75.565
 21
48.598
  0
LINE
  6
CONTINUOUS
  8
1
 10
75.565
 20
47.781
 11
82.824
 21
43.590
  0
LINE
  6
CONTINUOUS
  8
1
 10
85.021
 20
45.592
 11
76.265
 21
50.642
  0
LINE
  6
CONTINUOUS
  8
1
 10
75.565
 20
50.238
 11
75.565
 21
49.422
  0
LINE
  6
CONTINUOUS
  8
1
 10
75.565
 20
50.238
 11
76.272
 21
50.646
  0
LINE
  6
CONTINUOUS
  8
1
 10
75.565
 20
48.605
 11
75.565
 21
47.789
  0
LINE
  6
CONTINUOUS
  8
1
 10
77.686
 20
51.463
 11
76.979
 21
51.054
  0
LINE
  6
CONTINUOUS
  8
1
 10
76.976
 20
50.232
 11
77.333
 21
50.850
  0
LINE
  6
CONTINUOUS
  8
1
 10
76.269
 20
49.007
 11
75.919
 21
48.401
  0
LINE
  6
CONTINUOUS
  8
1
 10
88.423
 20
183.608
 11
94.848
 21
179.899
  0
LINE
  6
CONTINUOUS
  8
1
 10
94.848
 20
179.899
 11
94.141
 21
179.490
  0
LINE
  6
CONTINUOUS
  8
1
 10
94.141
 20
179.490
 11
87.716
 21
183.200
  0
LINE
  6
CONTINUOUS
  8
1
 10
79.999
 20
188.472
 11
79.292
 21
188.063
  0
LINE
  6
CONTINUOUS
  8
1
 10
79.292
 20
188.063
 11
79.292
 21
187.263
  0
LINE
  6
CONTINUOUS
  8
1
 10
87.749
 20
183.181
 11
87.716
 21
182.400
  0
LINE
  6
CONTINUOUS
  8
1
 10
88.423
 20
183.608
 11
88.373
 21
183.567
  0
LINE
  6
CONTINUOUS
  8
1
 10
88.373
 20
183.567
 11
88.310
 21
183.504
  0
LINE
  6
CONTINUOUS
  8
1
 10
88.310
 20
183.504
 11
88.236
 21
183.429
  0
LINE
  6
CONTINUOUS
  8
1
 10
88.236
 20
183.429
 11
88.152
 21
183.350
  0
LINE
  6
CONTINUOUS
  8
1
 10
88.152
 20
183.350
 11
88.059
 21
183.276
  0
LINE
  6
CONTINUOUS
  8
1
 10
88.059
 20
183.276
 11
87.960
 21
183.218
  0
LINE
  6
CONTINUOUS
  8
1
 10
87.960
 20
183.218
 11
87.856
 21
183.183
  0
LINE
  6
CONTINUOUS
  8
1
 10
87.856
 20
183.183
 11
87.749
 21
183.181
  0
LINE
  6
CONTINUOUS
  8
1
 10
94.848
 20
179.899
 11
94.848
 21
179.098
  0
POLYLINE
  6
CONTINUOUS
  8
1
 66
     1
 70
     2
  0
VERTEX
  6
CONTINUOUS
  8
1
 10
94.848
 20
179.098
  0
VERTEX
  6
CONTINUOUS
  8
1
 10
94.865
 20
179.075
  0
VERTEX
  6
CONTINUOUS
  8
1
 10
94.883
 20
179.052
  0
VERTEX
  6
CONTINUOUS
  8
1
 10
94.903
 20
179.030
  0
VERTEX
  6
CONTINUOUS
  8
1
 10
94.924
 20
179.009
  0
VERTEX
  6
CONTINUOUS
  8
1
 10
94.946
 20
178.990
  0
VERTEX
  6
CONTINUOUS
  8
1
 10
94.969
 20
178.970
  0
VERTEX
  6
CONTINUOUS
  8
1
 10
94.993
 20
178.953
  0
VERTEX
  6
CONTINUOUS
  8
1
 10
95.019
 20
178.935
  0
VERTEX
  6
CONTINUOUS
  8
1
 10
95.046
 20
178.919
  0
VERTEX
  6
CONTINUOUS
  8
1
 10
95.074
 20
178.904
  0
VERTEX
  6
CONTINUOUS
  8
1
 10
95.103
 20
178.889
  0
VERTEX
  6
CONTINUOUS
  8
1
 10
95.133
 20
178.876
  0
VERTEX
  6
CONTINUOUS
  8
1
 10
95.165
 20
178.863
  0
VERTEX
  6
CONTINUOUS
  8
1
 10
95.198
 20
178.851
  0
VERTEX
  6
CONTINUOUS
  8
1
 10
95.232
 20
178.841
  0
VERTEX
  6
CONTINUOUS
  8
1
 10
95.267
 20
178.831
  0
VERTEX
  6
CONTINUOUS
  8
1
 10
95.303
 20
178.822
  0
VERTEX
  6
CONTINUOUS
  8
1
 10
95.340
 20
178.815
  0
VERTEX
  6
CONTINUOUS
  8
1
 10
95.378
 20
178.807
  0
VERTEX
  6
CONTINUOUS
  8
1
 10
95.417
 20
178.802
  0
VERTEX
  6
CONTINUOUS
  8
1
 10
95.457
 20
178.796
  0
VERTEX
  6
CONTINUOUS
  8
1
 10
95.499
 20
178.793
  0
VERTEX
  6
CONTINUOUS
  8
1
 10
95.541
 20
178.789
  0
VERTEX
  6
CONTINUOUS
  8
1
 10
95.586
 20
178.787
  0
VERTEX
  6
CONTINUOUS
  8
1
 10
95.629
 20
178.785
  0
VERTEX
  6
CONTINUOUS
  8
1
 10
95.675
 20
178.786
  0
VERTEX
  6
CONTINUOUS
  8
1
 10
95.721
 20
178.786
  0
VERTEX
  6
CONTINUOUS
  8
1
 10
95.769
 20
178.788
  0
VERTEX
  6
CONTINUOUS
  8
1
 10
95.818
 20
178.791
  0
VERTEX
  6
CONTINUOUS
  8
1
 10
95.866
 20
178.794
  0
VERTEX
  6
CONTINUOUS
  8
1
 10
95.917
 20
178.799
  0
VERTEX
  6
CONTINUOUS
  8
1
 10
95.968
 20
178.804
  0
VERTEX
  6
CONTINUOUS
  8
1
 10
96.021
 20
178.810
  0
VERTEX
  6
CONTINUOUS
  8
1
 10
96.073
 20
178.817
  0
VERTEX
  6
CONTINUOUS
  8
1
 10
96.127
 20
178.825
  0
VERTEX
  6
CONTINUOUS
  8
1
 10
96.182
 20
178.836
  0
VERTEX
  6
CONTINUOUS
  8
1
 10
96.238
 20
178.845
  0
VERTEX
  6
CONTINUOUS
  8
1
 10
96.294
 20
178.856
  0
VERTEX
  6
CONTINUOUS
  8
1
 10
96.351
 20
178.869
  0
VERTEX
  6
CONTINUOUS
  8
1
 10
96.410
 20
178.881
  0
VERTEX
  6
CONTINUOUS
  8
1
 10
96.468
 20
178.895
  0
VERTEX
  6
CONTINUOUS
  8
1
 10
96.527
 20
178.910
  0
VERTEX
  6
CONTINUOUS
  8
1
 10
96.588
 20
178.926
  0
VERTEX
  6
CONTINUOUS
  8
1
 10
96.649
 20
178.942
  0
VERTEX
  6
CONTINUOUS
  8
1
 10
96.711
 20
178.960
  0
VERTEX
  6
CONTINUOUS
  8
1
 10
96.773
 20
178.979
  0
VERTEX
  6
CONTINUOUS
  8
1
 10
96.835
 20
178.998
  0
VERTEX
  6
CONTINUOUS
  8
1
 10
96.899
 20
179.019
  0
VERTEX
  6
CONTINUOUS
  8
1
 10
96.964
 20
179.039
  0
VERTEX
  6
CONTINUOUS
  8
1
 10
97.028
 20
179.062
  0
VERTEX
  6
CONTINUOUS
  8
1
 10
97.093
 20
179.084
  0
VERTEX
  6
CONTINUOUS
  8
1
 10
97.159
 20
179.108
  0
VERTEX
  6
CONTINUOUS
  8
1
 10
97.226
 20
179.133
  0
VERTEX
  6
CONTINUOUS
  8
1
 10
97.293
 20
179.158
  0
VERTEX
  6
CONTINUOUS
  8
1
 10
97.361
 20
179.184
  0
VERTEX
  6
CONTINUOUS
  8
1
 10
97.428
 20
179.212
  0
VERTEX
  6
CONTINUOUS
  8
1
 10
97.496
 20
179.240
  0
VERTEX
  6
CONTINUOUS
  8
1
 10
97.565
 20
179.268
  0
VERTEX
  6
CONTINUOUS
  8
1
 10
97.635
 20
179.298
  0
VERTEX
  6
CONTINUOUS
  8
1
 10
97.704
 20
179.329
  0
VERTEX
  6
CONTINUOUS
  8
1
 10
97.775
 20
179.360
  0
VERTEX
  6
CONTINUOUS
  8
1
 10
97.845
 20
179.391
  0
VERTEX
  6
CONTINUOUS
  8
1
 10
97.916
 20
179.425
  0
VERTEX
  6
CONTINUOUS
  8
1
 10
97.986
 20
179.458
  0
VERTEX
  6
CONTINUOUS
  8
1
 10
98.057
 20
179.492
  0
VERTEX
  6
CONTINUOUS
  8
1
 10
98.129
 20
179.528
  0
VERTEX
  6
CONTINUOUS
  8
1
 10
98.201
 20
179.563
  0
VERTEX
  6
CONTINUOUS
  8
1
 10
98.273
 20
179.599
  0
VERTEX
  6
CONTINUOUS
  8
1
 10
98.346
 20
179.636
  0
VERTEX
  6
CONTINUOUS
  8
1
 10
98.418
 20
179.674
  0
VERTEX
  6
CONTINUOUS
  8
1
 10
98.490
 20
179.712
  0
VERTEX
  6
CONTINUOUS
  8
1
 10
98.563
 20
179.752
  0
VERTEX
  6
CONTINUOUS
  8
1
 10
98.635
 20
179.792
  0
VERTEX
  6
CONTINUOUS
  8
1
 10
98.709
 20
179.832
  0
VERTEX
  6
CONTINUOUS
  8
1
 10
98.781
 20
179.874
  0
VERTEX
  6
CONTINUOUS
  8
1
 10
98.855
 20
179.915
  0
VERTEX
  6
CONTINUOUS
  8
1
 10
98.927
 20
179.958
  0
VERTEX
  6
CONTINUOUS
  8
1
 10
99.000
 20
180.000
  0
VERTEX
  6
CONTINUOUS
  8
1
 10
99.073
 20
180.044
  0
VERTEX
  6
CONTINUOUS
  8
1
 10
99.146
 20
180.088
  0
VERTEX
  6
CONTINUOUS
  8
1
 10
99.219
 20
180.133
  0
VERTEX
  6
CONTINUOUS
  8
1
 10
99.292
 20
180.178
  0
VERTEX
  6
CONTINUOUS
  8
1
 10
99.365
 20
180.224
  0
VERTEX
  6
CONTINUOUS
  8
1
 10
99.437
 20
180.270
  0
VERTEX
  6
CONTINUOUS
  8
1
 10
99.509
 20
180.317
  0
VERTEX
  6
CONTINUOUS
  8
1
 10
99.581
 20
180.364
  0
VERTEX
  6
CONTINUOUS
  8
1
 10
99.654
 20
180.412
  0
VERTEX
  6
CONTINUOUS
  8
1
 10
99.725
 20
180.460
  0
VERTEX
  6
CONTINUOUS
  8
1
 10
99.796
 20
180.509
  0
VERTEX
  6
CONTINUOUS
  8
1
 10
99.868
 20
180.558
  0
VERTEX
  6
CONTINUOUS
  8
1
 10
99.939
 20
180.608
  0
VERTEX
  6
CONTINUOUS
  8
1
 10
100.009
 20
180.658
  0
VERTEX
  6
CONTINUOUS
  8
1
 10
100.079
 20
180.707
  0
VERTEX
  6
CONTINUOUS
  8
1
 10
100.150
 20
180.759
  0
VERTEX
  6
CONTINUOUS
  8
1
 10
100.219
 20
180.809
  0
VERTEX
  6
CONTINUOUS
  8
1
 10
100.288
 20
180.861
  0
VERTEX
  6
CONTINUOUS
  8
1
 10
100.357
 20
180.912
  0
VERTEX
  6
CONTINUOUS
  8
1
 10
100.425
 20
180.965
  0
VERTEX
  6
CONTINUOUS
  8
1
 10
100.493
 20
181.016
  0
VERTEX
  6
CONTINUOUS
  8
1
 10
100.561
 20
181.069
  0
VERTEX
  6
CONTINUOUS
  8
1
 10
100.627
 20
181.123
  0
VERTEX
  6
CONTINUOUS
  8
1
 10
100.694
 20
181.175
  0
VERTEX
  6
CONTINUOUS
  8
1
 10
100.759
 20
181.229
  0
VERTEX
  6
CONTINUOUS
  8
1
 10
100.825
 20
181.282
  0
VERTEX
  6
CONTINUOUS
  8
1
 10
100.889
 20
181.336
  0
VERTEX
  6
CONTINUOUS
  8
1
 10
100.954
 20
181.389
  0
VERTEX
  6
CONTINUOUS
  8
1
 10
101.017
 20
181.444
  0
VERTEX
  6
CONTINUOUS
  8
1
 10
101.080
 20
181.498
  0
VERTEX
  6
CONTINUOUS
  8
1
 10
101.143
 20
181.552
  0
VERTEX
  6
CONTINUOUS
  8
1
 10
101.203
 20
181.606
  0
VERTEX
  6
CONTINUOUS
  8
1
 10
101.264
 20
181.661
  0
VERTEX
  6
CONTINUOUS
  8
1
 10
101.325
 20
181.716
  0
VERTEX
  6
CONTINUOUS
  8
1
 10
101.384
 20
181.771
  0
VERTEX
  6
CONTINUOUS
  8
1
 10
101.442
 20
181.825
  0
VERTEX
  6
CONTINUOUS
  8
1
 10
101.500
 20
181.880
  0
VERTEX
  6
CONTINUOUS
  8
1
 10
101.557
 20
181.935
  0
VERTEX
  6
CONTINUOUS
  8
1
 10
101.613
 20
181.989
  0
VERTEX
  6
CONTINUOUS
  8
1
 10
101.669
 20
182.044
  0
VERTEX
  6
CONTINUOUS
  8
1
 10
101.724
 20
182.099
  0
VERTEX
  6
CONTINUOUS
  8
1
 10
101.777
 20
182.154
  0
VERTEX
  6
CONTINUOUS
  8
1
 10
101.830
 20
182.208
  0
VERTEX
  6
CONTINUOUS
  8
1
 10
101.883
 20
182.262
  0
VERTEX
  6
CONTINUOUS
  8
1
 10
101.933
 20
182.317
  0
VERTEX
  6
CONTINUOUS
  8
1
 10
101.984
 20
182.371
  0
VERTEX
  6
CONTINUOUS
  8
1
 10
102.033
 20
182.425
  0
VERTEX
  6
CONTINUOUS
  8
1
 10
102.081
 20
182.479
  0
VERTEX
  6
CONTINUOUS
  8
1
 10
102.128
 20
182.533
  0
VERTEX
  6
CONTINUOUS
  8
1
 10
102.175
 20
182.587
  0
VERTEX
  6
CONTINUOUS
  8
1
 10
102.220
 20
182.640
  0
VERTEX
  6
CONTINUOUS
  8
1
 10
102.264
 20
182.694
  0
VERTEX
  6
CONTINUOUS
  8
1
 10
102.308
 20
182.746
  0
VERTEX
  6
CONTINUOUS
  8
1
 10
102.350
 20
182.799
  0
VERTEX
  6
CONTINUOUS
  8
1
 10
102.392
 20
182.852
  0
VERTEX
  6
CONTINUOUS
  8
1
 10
102.431
 20
182.903
  0
VERTEX
  6
CONTINUOUS
  8
1
 10
102.471
 20
182.955
  0
VERTEX
  6
CONTINUOUS
  8
1
 10
102.509
 20
183.007
  0
VERTEX
  6
CONTINUOUS
  8
1
 10
102.545
 20
183.058
  0
VERTEX
  6
CONTINUOUS
  8
1
 10
102.581
 20
183.110
  0
VERTEX
  6
CONTINUOUS
  8
1
 10
102.616
 20
183.159
  0
VERTEX
  6
CONTINUOUS
  8
1
 10
102.650
 20
183.209
  0
VERTEX
  6
CONTINUOUS
  8
1
 10
102.682
 20
183.260
  0
VERTEX
  6
CONTINUOUS
  8
1
 10
102.714
 20
183.309
  0
VERTEX
  6
CONTINUOUS
  8
1
 10
102.744
 20
183.358
  0
VERTEX
  6
CONTINUOUS
  8
1
 10
102.772
 20
183.406
  0
VERTEX
  6
CONTINUOUS
  8
1
 10
102.801
 20
183.454
  0
VERTEX
  6
CONTINUOUS
  8
1
 10
102.828
 20
183.502
  0
VERTEX
  6
CONTINUOUS
  8
1
 10
102.853
 20
183.549
  0
VERTEX
  6
CONTINUOUS
  8
1
 10
102.877
 20
183.596
  0
VERTEX
  6
CONTINUOUS
  8
1
 10
102.900
 20
183.642
  0
VERTEX
  6
CONTINUOUS
  8
1
 10
102.922
 20
183.688
  0
VERTEX
  6
CONTINUOUS
  8
1
 10
102.942
 20
183.732
  0
VERTEX
  6
CONTINUOUS
  8
1
 10
102.962
 20
183.777
  0
VERTEX
  6
CONTINUOUS
  8
1
 10
102.980
 20
183.821
  0
VERTEX
  6
CONTINUOUS
  8
1
 10
102.997
 20
183.864
  0
VERTEX
  6
CONTINUOUS
  8
1
 10
103.013
 20
183.907
  0
VERTEX
  6
CONTINUOUS
  8
1
 10
103.027
 20
183.948
  0
VERTEX
  6
CONTINUOUS
  8
1
 10
103.040
 20
183.990
  0
VERTEX
  6
CONTINUOUS
  8
1
 10
103.052
 20
184.031
  0
VERTEX
  6
CONTINUOUS
  8
1
 10
103.063
 20
184.072
  0
VERTEX
  6
CONTINUOUS
  8
1
 10
103.072
 20
184.111
  0
VERTEX
  6
CONTINUOUS
  8
1
 10
103.081
 20
184.150
  0
VERTEX
  6
CONTINUOUS
  8
1
 10
103.087
 20
184.188
  0
VERTEX
  6
CONTINUOUS
  8
1
 10
103.093
 20
184.225
  0
VERTEX
  6
CONTINUOUS
  8
1
 10
103.097
 20
184.262
  0
VERTEX
  6
CONTINUOUS
  8
1
 10
103.100
 20
184.298
  0
VERTEX
  6
CONTINUOUS
  8
1
 10
103.102
 20
184.334
  0
VERTEX
  6
CONTINUOUS
  8
1
 10
103.103
 20
184.368
  0
VERTEX
  6
CONTINUOUS
  8
1
 10
103.102
 20
184.403
  0
VERTEX
  6
CONTINUOUS
  8
1
 10
103.100
 20
184.436
  0
VERTEX
  6
CONTINUOUS
  8
1
 10
103.097
 20
184.469
  0
VERTEX
  6
CONTINUOUS
  8
1
 10
103.092
 20
184.500
  0
VERTEX
  6
CONTINUOUS
  8
1
 10
103.086
 20
184.531
  0
VERTEX
  6
CONTINUOUS
  8
1
 10
103.079
 20
184.561
  0
VERTEX
  6
CONTINUOUS
  8
1
 10
103.071
 20
184.590
  0
VERTEX
  6
CONTINUOUS
  8
1
 10
103.061
 20
184.618
  0
VERTEX
  6
CONTINUOUS
  8
1
 10
103.050
 20
184.646
  0
VERTEX
  6
CONTINUOUS
  8
1
 10
103.038
 20
184.673
  0
VERTEX
  6
CONTINUOUS
  8
1
 10
103.025
 20
184.699
  0
VERTEX
  6
CONTINUOUS
  8
1
 10
103.010
 20
184.724
  0
VERTEX
  6
CONTINUOUS
  8
1
 10
102.994
 20
184.748
  0
VERTEX
  6
CONTINUOUS
  8
1
 10
102.977
 20
184.771
  0
VERTEX
  6
CONTINUOUS
  8
1
 10
102.959
 20
184.794
  0
VERTEX
  6
CONTINUOUS
  8
1
 10
102.939
 20
184.816
  0
VERTEX
  6
CONTINUOUS
  8
1
 10
102.918
 20
184.837
  0
VERTEX
  6
CONTINUOUS
  8
1
 10
102.896
 20
184.856
  0
VERTEX
  6
CONTINUOUS
  8
1
 10
102.873
 20
184.876
  0
VERTEX
  6
CONTINUOUS
  8
1
 10
102.849
 20
184.893
  0
VERTEX
  6
CONTINUOUS
  8
1
 10
102.823
 20
184.911
  0
VERTEX
  6
CONTINUOUS
  8
1
 10
102.796
 20
184.927
  0
VERTEX
  6
CONTINUOUS
  8
1
 10
102.768
 20
184.942
  0
VERTEX
  6
CONTINUOUS
  8
1
 10
102.739
 20
184.957
  0
VERTEX
  6
CONTINUOUS
  8
1
 10
102.709
 20
184.970
  0
VERTEX
  6
CONTINUOUS
  8
1
 10
102.677
 20
184.983
  0
VERTEX
  6
CONTINUOUS
  8
1
 10
102.644
 20
184.995
  0
VERTEX
  6
CONTINUOUS
  8
1
 10
102.610
 20
185.005
  0
VERTEX
  6
CONTINUOUS
  8
1
 10
102.575
 20
185.015
  0
VERTEX
  6
CONTINUOUS
  8
1
 10
102.539
 20
185.024
  0
VERTEX
  6
CONTINUOUS
  8
1
 10
102.502
 20
185.031
  0
VERTEX
  6
CONTINUOUS
  8
1
 10
102.464
 20
185.039
  0
VERTEX
  6
CONTINUOUS
  8
1
 10
102.425
 20
185.044
  0
VERTEX
  6
CONTINUOUS
  8
1
 10
102.385
 20
185.050
  0
VERTEX
  6
CONTINUOUS
  8
1
 10
102.343
 20
185.053
  0
VERTEX
  6
CONTINUOUS
  8
1
 10
102.301
 20
185.057
  0
VERTEX
  6
CONTINUOUS
  8
1
 10
102.256
 20
185.059
  0
VERTEX
  6
CONTINUOUS
  8
1
 10
102.213
 20
185.061
  0
VERTEX
  6
CONTINUOUS
  8
1
 10
102.167
 20
185.060
  0
VERTEX
  6
CONTINUOUS
  8
1
 10
102.121
 20
185.060
  0
VERTEX
  6
CONTINUOUS
  8
1
 10
102.073
 20
185.058
  0
VERTEX
  6
CONTINUOUS
  8
1
 10
102.024
 20
185.055
  0
VERTEX
  6
CONTINUOUS
  8
1
 10
101.976
 20
185.052
  0
VERTEX
  6
CONTINUOUS
  8
1
 10
101.925
 20
185.047
  0
VERTEX
  6
CONTINUOUS
  8
1
 10
101.874
 20
185.042
  0
VERTEX
  6
CONTINUOUS
  8
1
 10
101.821
 20
185.036
  0
VERTEX
  6
CONTINUOUS
  8
1
 10
101.769
 20
185.029
  0
VERTEX
  6
CONTINUOUS
  8
1
 10
101.715
 20
185.021
  0
VERTEX
  6
CONTINUOUS
  8
1
 10
101.660
 20
185.010
  0
VERTEX
  6
CONTINUOUS
  8
1
 10
101.604
 20
185.001
  0
VERTEX
  6
CONTINUOUS
  8
1
 10
101.548
 20
184.990
  0
VERTEX
  6
CONTINUOUS
  8
1
 10
101.491
 20
184.977
  0
VERTEX
  6
CONTINUOUS
  8
1
 10
101.432
 20
184.965
  0
VERTEX
  6
CONTINUOUS
  8
1
 10
101.374
 20
184.951
  0
VERTEX
  6
CONTINUOUS
  8
1
 10
101.315
 20
184.936
  0
VERTEX
  6
CONTINUOUS
  8
1
 10
101.254
 20
184.920
  0
VERTEX
  6
CONTINUOUS
  8
1
 10
101.193
 20
184.904
  0
VERTEX
  6
CONTINUOUS
  8
1
 10
101.131
 20
184.886
  0
VERTEX
  6
CONTINUOUS
  8
1
 10
101.069
 20
184.867
  0
VERTEX
  6
CONTINUOUS
  8
1
 10
101.007
 20
184.848
  0
VERTEX
  6
CONTINUOUS
  8
1
 10
100.943
 20
184.827
  0
VERTEX
  6
CONTINUOUS
  8
1
 10
100.878
 20
184.807
  0
VERTEX
  6
CONTINUOUS
  8
1
 10
100.814
 20
184.784
  0
VERTEX
  6
CONTINUOUS
  8
1
 10
100.749
 20
184.762
  0
VERTEX
  6
CONTINUOUS
  8
1
 10
100.683
 20
184.738
  0
VERTEX
  6
CONTINUOUS
  8
1
 10
100.616
 20
184.713
  0
VERTEX
  6
CONTINUOUS
  8
1
 10
100.549
 20
184.688
  0
VERTEX
  6
CONTINUOUS
  8
1
 10
100.481
 20
184.662
  0
VERTEX
  6
CONTINUOUS
  8
1
 10
100.414
 20
184.634
  0
VERTEX
  6
CONTINUOUS
  8
1
 10
100.346
 20
184.606
  0
VERTEX
  6
CONTINUOUS
  8
1
 10
100.277
 20
184.578
  0
VERTEX
  6
CONTINUOUS
  8
1
 10
100.207
 20
184.548
  0
VERTEX
  6
CONTINUOUS
  8
1
 10
100.138
 20
184.517
  0
VERTEX
  6
CONTINUOUS
  8
1
 10
100.067
 20
184.486
  0
VERTEX
  6
CONTINUOUS
  8
1
 10
99.997
 20
184.455
  0
VERTEX
  6
CONTINUOUS
  8
1
 10
99.926
 20
184.421
  0
VERTEX
  6
CONTINUOUS
  8
1
 10
99.856
 20
184.388
  0
VERTEX
  6
CONTINUOUS
  8
1
 10
99.785
 20
184.354
  0
VERTEX
  6
CONTINUOUS
  8
1
 10
99.713
 20
184.318
  0
VERTEX
  6
CONTINUOUS
  8
1
 10
99.641
 20
184.283
  0
VERTEX
  6
CONTINUOUS
  8
1
 10
99.569
 20
184.247
  0
VERTEX
  6
CONTINUOUS
  8
1
 10
99.496
 20
184.210
  0
VERTEX
  6
CONTINUOUS
  8
1
 10
99.424
 20
184.172
  0
VERTEX
  6
CONTINUOUS
  8
1
 10
99.352
 20
184.134
  0
VERTEX
  6
CONTINUOUS
  8
1
 10
99.279
 20
184.094
  0
VERTEX
  6
CONTINUOUS
  8
1
 10
99.207
 20
184.054
  0
VERTEX
  6
CONTINUOUS
  8
1
 10
99.133
 20
184.014
  0
VERTEX
  6
CONTINUOUS
  8
1
 10
99.061
 20
183.972
  0
VERTEX
  6
CONTINUOUS
  8
1
 10
98.987
 20
183.931
  0
VERTEX
  6
CONTINUOUS
  8
1
 10
98.915
 20
183.888
  0
VERTEX
  6
CONTINUOUS
  8
1
 10
98.842
 20
183.846
  0
VERTEX
  6
CONTINUOUS
  8
1
 10
98.769
 20
183.802
  0
VERTEX
  6
CONTINUOUS
  8
1
 10
98.696
 20
183.758
  0
VERTEX
  6
CONTINUOUS
  8
1
 10
98.623
 20
183.713
  0
VERTEX
  6
CONTINUOUS
  8
1
 10
98.550
 20
183.668
  0
VERTEX
  6
CONTINUOUS
  8
1
 10
98.477
 20
183.622
  0
VERTEX
  6
CONTINUOUS
  8
1
 10
98.405
 20
183.576
  0
VERTEX
  6
CONTINUOUS
  8
1
 10
98.333
 20
183.529
  0
VERTEX
  6
CONTINUOUS
  8
1
 10
98.261
 20
183.482
  0
VERTEX
  6
CONTINUOUS
  8
1
 10
98.188
 20
183.434
  0
VERTEX
  6
CONTINUOUS
  8
1
 10
98.117
 20
183.386
  0
VERTEX
  6
CONTINUOUS
  8
1
 10
98.046
 20
183.337
  0
VERTEX
  6
CONTINUOUS
  8
1
 10
97.974
 20
183.288
  0
VERTEX
  6
CONTINUOUS
  8
1
 10
97.903
 20
183.238
  0
VERTEX
  6
CONTINUOUS
  8
1
 10
97.833
 20
183.188
  0
VERTEX
  6
CONTINUOUS
  8
1
 10
97.763
 20
183.139
  0
VERTEX
  6
CONTINUOUS
  8
1
 10
97.692
 20
183.087
  0
VERTEX
  6
CONTINUOUS
  8
1
 10
97.623
 20
183.037
  0
VERTEX
  6
CONTINUOUS
  8
1
 10
97.554
 20
182.985
  0
VERTEX
  6
CONTINUOUS
  8
1
 10
97.485
 20
182.934
  0
VERTEX
  6
CONTINUOUS
  8
1
 10
97.417
 20
182.881
  0
VERTEX
  6
CONTINUOUS
  8
1
 10
97.349
 20
182.830
  0
VERTEX
  6
CONTINUOUS
  8
1
 10
97.281
 20
182.777
  0
VERTEX
  6
CONTINUOUS
  8
1
 10
97.215
 20
182.723
  0
VERTEX
  6
CONTINUOUS
  8
1
 10
97.148
 20
182.671
  0
VERTEX
  6
CONTINUOUS
  8
1
 10
97.083
 20
182.617
  0
VERTEX
  6
CONTINUOUS
  8
1
 10
97.017
 20
182.564
  0
VERTEX
  6
CONTINUOUS
  8
1
 10
96.953
 20
182.510
  0
VERTEX
  6
CONTINUOUS
  8
1
 10
96.888
 20
182.457
  0
VERTEX
  6
CONTINUOUS
  8
1
 10
96.825
 20
182.402
  0
VERTEX
  6
CONTINUOUS
  8
1
 10
96.762
 20
182.348
  0
VERTEX
  6
CONTINUOUS
  8
1
 10
96.699
 20
182.294
  0
VERTEX
  6
CONTINUOUS
  8
1
 10
96.639
 20
182.240
  0
VERTEX
  6
CONTINUOUS
  8
1
 10
96.578
 20
182.185
  0
VERTEX
  6
CONTINUOUS
  8
1
 10
96.517
 20
182.130
  0
VERTEX
  6
CONTINUOUS
  8
1
 10
96.458
 20
182.075
  0
VERTEX
  6
CONTINUOUS
  8
1
 10
96.400
 20
182.021
  0
VERTEX
  6
CONTINUOUS
  8
1
 10
96.342
 20
181.966
  0
VERTEX
  6
CONTINUOUS
  8
1
 10
96.285
 20
181.911
  0
VERTEX
  6
CONTINUOUS
  8
1
 10
96.229
 20
181.857
  0
VERTEX
  6
CONTINUOUS
  8
1
 10
96.173
 20
181.802
  0
VERTEX
  6
CONTINUOUS
  8
1
 10
96.118
 20
181.747
  0
VERTEX
  6
CONTINUOUS
  8
1
 10
96.064
 20
181.692
  0
VERTEX
  6
CONTINUOUS
  8
1
 10
96.012
 20
181.638
  0
VERTEX
  6
CONTINUOUS
  8
1
 10
95.959
 20
181.584
  0
VERTEX
  6
CONTINUOUS
  8
1
 10
95.909
 20
181.529
  0
VERTEX
  6
CONTINUOUS
  8
1
 10
95.858
 20
181.475
  0
VERTEX
  6
CONTINUOUS
  8
1
 10
95.809
 20
181.421
  0
VERTEX
  6
CONTINUOUS
  8
1
 10
95.761
 20
181.367
  0
VERTEX
  6
CONTINUOUS
  8
1
 10
95.714
 20
181.313
  0
VERTEX
  6
CONTINUOUS
  8
1
 10
95.667
 20
181.259
  0
VERTEX
  6
CONTINUOUS
  8
1
 10
95.622
 20
181.206
  0
VERTEX
  6
CONTINUOUS
  8
1
 10
95.578
 20
181.152
  0
VERTEX
  6
CONTINUOUS
  8
1
 10
95.534
 20
181.100
  0
VERTEX
  6
CONTINUOUS
  8
1
 10
95.492
 20
181.047
  0
VERTEX
  6
CONTINUOUS
  8
1
 10
95.450
 20
180.994
  0
VERTEX
  6
CONTINUOUS
  8
1
 10
95.411
 20
180.943
  0
VERTEX
  6
CONTINUOUS
  8
1
 10
95.371
 20
180.891
  0
VERTEX
  6
CONTINUOUS
  8
1
 10
95.333
 20
180.839
  0
VERTEX
  6
CONTINUOUS
  8
1
 10
95.297
 20
180.788
  0
VERTEX
  6
CONTINUOUS
  8
1
 10
95.261
 20
180.736
  0
VERTEX
  6
CONTINUOUS
  8
1
 10
95.226
 20
180.687
  0
VERTEX
  6
CONTINUOUS
  8
1
 10
95.192
 20
180.637
  0
VERTEX
  6
CONTINUOUS
  8
1
 10
95.160
 20
180.586
  0
VERTEX
  6
CONTINUOUS
  8
1
 10
95.128
 20
180.537
  0
VERTEX
  6
CONTINUOUS
  8
1
 10
95.098
 20
180.488
  0
VERTEX
  6
CONTINUOUS
  8
1
 10
95.070
 20
180.440
  0
VERTEX
  6
CONTINUOUS
  8
1
 10
95.041
 20
180.392
  0
VERTEX
  6
CONTINUOUS
  8
1
 10
95.014
 20
180.344
  0
VERTEX
  6
CONTINUOUS
  8
1
 10
94.989
 20
180.297
  0
VERTEX
  6
CONTINUOUS
  8
1
 10
94.965
 20
180.250
  0
VERTEX
  6
CONTINUOUS
  8
1
 10
94.942
 20
180.204
  0
VERTEX
  6
CONTINUOUS
  8
1
 10
94.920
 20
180.159
  0
VERTEX
  6
CONTINUOUS
  8
1
 10
94.900
 20
180.114
  0
VERTEX
  6
CONTINUOUS
  8
1
 10
94.880
 20
180.069
  0
VERTEX
  6
CONTINUOUS
  8
1
 10
94.862
 20
180.025
  0
VERTEX
  6
CONTINUOUS
  8
1
 10
94.845
 20
179.982
  0
VERTEX
  6
CONTINUOUS
  8
1
 10
94.829
 20
179.939
  0
VERTEX
  6
CONTINUOUS
  8
1
 10
94.815
 20
179.898
  0
VERTEX
  6
CONTINUOUS
  8
1
 10
94.802
 20
179.856
  0
VERTEX
  6
CONTINUOUS
  8
1
 10
94.790
 20
179.815
  0
VERTEX
  6
CONTINUOUS
  8
1
 10
94.779
 20
179.774
  0
VERTEX
  6
CONTINUOUS
  8
1
 10
94.770
 20
179.735
  0
VERTEX
  6
CONTINUOUS
  8
1
 10
94.761
 20
179.696
  0
VERTEX
  6
CONTINUOUS
  8
1
 10
94.755
 20
179.658
  0
VERTEX
  6
CONTINUOUS
  8
1
 10
94.749
 20
179.621
  0
VERTEX
  6
CONTINUOUS
  8
1
 10
94.745
 20
179.584
  0
VERTEX
  6
CONTINUOUS
  8
1
 10
94.742
 20
179.548
  0
VERTEX
  6
CONTINUOUS
  8
1
 10
94.740
 20
179.512
  0
VERTEX
  6
CONTINUOUS
  8
1
 10
94.739
 20
179.478
  0
VERTEX
  6
CONTINUOUS
  8
1
 10
94.740
 20
179.443
  0
VERTEX
  6
CONTINUOUS
  8
1
 10
94.742
 20
179.410
  0
VERTEX
  6
CONTINUOUS
  8
1
 10
94.745
 20
179.377
  0
VERTEX
  6
CONTINUOUS
  8
1
 10
94.750
 20
179.346
  0
VERTEX
  6
CONTINUOUS
  8
1
 10
94.756
 20
179.315
  0
VERTEX
  6
CONTINUOUS
  8
1
 10
94.763
 20
179.285
  0
VERTEX
  6
CONTINUOUS
  8
1
 10
94.771
 20
179.256
  0
VERTEX
  6
CONTINUOUS
  8
1
 10
94.781
 20
179.228
  0
VERTEX
  6
CONTINUOUS
  8
1
 10
94.792
 20
179.200
  0
VERTEX
  6
CONTINUOUS
  8
1
 10
94.804
 20
179.173
  0
VERTEX
  6
CONTINUOUS
  8
1
 10
94.817
 20
179.147
  0
VERTEX
  6
CONTINUOUS
  8
1
 10
94.832
 20
179.122
  0
VERTEX
  6
CONTINUOUS
  8
1
 10
94.848
 20
179.098
  0
SEQEND
  0
POLYLINE
  6
CONTINUOUS
  8
1
 66
     1
 70
     2
  0
VERTEX
  6
CONTINUOUS
  8
1
 10
94.848
 20
179.098
  0
VERTEX
  6
CONTINUOUS
  8
1
 10
94.829
 20
179.122
  0
VERTEX
  6
CONTINUOUS
  8
1
 10
94.809
 20
179.147
  0
VERTEX
  6
CONTINUOUS
  8
1
 10
94.788
 20
179.170
  0
VERTEX
  6
CONTINUOUS
  8
1
 10
94.765
 20
179.193
  0
VERTEX
  6
CONTINUOUS
  8
1
 10
94.741
 20
179.215
  0
VERTEX
  6
CONTINUOUS
  8
1
 10
94.716
 20
179.236
  0
VERTEX
  6
CONTINUOUS
  8
1
 10
94.690
 20
179.256
  0
VERTEX
  6
CONTINUOUS
  8
1
 10
94.663
 20
179.274
  0
VERTEX
  6
CONTINUOUS
  8
1
 10
94.635
 20
179.292
  0
VERTEX
  6
CONTINUOUS
  8
1
 10
94.605
 20
179.309
  0
VERTEX
  6
CONTINUOUS
  8
1
 10
94.574
 20
179.325
  0
VERTEX
  6
CONTINUOUS
  8
1
 10
94.542
 20
179.341
  0
VERTEX
  6
CONTINUOUS
  8
1
 10
94.509
 20
179.355
  0
VERTEX
  6
CONTINUOUS
  8
1
 10
94.475
 20
179.368
  0
VERTEX
  6
CONTINUOUS
  8
1
 10
94.440
 20
179.381
  0
VERTEX
  6
CONTINUOUS
  8
1
 10
94.404
 20
179.392
  0
VERTEX
  6
CONTINUOUS
  8
1
 10
94.366
 20
179.402
  0
VERTEX
  6
CONTINUOUS
  8
1
 10
94.328
 20
179.411
  0
VERTEX
  6
CONTINUOUS
  8
1
 10
94.288
 20
179.420
  0
VERTEX
  6
CONTINUOUS
  8
1
 10
94.247
 20
179.428
  0
VERTEX
  6
CONTINUOUS
  8
1
 10
94.206
 20
179.434
  0
VERTEX
  6
CONTINUOUS
  8
1
 10
94.162
 20
179.440
  0
VERTEX
  6
CONTINUOUS
  8
1
 10
94.119
 20
179.444
  0
VERTEX
  6
CONTINUOUS
  8
1
 10
94.074
 20
179.448
  0
VERTEX
  6
CONTINUOUS
  8
1
 10
94.029
 20
179.450
  0
VERTEX
  6
CONTINUOUS
  8
1
 10
93.982
 20
179.452
  0
VERTEX
  6
CONTINUOUS
  8
1
 10
93.934
 20
179.453
  0
VERTEX
  6
CONTINUOUS
  8
1
 10
93.886
 20
179.453
  0
VERTEX
  6
CONTINUOUS
  8
1
 10
93.836
 20
179.452
  0
VERTEX
  6
CONTINUOUS
  8
1
 10
93.785
 20
179.449
  0
VERTEX
  6
CONTINUOUS
  8
1
 10
93.735
 20
179.446
  0
VERTEX
  6
CONTINUOUS
  8
1
 10
93.682
 20
179.442
  0
VERTEX
  6
CONTINUOUS
  8
1
 10
93.628
 20
179.436
  0
VERTEX
  6
CONTINUOUS
  8
1
 10
93.575
 20
179.430
  0
VERTEX
  6
CONTINUOUS
  8
1
 10
93.520
 20
179.423
  0
VERTEX
  6
CONTINUOUS
  8
1
 10
93.465
 20
179.414
  0
VERTEX
  6
CONTINUOUS
  8
1
 10
93.408
 20
179.406
  0
VERTEX
  6
CONTINUOUS
  8
1
 10
93.350
 20
179.396
  0
VERTEX
  6
CONTINUOUS
  8
1
 10
93.293
 20
179.384
  0
VERTEX
  6
CONTINUOUS
  8
1
 10
93.234
 20
179.373
  0
VERTEX
  6
CONTINUOUS
  8
1
 10
93.175
 20
179.360
  0
VERTEX
  6
CONTINUOUS
  8
1
 10
93.115
 20
179.346
  0
VERTEX
  6
CONTINUOUS
  8
1
 10
93.053
 20
179.330
  0
VERTEX
  6
CONTINUOUS
  8
1
 10
92.992
 20
179.315
  0
VERTEX
  6
CONTINUOUS
  8
1
 10
92.930
 20
179.299
  0
VERTEX
  6
CONTINUOUS
  8
1
 10
92.866
 20
179.281
  0
VERTEX
  6
CONTINUOUS
  8
1
 10
92.804
 20
179.262
  0
VERTEX
  6
CONTINUOUS
  8
1
 10
92.739
 20
179.243
  0
VERTEX
  6
CONTINUOUS
  8
1
 10
92.675
 20
179.222
  0
VERTEX
  6
CONTINUOUS
  8
1
 10
92.609
 20
179.201
  0
VERTEX
  6
CONTINUOUS
  8
1
 10
92.544
 20
179.179
  0
VERTEX
  6
CONTINUOUS
  8
1
 10
92.477
 20
179.155
  0
VERTEX
  6
CONTINUOUS
  8
1
 10
92.410
 20
179.132
  0
VERTEX
  6
CONTINUOUS
  8
1
 10
92.343
 20
179.106
  0
VERTEX
  6
CONTINUOUS
  8
1
 10
92.275
 20
179.080
  0
VERTEX
  6
CONTINUOUS
  8
1
 10
92.207
 20
179.054
  0
VERTEX
  6
CONTINUOUS
  8
1
 10
92.138
 20
179.026
  0
VERTEX
  6
CONTINUOUS
  8
1
 10
92.070
 20
178.998
  0
VERTEX
  6
CONTINUOUS
  8
1
 10
92.000
 20
178.968
  0
VERTEX
  6
CONTINUOUS
  8
1
 10
91.930
 20
178.938
  0
VERTEX
  6
CONTINUOUS
  8
1
 10
91.860
 20
178.908
  0
VERTEX
  6
CONTINUOUS
  8
1
 10
91.790
 20
178.876
  0
VERTEX
  6
CONTINUOUS
  8
1
 10
91.719
 20
178.843
  0
VERTEX
  6
CONTINUOUS
  8
1
 10
91.649
 20
178.810
  0
VERTEX
  6
CONTINUOUS
  8
1
 10
91.577
 20
178.776
  0
VERTEX
  6
CONTINUOUS
  8
1
 10
91.505
 20
178.741
  0
VERTEX
  6
CONTINUOUS
  8
1
 10
91.433
 20
178.706
  0
VERTEX
  6
CONTINUOUS
  8
1
 10
91.362
 20
178.670
  0
VERTEX
  6
CONTINUOUS
  8
1
 10
91.290
 20
178.632
  0
VERTEX
  6
CONTINUOUS
  8
1
 10
91.218
 20
178.594
  0
VERTEX
  6
CONTINUOUS
  8
1
 10
91.146
 20
178.556
  0
VERTEX
  6
CONTINUOUS
  8
1
 10
91.073
 20
178.517
  0
VERTEX
  6
CONTINUOUS
  8
1
 10
91.001
 20
178.477
  0
VERTEX
  6
CONTINUOUS
  8
1
 10
90.928
 20
178.436
  0
VERTEX
  6
CONTINUOUS
  8
1
 10
90.855
 20
178.395
  0
VERTEX
  6
CONTINUOUS
  8
1
 10
90.784
 20
178.353
  0
VERTEX
  6
CONTINUOUS
  8
1
 10
90.711
 20
178.310
  0
VERTEX
  6
CONTINUOUS
  8
1
 10
90.638
 20
178.267
  0
VERTEX
  6
CONTINUOUS
  8
1
 10
90.565
 20
178.223
  0
VERTEX
  6
CONTINUOUS
  8
1
 10
90.493
 20
178.179
  0
VERTEX
  6
CONTINUOUS
  8
1
 10
90.420
 20
178.133
  0
VERTEX
  6
CONTINUOUS
  8
1
 10
90.349
 20
178.087
  0
VERTEX
  6
CONTINUOUS
  8
1
 10
90.277
 20
178.042
  0
VERTEX
  6
CONTINUOUS
  8
1
 10
90.205
 20
177.995
  0
VERTEX
  6
CONTINUOUS
  8
1
 10
90.133
 20
177.947
  0
VERTEX
  6
CONTINUOUS
  8
1
 10
90.061
 20
177.900
  0
VERTEX
  6
CONTINUOUS
  8
1
 10
89.990
 20
177.852
  0
VERTEX
  6
CONTINUOUS
  8
1
 10
89.919
 20
177.803
  0
VERTEX
  6
CONTINUOUS
  8
1
 10
89.849
 20
177.754
  0
VERTEX
  6
CONTINUOUS
  8
1
 10
89.779
 20
177.704
  0
VERTEX
  6
CONTINUOUS
  8
1
 10
89.709
 20
177.654
  0
VERTEX
  6
CONTINUOUS
  8
1
 10
89.639
 20
177.603
  0
VERTEX
  6
CONTINUOUS
  8
1
 10
89.570
 20
177.552
  0
VERTEX
  6
CONTINUOUS
  8
1
 10
89.501
 20
177.501
  0
VERTEX
  6
CONTINUOUS
  8
1
 10
89.433
 20
177.449
  0
VERTEX
  6
CONTINUOUS
  8
1
 10
89.364
 20
177.396
  0
VERTEX
  6
CONTINUOUS
  8
1
 10
89.296
 20
177.344
  0
VERTEX
  6
CONTINUOUS
  8
1
 10
89.230
 20
177.291
  0
VERTEX
  6
CONTINUOUS
  8
1
 10
89.163
 20
177.238
  0
VERTEX
  6
CONTINUOUS
  8
1
 10
89.096
 20
177.185
  0
VERTEX
  6
CONTINUOUS
  8
1
 10
89.031
 20
177.130
  0
VERTEX
  6
CONTINUOUS
  8
1
 10
88.965
 20
177.076
  0
VERTEX
  6
CONTINUOUS
  8
1
 10
88.900
 20
177.022
  0
VERTEX
  6
CONTINUOUS
  8
1
 10
88.837
 20
176.967
  0
VERTEX
  6
CONTINUOUS
  8
1
 10
88.773
 20
176.913
  0
VERTEX
  6
CONTINUOUS
  8
1
 10
88.711
 20
176.857
  0
VERTEX
  6
CONTINUOUS
  8
1
 10
88.648
 20
176.802
  0
VERTEX
  6
CONTINUOUS
  8
1
 10
88.587
 20
176.747
  0
VERTEX
  6
CONTINUOUS
  8
1
 10
88.526
 20
176.691
  0
VERTEX
  6
CONTINUOUS
  8
1
 10
88.466
 20
176.635
  0
VERTEX
  6
CONTINUOUS
  8
1
 10
88.406
 20
176.579
  0
VERTEX
  6
CONTINUOUS
  8
1
 10
88.348
 20
176.524
  0
VERTEX
  6
CONTINUOUS
  8
1
 10
88.290
 20
176.468
  0
VERTEX
  6
CONTINUOUS
  8
1
 10
88.233
 20
176.412
  0
VERTEX
  6
CONTINUOUS
  8
1
 10
88.177
 20
176.356
  0
VERTEX
  6
CONTINUOUS
  8
1
 10
88.121
 20
176.299
  0
VERTEX
  6
CONTINUOUS
  8
1
 10
88.067
 20
176.243
  0
VERTEX
  6
CONTINUOUS
  8
1
 10
88.013
 20
176.187
  0
VERTEX
  6
CONTINUOUS
  8
1
 10
87.960
 20
176.131
  0
VERTEX
  6
CONTINUOUS
  8
1
 10
87.908
 20
176.075
  0
VERTEX
  6
CONTINUOUS
  8
1
 10
87.857
 20
176.019
  0
VERTEX
  6
CONTINUOUS
  8
1
 10
87.806
 20
175.963
  0
VERTEX
  6
CONTINUOUS
  8
1
 10
87.757
 20
175.907
  0
VERTEX
  6
CONTINUOUS
  8
1
 10
87.708
 20
175.851
  0
VERTEX
  6
CONTINUOUS
  8
1
 10
87.661
 20
175.796
  0
VERTEX
  6
CONTINUOUS
  8
1
 10
87.615
 20
175.740
  0
VERTEX
  6
CONTINUOUS
  8
1
 10
87.568
 20
175.684
  0
VERTEX
  6
CONTINUOUS
  8
1
 10
87.524
 20
175.629
  0
VERTEX
  6
CONTINUOUS
  8
1
 10
87.480
 20
175.574
  0
VERTEX
  6
CONTINUOUS
  8
1
 10
87.438
 20
175.519
  0
VERTEX
  6
CONTINUOUS
  8
1
 10
87.396
 20
175.464
  0
VERTEX
  6
CONTINUOUS
  8
1
 10
87.356
 20
175.410
  0
VERTEX
  6
CONTINUOUS
  8
1
 10
87.316
 20
175.355
  0
VERTEX
  6
CONTINUOUS
  8
1
 10
87.278
 20
175.302
  0
VERTEX
  6
CONTINUOUS
  8
1
 10
87.240
 20
175.248
  0
VERTEX
  6
CONTINUOUS
  8
1
 10
87.205
 20
175.195
  0
VERTEX
  6
CONTINUOUS
  8
1
 10
87.170
 20
175.142
  0
VERTEX
  6
CONTINUOUS
  8
1
 10
87.135
 20
175.089
  0
VERTEX
  6
CONTINUOUS
  8
1
 10
87.102
 20
175.037
  0
VERTEX
  6
CONTINUOUS
  8
1
 10
87.070
 20
174.985
  0
VERTEX
  6
CONTINUOUS
  8
1
 10
87.040
 20
174.933
  0
VERTEX
  6
CONTINUOUS
  8
1
 10
87.011
 20
174.882
  0
VERTEX
  6
CONTINUOUS
  8
1
 10
86.982
 20
174.831
  0
VERTEX
  6
CONTINUOUS
  8
1
 10
86.956
 20
174.781
  0
VERTEX
  6
CONTINUOUS
  8
1
 10
86.929
 20
174.731
  0
VERTEX
  6
CONTINUOUS
  8
1
 10
86.905
 20
174.682
  0
VERTEX
  6
CONTINUOUS
  8
1
 10
86.881
 20
174.633
  0
VERTEX
  6
CONTINUOUS
  8
1
 10
86.859
 20
174.584
  0
VERTEX
  6
CONTINUOUS
  8
1
 10
86.838
 20
174.536
  0
VERTEX
  6
CONTINUOUS
  8
1
 10
86.818
 20
174.489
  0
VERTEX
  6
CONTINUOUS
  8
1
 10
86.799
 20
174.442
  0
VERTEX
  6
CONTINUOUS
  8
1
 10
86.782
 20
174.395
  0
VERTEX
  6
CONTINUOUS
  8
1
 10
86.766
 20
174.349
  0
VERTEX
  6
CONTINUOUS
  8
1
 10
86.751
 20
174.305
  0
VERTEX
  6
CONTINUOUS
  8
1
 10
86.738
 20
174.259
  0
VERTEX
  6
CONTINUOUS
  8
1
 10
86.724
 20
174.216
  0
VERTEX
  6
CONTINUOUS
  8
1
 10
86.714
 20
174.172
  0
VERTEX
  6
CONTINUOUS
  8
1
 10
86.703
 20
174.130
  0
VERTEX
  6
CONTINUOUS
  8
1
 10
86.695
 20
174.087
  0
VERTEX
  6
CONTINUOUS
  8
1
 10
86.687
 20
174.046
  0
VERTEX
  6
CONTINUOUS
  8
1
 10
86.681
 20
174.004
  0
VERTEX
  6
CONTINUOUS
  8
1
 10
86.676
 20
173.964
  0
VERTEX
  6
CONTINUOUS
  8
1
 10
86.673
 20
173.925
  0
VERTEX
  6
CONTINUOUS
  8
1
 10
86.670
 20
173.886
  0
VERTEX
  6
CONTINUOUS
  8
1
 10
86.668
 20
173.848
  0
VERTEX
  6
CONTINUOUS
  8
1
 10
86.669
 20
173.811
  0
VERTEX
  6
CONTINUOUS
  8
1
 10
86.670
 20
173.775
  0
VERTEX
  6
CONTINUOUS
  8
1
 10
86.673
 20
173.738
  0
VERTEX
  6
CONTINUOUS
  8
1
 10
86.677
 20
173.703
  0
VERTEX
  6
CONTINUOUS
  8
1
 10
86.682
 20
173.669
  0
VERTEX
  6
CONTINUOUS
  8
1
 10
86.688
 20
173.635
  0
VERTEX
  6
CONTINUOUS
  8
1
 10
86.696
 20
173.603
  0
VERTEX
  6
CONTINUOUS
  8
1
 10
86.705
 20
173.571
  0
VERTEX
  6
CONTINUOUS
  8
1
 10
86.715
 20
173.540
  0
VERTEX
  6
CONTINUOUS
  8
1
 10
86.727
 20
173.509
  0
VERTEX
  6
CONTINUOUS
  8
1
 10
86.739
 20
173.480
  0
VERTEX
  6
CONTINUOUS
  8
1
 10
86.753
 20
173.451
  0
VERTEX
  6
CONTINUOUS
  8
1
 10
86.768
 20
173.423
  0
VERTEX
  6
CONTINUOUS
  8
1
 10
86.785
 20
173.396
  0
VERTEX
  6
CONTINUOUS
  8
1
 10
86.802
 20
173.370
  0
VERTEX
  6
CONTINUOUS
  8
1
 10
86.821
 20
173.346
  0
VERTEX
  6
CONTINUOUS
  8
1
 10
86.841
 20
173.321
  0
VERTEX
  6
CONTINUOUS
  8
1
 10
86.862
 20
173.298
  0
VERTEX
  6
CONTINUOUS
  8
1
 10
86.885
 20
173.275
  0
VERTEX
  6
CONTINUOUS
  8
1
 10
86.909
 20
173.253
  0
VERTEX
  6
CONTINUOUS
  8
1
 10
86.934
 20
173.232
  0
VERTEX
  6
CONTINUOUS
  8
1
 10
86.960
 20
173.212
  0
VERTEX
  6
CONTINUOUS
  8
1
 10
86.987
 20
173.194
  0
VERTEX
  6
CONTINUOUS
  8
1
 10
87.015
 20
173.176
  0
VERTEX
  6
CONTINUOUS
  8
1
 10
87.045
 20
173.159
  0
VERTEX
  6
CONTINUOUS
  8
1
 10
87.076
 20
173.143
  0
VERTEX
  6
CONTINUOUS
  8
1
 10
87.108
 20
173.127
  0
VERTEX
  6
CONTINUOUS
  8
1
 10
87.141
 20
173.113
  0
VERTEX
  6
CONTINUOUS
  8
1
 10
87.175
 20
173.100
  0
VERTEX
  6
CONTINUOUS
  8
1
 10
87.210
 20
173.087
  0
VERTEX
  6
CONTINUOUS
  8
1
 10
87.246
 20
173.076
  0
VERTEX
  6
CONTINUOUS
  8
1
 10
87.284
 20
173.066
  0
VERTEX
  6
CONTINUOUS
  8
1
 10
87.322
 20
173.057
  0
VERTEX
  6
CONTINUOUS
  8
1
 10
87.362
 20
173.048
  0
VERTEX
  6
CONTINUOUS
  8
1
 10
87.403
 20
173.040
  0
VERTEX
  6
CONTINUOUS
  8
1
 10
87.444
 20
173.034
  0
VERTEX
  6
CONTINUOUS
  8
1
 10
87.488
 20
173.028
  0
VERTEX
  6
CONTINUOUS
  8
1
 10
87.531
 20
173.024
  0
VERTEX
  6
CONTINUOUS
  8
1
 10
87.576
 20
173.020
  0
VERTEX
  6
CONTINUOUS
  8
1
 10
87.621
 20
173.018
  0
VERTEX
  6
CONTINUOUS
  8
1
 10
87.668
 20
173.016
  0
VERTEX
  6
CONTINUOUS
  8
1
 10
87.716
 20
173.015
  0
VERTEX
  6
CONTINUOUS
  8
1
 10
87.764
 20
173.015
  0
VERTEX
  6
CONTINUOUS
  8
1
 10
87.814
 20
173.016
  0
VERTEX
  6
CONTINUOUS
  8
1
 10
87.865
 20
173.019
  0
VERTEX
  6
CONTINUOUS
  8
1
 10
87.915
 20
173.022
  0
VERTEX
  6
CONTINUOUS
  8
1
 10
87.968
 20
173.026
  0
VERTEX
  6
CONTINUOUS
  8
1
 10
88.022
 20
173.032
  0
VERTEX
  6
CONTINUOUS
  8
1
 10
88.075
 20
173.038
  0
VERTEX
  6
CONTINUOUS
  8
1
 10
88.130
 20
173.045
  0
VERTEX
  6
CONTINUOUS
  8
1
 10
88.185
 20
173.054
  0
VERTEX
  6
CONTINUOUS
  8
1
 10
88.242
 20
173.062
  0
VERTEX
  6
CONTINUOUS
  8
1
 10
88.300
 20
173.072
  0
VERTEX
  6
CONTINUOUS
  8
1
 10
88.357
 20
173.084
  0
VERTEX
  6
CONTINUOUS
  8
1
 10
88.416
 20
173.095
  0
VERTEX
  6
CONTINUOUS
  8
1
 10
88.475
 20
173.108
  0
VERTEX
  6
CONTINUOUS
  8
1
 10
88.535
 20
173.122
  0
VERTEX
  6
CONTINUOUS
  8
1
 10
88.597
 20
173.138
  0
VERTEX
  6
CONTINUOUS
  8
1
 10
88.658
 20
173.153
  0
VERTEX
  6
CONTINUOUS
  8
1
 10
88.720
 20
173.169
  0
VERTEX
  6
CONTINUOUS
  8
1
 10
88.784
 20
173.187
  0
VERTEX
  6
CONTINUOUS
  8
1
 10
88.846
 20
173.206
  0
VERTEX
  6
CONTINUOUS
  8
1
 10
88.911
 20
173.225
  0
VERTEX
  6
CONTINUOUS
  8
1
 10
88.975
 20
173.246
  0
VERTEX
  6
CONTINUOUS
  8
1
 10
89.041
 20
173.267
  0
VERTEX
  6
CONTINUOUS
  8
1
 10
89.106
 20
173.289
  0
VERTEX
  6
CONTINUOUS
  8
1
 10
89.173
 20
173.313
  0
VERTEX
  6
CONTINUOUS
  8
1
 10
89.240
 20
173.336
  0
VERTEX
  6
CONTINUOUS
  8
1
 10
89.307
 20
173.362
  0
VERTEX
  6
CONTINUOUS
  8
1
 10
89.375
 20
173.388
  0
VERTEX
  6
CONTINUOUS
  8
1
 10
89.443
 20
173.414
  0
VERTEX
  6
CONTINUOUS
  8
1
 10
89.512
 20
173.442
  0
VERTEX
  6
CONTINUOUS
  8
1
 10
89.580
 20
173.470
  0
VERTEX
  6
CONTINUOUS
  8
1
 10
89.650
 20
173.500
  0
VERTEX
  6
CONTINUOUS
  8
1
 10
89.720
 20
173.530
  0
VERTEX
  6
CONTINUOUS
  8
1
 10
89.790
 20
173.560
  0
VERTEX
  6
CONTINUOUS
  8
1
 10
89.860
 20
173.592
  0
VERTEX
  6
CONTINUOUS
  8
1
 10
89.931
 20
173.625
  0
VERTEX
  6
CONTINUOUS
  8
1
 10
90.001
 20
173.658
  0
VERTEX
  6
CONTINUOUS
  8
1
 10
90.073
 20
173.692
  0
VERTEX
  6
CONTINUOUS
  8
1
 10
90.145
 20
173.727
  0
VERTEX
  6
CONTINUOUS
  8
1
 10
90.217
 20
173.762
  0
VERTEX
  6
CONTINUOUS
  8
1
 10
90.288
 20
173.798
  0
VERTEX
  6
CONTINUOUS
  8
1
 10
90.360
 20
173.836
  0
VERTEX
  6
CONTINUOUS
  8
1
 10
90.432
 20
173.874
  0
VERTEX
  6
CONTINUOUS
  8
1
 10
90.504
 20
173.912
  0
VERTEX
  6
CONTINUOUS
  8
1
 10
90.577
 20
173.951
  0
VERTEX
  6
CONTINUOUS
  8
1
 10
90.649
 20
173.991
  0
VERTEX
  6
CONTINUOUS
  8
1
 10
90.722
 20
174.032
  0
VERTEX
  6
CONTINUOUS
  8
1
 10
90.795
 20
174.073
  0
VERTEX
  6
CONTINUOUS
  8
1
 10
90.866
 20
174.115
  0
VERTEX
  6
CONTINUOUS
  8
1
 10
90.939
 20
174.158
  0
VERTEX
  6
CONTINUOUS
  8
1
 10
91.012
 20
174.201
  0
VERTEX
  6
CONTINUOUS
  8
1
 10
91.085
 20
174.245
  0
VERTEX
  6
CONTINUOUS
  8
1
 10
91.157
 20
174.289
  0
VERTEX
  6
CONTINUOUS
  8
1
 10
91.230
 20
174.335
  0
VERTEX
  6
CONTINUOUS
  8
1
 10
91.301
 20
174.381
  0
VERTEX
  6
CONTINUOUS
  8
1
 10
91.373
 20
174.426
  0
VERTEX
  6
CONTINUOUS
  8
1
 10
91.445
 20
174.473
  0
VERTEX
  6
CONTINUOUS
  8
1
 10
91.517
 20
174.521
  0
VERTEX
  6
CONTINUOUS
  8
1
 10
91.589
 20
174.568
  0
VERTEX
  6
CONTINUOUS
  8
1
 10
91.660
 20
174.616
  0
VERTEX
  6
CONTINUOUS
  8
1
 10
91.731
 20
174.665
  0
VERTEX
  6
CONTINUOUS
  8
1
 10
91.801
 20
174.714
  0
VERTEX
  6
CONTINUOUS
  8
1
 10
91.871
 20
174.764
  0
VERTEX
  6
CONTINUOUS
  8
1
 10
91.941
 20
174.814
  0
VERTEX
  6
CONTINUOUS
  8
1
 10
92.011
 20
174.865
  0
VERTEX
  6
CONTINUOUS
  8
1
 10
92.080
 20
174.916
  0
VERTEX
  6
CONTINUOUS
  8
1
 10
92.149
 20
174.967
  0
VERTEX
  6
CONTINUOUS
  8
1
 10
92.217
 20
175.019
  0
VERTEX
  6
CONTINUOUS
  8
1
 10
92.286
 20
175.072
  0
VERTEX
  6
CONTINUOUS
  8
1
 10
92.354
 20
175.124
  0
VERTEX
  6
CONTINUOUS
  8
1
 10
92.420
 20
175.177
  0
VERTEX
  6
CONTINUOUS
  8
1
 10
92.487
 20
175.230
  0
VERTEX
  6
CONTINUOUS
  8
1
 10
92.554
 20
175.283
  0
VERTEX
  6
CONTINUOUS
  8
1
 10
92.619
 20
175.338
  0
VERTEX
  6
CONTINUOUS
  8
1
 10
92.685
 20
175.392
  0
VERTEX
  6
CONTINUOUS
  8
1
 10
92.750
 20
175.446
  0
VERTEX
  6
CONTINUOUS
  8
1
 10
92.813
 20
175.501
  0
VERTEX
  6
CONTINUOUS
  8
1
 10
92.877
 20
175.555
  0
VERTEX
  6
CONTINUOUS
  8
1
 10
92.939
 20
175.611
  0
VERTEX
  6
CONTINUOUS
  8
1
 10
93.002
 20
175.666
  0
VERTEX
  6
CONTINUOUS
  8
1
 10
93.063
 20
175.721
  0
VERTEX
  6
CONTINUOUS
  8
1
 10
93.124
 20
175.777
  0
VERTEX
  6
CONTINUOUS
  8
1
 10
93.184
 20
175.833
  0
VERTEX
  6
CONTINUOUS
  8
1
 10
93.244
 20
175.889
  0
VERTEX
  6
CONTINUOUS
  8
1
 10
93.302
 20
175.944
  0
VERTEX
  6
CONTINUOUS
  8
1
 10
93.360
 20
176.000
  0
VERTEX
  6
CONTINUOUS
  8
1
 10
93.417
 20
176.056
  0
VERTEX
  6
CONTINUOUS
  8
1
 10
93.473
 20
176.112
  0
VERTEX
  6
CONTINUOUS
  8
1
 10
93.529
 20
176.169
  0
VERTEX
  6
CONTINUOUS
  8
1
 10
93.583
 20
176.225
  0
VERTEX
  6
CONTINUOUS
  8
1
 10
93.637
 20
176.281
  0
VERTEX
  6
CONTINUOUS
  8
1
 10
93.690
 20
176.337
  0
VERTEX
  6
CONTINUOUS
  8
1
 10
93.742
 20
176.393
  0
VERTEX
  6
CONTINUOUS
  8
1
 10
93.793
 20
176.449
  0
VERTEX
  6
CONTINUOUS
  8
1
 10
93.844
 20
176.505
  0
VERTEX
  6
CONTINUOUS
  8
1
 10
93.893
 20
176.561
  0
VERTEX
  6
CONTINUOUS
  8
1
 10
93.942
 20
176.617
  0
VERTEX
  6
CONTINUOUS
  8
1
 10
93.989
 20
176.672
  0
VERTEX
  6
CONTINUOUS
  8
1
 10
94.035
 20
176.728
  0
VERTEX
  6
CONTINUOUS
  8
1
 10
94.082
 20
176.784
  0
VERTEX
  6
CONTINUOUS
  8
1
 10
94.126
 20
176.839
  0
VERTEX
  6
CONTINUOUS
  8
1
 10
94.170
 20
176.894
  0
VERTEX
  6
CONTINUOUS
  8
1
 10
94.212
 20
176.949
  0
VERTEX
  6
CONTINUOUS
  8
1
 10
94.254
 20
177.004
  0
VERTEX
  6
CONTINUOUS
  8
1
 10
94.294
 20
177.058
  0
VERTEX
  6
CONTINUOUS
  8
1
 10
94.334
 20
177.113
  0
VERTEX
  6
CONTINUOUS
  8
1
 10
94.372
 20
177.166
  0
VERTEX
  6
CONTINUOUS
  8
1
 10
94.410
 20
177.220
  0
VERTEX
  6
CONTINUOUS
  8
1
 10
94.445
 20
177.273
  0
VERTEX
  6
CONTINUOUS
  8
1
 10
94.480
 20
177.326
  0
VERTEX
  6
CONTINUOUS
  8
1
 10
94.515
 20
177.379
  0
VERTEX
  6
CONTINUOUS
  8
1
 10
94.548
 20
177.431
  0
VERTEX
  6
CONTINUOUS
  8
1
 10
94.580
 20
177.483
  0
VERTEX
  6
CONTINUOUS
  8
1
 10
94.610
 20
177.535
  0
VERTEX
  6
CONTINUOUS
  8
1
 10
94.639
 20
177.586
  0
VERTEX
  6
CONTINUOUS
  8
1
 10
94.668
 20
177.637
  0
VERTEX
  6
CONTINUOUS
  8
1
 10
94.694
 20
177.687
  0
VERTEX
  6
CONTINUOUS
  8
1
 10
94.721
 20
177.737
  0
VERTEX
  6
CONTINUOUS
  8
1
 10
94.745
 20
177.786
  0
VERTEX
  6
CONTINUOUS
  8
1
 10
94.769
 20
177.835
  0
VERTEX
  6
CONTINUOUS
  8
1
 10
94.791
 20
177.884
  0
VERTEX
  6
CONTINUOUS
  8
1
 10
94.812
 20
177.932
  0
VERTEX
  6
CONTINUOUS
  8
1
 10
94.832
 20
177.979
  0
VERTEX
  6
CONTINUOUS
  8
1
 10
94.851
 20
178.026
  0
VERTEX
  6
CONTINUOUS
  8
1
 10
94.868
 20
178.073
  0
VERTEX
  6
CONTINUOUS
  8
1
 10
94.884
 20
178.119
  0
VERTEX
  6
CONTINUOUS
  8
1
 10
94.899
 20
178.163
  0
VERTEX
  6
CONTINUOUS
  8
1
 10
94.912
 20
178.209
  0
VERTEX
  6
CONTINUOUS
  8
1
 10
94.926
 20
178.252
  0
VERTEX
  6
CONTINUOUS
  8
1
 10
94.936
 20
178.296
  0
VERTEX
  6
CONTINUOUS
  8
1
 10
94.947
 20
178.338
  0
VERTEX
  6
CONTINUOUS
  8
1
 10
94.955
 20
178.381
  0
VERTEX
  6
CONTINUOUS
  8
1
 10
94.963
 20
178.422
  0
VERTEX
  6
CONTINUOUS
  8
1
 10
94.969
 20
178.464
  0
VERTEX
  6
CONTINUOUS
  8
1
 10
94.974
 20
178.504
  0
VERTEX
  6
CONTINUOUS
  8
1
 10
94.977
 20
178.543
  0
VERTEX
  6
CONTINUOUS
  8
1
 10
94.980
 20
178.582
  0
VERTEX
  6
CONTINUOUS
  8
1
 10
94.982
 20
178.620
  0
VERTEX
  6
CONTINUOUS
  8
1
 10
94.981
 20
178.657
  0
VERTEX
  6
CONTINUOUS
  8
1
 10
94.980
 20
178.693
  0
VERTEX
  6
CONTINUOUS
  8
1
 10
94.977
 20
178.730
  0
VERTEX
  6
CONTINUOUS
  8
1
 10
94.973
 20
178.765
  0
VERTEX
  6
CONTINUOUS
  8
1
 10
94.968
 20
178.799
  0
VERTEX
  6
CONTINUOUS
  8
1
 10
94.962
 20
178.833
  0
VERTEX
  6
CONTINUOUS
  8
1
 10
94.954
 20
178.865
  0
VERTEX
  6
CONTINUOUS
  8
1
 10
94.945
 20
178.897
  0
VERTEX
  6
CONTINUOUS
  8
1
 10
94.935
 20
178.928
  0
VERTEX
  6
CONTINUOUS
  8
1
 10
94.923
 20
178.959
  0
VERTEX
  6
CONTINUOUS
  8
1
 10
94.911
 20
178.988
  0
VERTEX
  6
CONTINUOUS
  8
1
 10
94.897
 20
179.017
  0
VERTEX
  6
CONTINUOUS
  8
1
 10
94.882
 20
179.045
  0
VERTEX
  6
CONTINUOUS
  8
1
 10
94.865
 20
179.072
  0
VERTEX
  6
CONTINUOUS
  8
1
 10
94.848
 20
179.098
  0
SEQEND
  0
LINE
  6
CONTINUOUS
  8
1
 10
87.066
 20
43.590
 11
89.193
 21
44.818
  0
LINE
  6
CONTINUOUS
  8
1
 10
87.066
 20
43.590
 11
87.066
 21
58.482
  0
LINE
  6
CONTINUOUS
  8
1
 10
89.193
 20
44.818
 11
89.193
 21
56.641
  0
LINE
  6
CONTINUOUS
  8
1
 10
85.020
 20
44.772
 11
85.020
 21
56.464
  0
LINE
  6
CONTINUOUS
  8
1
 10
88.097
 20
45.490
 11
88.097
 21
45.490
  0
LINE
  6
CONTINUOUS
  8
1
 10
87.237
 20
46.018
 11
87.237
 21
46.018
  0
LINE
  6
CONTINUOUS
  8
1
 10
87.237
 20
46.018
 11
87.237
 21
46.018
  0
LINE
  6
CONTINUOUS
  8
1
 10
87.066
 20
45.922
 11
87.066
 21
45.922
  0
LINE
  6
CONTINUOUS
  8
1
 10
89.193
 20
44.818
 11
89.193
 21
44.818
  0
LINE
  6
CONTINUOUS
  8
1
 10
88.097
 20
45.490
 11
88.097
 21
45.490
  0
LINE
  6
CONTINUOUS
  8
1
 10
100.148
 20
53.593
 11
89.172
 21
47.255
  0
LINE
  6
CONTINUOUS
  8
1
 10
89.141
 20
46.421
 11
100.856
 21
53.184
  0
LINE
  6
CONTINUOUS
  8
1
 10
101.563
 20
52.776
 11
89.186
 21
45.631
  0
LINE
  6
CONTINUOUS
  8
1
 10
75.585
 20
47.770
 11
77.791
 21
46.496
  0
LINE
  6
CONTINUOUS
  8
1
 10
75.550
 20
47.766
 11
75.550
 21
46.209
  0
LINE
  6
CONTINUOUS
  8
1
 10
80.176
 20
45.119
 11
80.176
 21
44.752
  0
LINE
  6
CONTINUOUS
  8
1
 10
80.176
 20
44.752
 11
75.881
 21
47.170
  0
LINE
  6
CONTINUOUS
  8
1
 10
75.550
 20
45.845
 11
75.881
 21
45.646
  0
LINE
  6
CONTINUOUS
  8
1
 10
80.176
 20
44.752
 11
80.539
 21
44.909
  0
ARC
  6
CONTINUOUS
  8
1
 10
80.643
 20
45.078
 40
1.601
 50
261.991
 51
322.872
  0
ARC
  6
CONTINUOUS
  8
1
 10
80.561
 20
44.309
 40
0.829
 50
136.857
 51
260.276
  0
LINE
  6
CONTINUOUS
  8
1
 10
71.809
 20
45.228
 11
73.902
 21
44.251
  0
POLYLINE
  6
CONTINUOUS
  8
1
 66
     1
 70
     2
  0
VERTEX
  6
CONTINUOUS
  8
1
 10
75.741
 20
53.325
  0
VERTEX
  6
CONTINUOUS
  8
1
 10
75.700
 20
53.343
  0
VERTEX
  6
CONTINUOUS
  8
1
 10
75.658
 20
53.361
  0
VERTEX
  6
CONTINUOUS
  8
1
 10
75.615
 20
53.377
  0
VERTEX
  6
CONTINUOUS
  8
1
 10
75.573
 20
53.392
  0
VERTEX
  6
CONTINUOUS
  8
1
 10
75.529
 20
53.405
  0
VERTEX
  6
CONTINUOUS
  8
1
 10
75.484
 20
53.417
  0
VERTEX
  6
CONTINUOUS
  8
1
 10
75.440
 20
53.428
  0
VERTEX
  6
CONTINUOUS
  8
1
 10
75.395
 20
53.438
  0
VERTEX
  6
CONTINUOUS
  8
1
 10
75.350
 20
53.447
  0
VERTEX
  6
CONTINUOUS
  8
1
 10
75.304
 20
53.454
  0
VERTEX
  6
CONTINUOUS
  8
1
 10
75.257
 20
53.460
  0
VERTEX
  6
CONTINUOUS
  8
1
 10
75.210
 20
53.465
  0
VERTEX
  6
CONTINUOUS
  8
1
 10
75.163
 20
53.468
  0
VERTEX
  6
CONTINUOUS
  8
1
 10
75.115
 20
53.470
  0
VERTEX
  6
CONTINUOUS
  8
1
 10
75.068
 20
53.471
  0
VERTEX
  6
CONTINUOUS
  8
1
 10
75.019
 20
53.470
  0
VERTEX
  6
CONTINUOUS
  8
1
 10
74.969
 20
53.468
  0
VERTEX
  6
CONTINUOUS
  8
1
 10
74.921
 20
53.465
  0
VERTEX
  6
CONTINUOUS
  8
1
 10
74.871
 20
53.461
  0
VERTEX
  6
CONTINUOUS
  8
1
 10
74.821
 20
53.455
  0
VERTEX
  6
CONTINUOUS
  8
1
 10
74.771
 20
53.448
  0
VERTEX
  6
CONTINUOUS
  8
1
 10
74.721
 20
53.439
  0
VERTEX
  6
CONTINUOUS
  8
1
 10
74.670
 20
53.430
  0
VERTEX
  6
CONTINUOUS
  8
1
 10
74.619
 20
53.419
  0
VERTEX
  6
CONTINUOUS
  8
1
 10
74.568
 20
53.407
  0
VERTEX
  6
CONTINUOUS
  8
1
 10
74.517
 20
53.394
  0
VERTEX
  6
CONTINUOUS
  8
1
 10
74.466
 20
53.379
  0
VERTEX
  6
CONTINUOUS
  8
1
 10
74.413
 20
53.363
  0
VERTEX
  6
CONTINUOUS
  8
1
 10
74.361
 20
53.347
  0
VERTEX
  6
CONTINUOUS
  8
1
 10
74.309
 20
53.328
  0
VERTEX
  6
CONTINUOUS
  8
1
 10
74.257
 20
53.308
  0
VERTEX
  6
CONTINUOUS
  8
1
 10
74.204
 20
53.287
  0
VERTEX
  6
CONTINUOUS
  8
1
 10
74.152
 20
53.265
  0
VERTEX
  6
CONTINUOUS
  8
1
 10
74.099
 20
53.242
  0
VERTEX
  6
CONTINUOUS
  8
1
 10
74.047
 20
53.217
  0
VERTEX
  6
CONTINUOUS
  8
1
 10
73.994
 20
53.192
  0
VERTEX
  6
CONTINUOUS
  8
1
 10
73.941
 20
53.165
  0
VERTEX
  6
CONTINUOUS
  8
1
 10
73.889
 20
53.137
  0
VERTEX
  6
CONTINUOUS
  8
1
 10
73.836
 20
53.107
  0
VERTEX
  6
CONTINUOUS
  8
1
 10
73.783
 20
53.077
  0
VERTEX
  6
CONTINUOUS
  8
1
 10
73.730
 20
53.045
  0
VERTEX
  6
CONTINUOUS
  8
1
 10
73.678
 20
53.012
  0
VERTEX
  6
CONTINUOUS
  8
1
 10
73.624
 20
52.979
  0
VERTEX
  6
CONTINUOUS
  8
1
 10
73.572
 20
52.944
  0
VERTEX
  6
CONTINUOUS
  8
1
 10
73.519
 20
52.907
  0
VERTEX
  6
CONTINUOUS
  8
1
 10
73.467
 20
52.870
  0
VERTEX
  6
CONTINUOUS
  8
1
 10
73.414
 20
52.831
  0
VERTEX
  6
CONTINUOUS
  8
1
 10
73.362
 20
52.792
  0
VERTEX
  6
CONTINUOUS
  8
1
 10
73.310
 20
52.751
  0
VERTEX
  6
CONTINUOUS
  8
1
 10
73.259
 20
52.710
  0
VERTEX
  6
CONTINUOUS
  8
1
 10
73.206
 20
52.667
  0
VERTEX
  6
CONTINUOUS
  8
1
 10
73.155
 20
52.623
  0
VERTEX
  6
CONTINUOUS
  8
1
 10
73.103
 20
52.578
  0
VERTEX
  6
CONTINUOUS
  8
1
 10
73.052
 20
52.533
  0
VERTEX
  6
CONTINUOUS
  8
1
 10
73.002
 20
52.486
  0
VERTEX
  6
CONTINUOUS
  8
1
 10
72.951
 20
52.438
  0
VERTEX
  6
CONTINUOUS
  8
1
 10
72.900
 20
52.389
  0
VERTEX
  6
CONTINUOUS
  8
1
 10
72.851
 20
52.340
  0
VERTEX
  6
CONTINUOUS
  8
1
 10
72.801
 20
52.289
  0
VERTEX
  6
CONTINUOUS
  8
1
 10
72.751
 20
52.237
  0
VERTEX
  6
CONTINUOUS
  8
1
 10
72.702
 20
52.185
  0
VERTEX
  6
CONTINUOUS
  8
1
 10
72.653
 20
52.132
  0
VERTEX
  6
CONTINUOUS
  8
1
 10
72.605
 20
52.077
  0
VERTEX
  6
CONTINUOUS
  8
1
 10
72.557
 20
52.022
  0
VERTEX
  6
CONTINUOUS
  8
1
 10
72.509
 20
51.966
  0
VERTEX
  6
CONTINUOUS
  8
1
 10
72.462
 20
51.909
  0
VERTEX
  6
CONTINUOUS
  8
1
 10
72.415
 20
51.851
  0
VERTEX
  6
CONTINUOUS
  8
1
 10
72.369
 20
51.793
  0
VERTEX
  6
CONTINUOUS
  8
1
 10
72.323
 20
51.734
  0
VERTEX
  6
CONTINUOUS
  8
1
 10
72.277
 20
51.674
  0
VERTEX
  6
CONTINUOUS
  8
1
 10
72.233
 20
51.613
  0
VERTEX
  6
CONTINUOUS
  8
1
 10
72.188
 20
51.552
  0
VERTEX
  6
CONTINUOUS
  8
1
 10
72.144
 20
51.490
  0
VERTEX
  6
CONTINUOUS
  8
1
 10
72.100
 20
51.426
  0
VERTEX
  6
CONTINUOUS
  8
1
 10
72.058
 20
51.363
  0
VERTEX
  6
CONTINUOUS
  8
1
 10
72.015
 20
51.300
  0
VERTEX
  6
CONTINUOUS
  8
1
 10
71.973
 20
51.234
  0
VERTEX
  6
CONTINUOUS
  8
1
 10
71.932
 20
51.169
  0
VERTEX
  6
CONTINUOUS
  8
1
 10
71.891
 20
51.103
  0
VERTEX
  6
CONTINUOUS
  8
1
 10
71.850
 20
51.037
  0
VERTEX
  6
CONTINUOUS
  8
1
 10
71.811
 20
50.970
  0
VERTEX
  6
CONTINUOUS
  8
1
 10
71.772
 20
50.902
  0
VERTEX
  6
CONTINUOUS
  8
1
 10
71.733
 20
50.834
  0
VERTEX
  6
CONTINUOUS
  8
1
 10
71.696
 20
50.765
  0
VERTEX
  6
CONTINUOUS
  8
1
 10
71.659
 20
50.696
  0
VERTEX
  6
CONTINUOUS
  8
1
 10
71.623
 20
50.627
  0
VERTEX
  6
CONTINUOUS
  8
1
 10
71.588
 20
50.557
  0
VERTEX
  6
CONTINUOUS
  8
1
 10
71.553
 20
50.487
  0
VERTEX
  6
CONTINUOUS
  8
1
 10
71.518
 20
50.417
  0
VERTEX
  6
CONTINUOUS
  8
1
 10
71.485
 20
50.345
  0
VERTEX
  6
CONTINUOUS
  8
1
 10
71.451
 20
50.274
  0
VERTEX
  6
CONTINUOUS
  8
1
 10
71.420
 20
50.202
  0
VERTEX
  6
CONTINUOUS
  8
1
 10
71.388
 20
50.130
  0
VERTEX
  6
CONTINUOUS
  8
1
 10
71.357
 20
50.058
  0
VERTEX
  6
CONTINUOUS
  8
1
 10
71.328
 20
49.986
  0
VERTEX
  6
CONTINUOUS
  8
1
 10
71.299
 20
49.913
  0
VERTEX
  6
CONTINUOUS
  8
1
 10
71.270
 20
49.841
  0
VERTEX
  6
CONTINUOUS
  8
1
 10
71.243
 20
49.767
  0
VERTEX
  6
CONTINUOUS
  8
1
 10
71.216
 20
49.694
  0
VERTEX
  6
CONTINUOUS
  8
1
 10
71.190
 20
49.621
  0
VERTEX
  6
CONTINUOUS
  8
1
 10
71.165
 20
49.546
  0
VERTEX
  6
CONTINUOUS
  8
1
 10
71.141
 20
49.473
  0
VERTEX
  6
CONTINUOUS
  8
1
 10
71.117
 20
49.400
  0
VERTEX
  6
CONTINUOUS
  8
1
 10
71.094
 20
49.326
  0
VERTEX
  6
CONTINUOUS
  8
1
 10
71.073
 20
49.252
  0
VERTEX
  6
CONTINUOUS
  8
1
 10
71.052
 20
49.179
  0
VERTEX
  6
CONTINUOUS
  8
1
 10
71.032
 20
49.104
  0
VERTEX
  6
CONTINUOUS
  8
1
 10
71.012
 20
49.031
  0
VERTEX
  6
CONTINUOUS
  8
1
 10
70.994
 20
48.958
  0
VERTEX
  6
CONTINUOUS
  8
1
 10
70.976
 20
48.884
  0
VERTEX
  6
CONTINUOUS
  8
1
 10
70.959
 20
48.810
  0
VERTEX
  6
CONTINUOUS
  8
1
 10
70.943
 20
48.737
  0
VERTEX
  6
CONTINUOUS
  8
1
 10
70.929
 20
48.665
  0
VERTEX
  6
CONTINUOUS
  8
1
 10
70.915
 20
48.592
  0
VERTEX
  6
CONTINUOUS
  8
1
 10
70.901
 20
48.519
  0
VERTEX
  6
CONTINUOUS
  8
1
 10
70.889
 20
48.446
  0
VERTEX
  6
CONTINUOUS
  8
1
 10
70.877
 20
48.374
  0
VERTEX
  6
CONTINUOUS
  8
1
 10
70.867
 20
48.302
  0
VERTEX
  6
CONTINUOUS
  8
1
 10
70.858
 20
48.230
  0
VERTEX
  6
CONTINUOUS
  8
1
 10
70.849
 20
48.159
  0
VERTEX
  6
CONTINUOUS
  8
1
 10
70.841
 20
48.088
  0
VERTEX
  6
CONTINUOUS
  8
1
 10
70.834
 20
48.017
  0
VERTEX
  6
CONTINUOUS
  8
1
 10
70.828
 20
47.947
  0
VERTEX
  6
CONTINUOUS
  8
1
 10
70.823
 20
47.877
  0
VERTEX
  6
CONTINUOUS
  8
1
 10
70.819
 20
47.808
  0
VERTEX
  6
CONTINUOUS
  8
1
 10
70.816
 20
47.739
  0
VERTEX
  6
CONTINUOUS
  8
1
 10
70.814
 20
47.670
  0
VERTEX
  6
CONTINUOUS
  8
1
 10
70.813
 20
47.602
  0
VERTEX
  6
CONTINUOUS
  8
1
 10
70.812
 20
47.534
  0
VERTEX
  6
CONTINUOUS
  8
1
 10
70.813
 20
47.466
  0
VERTEX
  6
CONTINUOUS
  8
1
 10
70.814
 20
47.401
  0
VERTEX
  6
CONTINUOUS
  8
1
 10
70.816
 20
47.335
  0
VERTEX
  6
CONTINUOUS
  8
1
 10
70.820
 20
47.269
  0
VERTEX
  6
CONTINUOUS
  8
1
 10
70.824
 20
47.204
  0
VERTEX
  6
CONTINUOUS
  8
1
 10
70.829
 20
47.140
  0
VERTEX
  6
CONTINUOUS
  8
1
 10
70.835
 20
47.076
  0
VERTEX
  6
CONTINUOUS
  8
1
 10
70.842
 20
47.014
  0
VERTEX
  6
CONTINUOUS
  8
1
 10
70.850
 20
46.951
  0
VERTEX
  6
CONTINUOUS
  8
1
 10
70.859
 20
46.890
  0
VERTEX
  6
CONTINUOUS
  8
1
 10
70.868
 20
46.829
  0
VERTEX
  6
CONTINUOUS
  8
1
 10
70.879
 20
46.769
  0
VERTEX
  6
CONTINUOUS
  8
1
 10
70.891
 20
46.709
  0
VERTEX
  6
CONTINUOUS
  8
1
 10
70.902
 20
46.651
  0
VERTEX
  6
CONTINUOUS
  8
1
 10
70.916
 20
46.593
  0
VERTEX
  6
CONTINUOUS
  8
1
 10
70.930
 20
46.536
  0
VERTEX
  6
CONTINUOUS
  8
1
 10
70.945
 20
46.480
  0
VERTEX
  6
CONTINUOUS
  8
1
 10
70.961
 20
46.425
  0
VERTEX
  6
CONTINUOUS
  8
1
 10
70.978
 20
46.371
  0
VERTEX
  6
CONTINUOUS
  8
1
 10
70.996
 20
46.317
  0
VERTEX
  6
CONTINUOUS
  8
1
 10
71.014
 20
46.264
  0
VERTEX
  6
CONTINUOUS
  8
1
 10
71.033
 20
46.213
  0
VERTEX
  6
CONTINUOUS
  8
1
 10
71.054
 20
46.162
  0
VERTEX
  6
CONTINUOUS
  8
1
 10
71.075
 20
46.111
  0
VERTEX
  6
CONTINUOUS
  8
1
 10
71.097
 20
46.063
  0
VERTEX
  6
CONTINUOUS
  8
1
 10
71.120
 20
46.015
  0
VERTEX
  6
CONTINUOUS
  8
1
 10
71.143
 20
45.968
  0
VERTEX
  6
CONTINUOUS
  8
1
 10
71.168
 20
45.922
  0
VERTEX
  6
CONTINUOUS
  8
1
 10
71.194
 20
45.877
  0
VERTEX
  6
CONTINUOUS
  8
1
 10
71.219
 20
45.833
  0
VERTEX
  6
CONTINUOUS
  8
1
 10
71.246
 20
45.790
  0
VERTEX
  6
CONTINUOUS
  8
1
 10
71.274
 20
45.749
  0
VERTEX
  6
CONTINUOUS
  8
1
 10
71.302
 20
45.708
  0
VERTEX
  6
CONTINUOUS
  8
1
 10
71.331
 20
45.669
  0
VERTEX
  6
CONTINUOUS
  8
1
 10
71.361
 20
45.629
  0
VERTEX
  6
CONTINUOUS
  8
1
 10
71.392
 20
45.592
  0
VERTEX
  6
CONTINUOUS
  8
1
 10
71.423
 20
45.556
  0
VERTEX
  6
CONTINUOUS
  8
1
 10
71.456
 20
45.520
  0
VERTEX
  6
CONTINUOUS
  8
1
 10
71.489
 20
45.486
  0
VERTEX
  6
CONTINUOUS
  8
1
 10
71.522
 20
45.454
  0
VERTEX
  6
CONTINUOUS
  8
1
 10
71.557
 20
45.421
  0
VERTEX
  6
CONTINUOUS
  8
1
 10
71.592
 20
45.390
  0
VERTEX
  6
CONTINUOUS
  8
1
 10
71.627
 20
45.362
  0
VERTEX
  6
CONTINUOUS
  8
1
 10
71.664
 20
45.334
  0
VERTEX
  6
CONTINUOUS
  8
1
 10
71.701
 20
45.306
  0
VERTEX
  6
CONTINUOUS
  8
1
 10
71.739
 20
45.280
  0
VERTEX
  6
CONTINUOUS
  8
1
 10
71.777
 20
45.255
  0
VERTEX
  6
CONTINUOUS
  8
1
 10
71.816
 20
45.232
  0
VERTEX
  6
CONTINUOUS
  8
1
 10
71.856
 20
45.210
  0
VERTEX
  6
CONTINUOUS
  8
1
 10
71.889
 20
45.192
  0
SEQEND
  0
LINE
  6
CONTINUOUS
  8
1
 10
70.950
 20
49.033
 11
71.006
 21
49.007
  0
ARC
  6
CONTINUOUS
  8
1
 10
74.963
 20
46.954
 40
2.900
 50
249.240
 51
321.621
  0
LINE
  6
CONTINUOUS
  8
1
 10
87.066
 20
41.140
 11
94.325
 21
36.950
  0
LINE
  6
CONTINUOUS
  8
1
 10
94.594
 20
37.611
 11
86.359
 21
42.365
  0
LINE
  6
CONTINUOUS
  8
1
 10
94.922
 20
38.239
 11
87.066
 21
42.773
  0
LINE
  6
CONTINUOUS
  8
1
 10
75.565
 20
50.231
 11
95.304
 21
38.834
  0
LINE
  6
CONTINUOUS
  8
1
 10
87.724
 20
44.037
 11
95.733
 21
39.381
  0
LINE
  6
CONTINUOUS
  8
1
 10
96.242
 20
39.908
 11
88.416
 21
44.447
  0
LINE
  6
CONTINUOUS
  8
1
 10
96.242
 20
39.908
 11
96.242
 21
39.908
  0
LINE
  6
CONTINUOUS
  8
1
 10
89.113
 20
44.864
 11
96.851
 21
40.397
  0
ARC
  6
CONTINUOUS
  8
1
 10
76.321
 20
46.541
 40
0.413
 50
97.091
 51
174.441
  0
LINE
  6
CONTINUOUS
  8
1
 10
75.910
 20
45.845
 11
75.910
 21
45.845
  0
LINE
  6
CONTINUOUS
  8
1
 10
76.559
 20
45.507
 11
80.420
 21
43.493
  0
ARC
  6
CONTINUOUS
  8
1
 10
76.698
 20
46.324
 40
0.829
 50
136.857
 51
138.229
  0
ARC
  6
CONTINUOUS
  8
1
 10
76.698
 20
46.324
 40
0.829
 50
161.937
 51
260.276
  0
LINE
  6
CONTINUOUS
  8
1
 10
75.910
 20
47.154
 11
75.910
 21
46.581
  0
LINE
  6
CONTINUOUS
  8
1
 10
75.910
 20
45.647
 11
76.127
 21
45.723
  0
LINE
  6
CONTINUOUS
  8
1
 10
75.550
 20
46.209
 11
75.550
 21
45.845
  0
LINE
  6
CONTINUOUS
  8
1
 10
75.910
 20
45.647
 11
75.859
 21
45.659
  0
LINE
  6
CONTINUOUS
  8
1
 10
75.910
 20
46.067
 11
75.910
 21
45.647
  0
LINE
  6
CONTINUOUS
  8
1
 10
75.910
 20
45.647
 11
75.910
 21
45.647
  0
ARC
  6
CONTINUOUS
  8
1
 10
77.375
 20
50.812
 40
1.698
 50
354.796
 51
454.425
  0
LINE
  6
CONTINUOUS
  8
1
 10
75.650
 20
53.364
 11
77.817
 21
52.442
  0
POLYLINE
  6
CONTINUOUS
  8
1
 66
     1
 70
     2
  0
VERTEX
  6
CONTINUOUS
  8
1
 10
77.233
 20
52.504
  0
VERTEX
  6
CONTINUOUS
  8
1
 10
77.186
 20
52.507
  0
VERTEX
  6
CONTINUOUS
  8
1
 10
77.139
 20
52.508
  0
VERTEX
  6
CONTINUOUS
  8
1
 10
77.090
 20
52.507
  0
VERTEX
  6
CONTINUOUS
  8
1
 10
77.040
 20
52.505
  0
VERTEX
  6
CONTINUOUS
  8
1
 10
76.992
 20
52.502
  0
VERTEX
  6
CONTINUOUS
  8
1
 10
76.942
 20
52.498
  0
VERTEX
  6
CONTINUOUS
  8
1
 10
76.892
 20
52.492
  0
VERTEX
  6
CONTINUOUS
  8
1
 10
76.842
 20
52.485
  0
VERTEX
  6
CONTINUOUS
  8
1
 10
76.792
 20
52.476
  0
VERTEX
  6
CONTINUOUS
  8
1
 10
76.741
 20
52.467
  0
VERTEX
  6
CONTINUOUS
  8
1
 10
76.690
 20
52.456
  0
VERTEX
  6
CONTINUOUS
  8
1
 10
76.639
 20
52.444
  0
VERTEX
  6
CONTINUOUS
  8
1
 10
76.588
 20
52.431
  0
VERTEX
  6
CONTINUOUS
  8
1
 10
76.537
 20
52.416
  0
VERTEX
  6
CONTINUOUS
  8
1
 10
76.484
 20
52.400
  0
VERTEX
  6
CONTINUOUS
  8
1
 10
76.432
 20
52.384
  0
VERTEX
  6
CONTINUOUS
  8
1
 10
76.380
 20
52.365
  0
VERTEX
  6
CONTINUOUS
  8
1
 10
76.328
 20
52.345
  0
VERTEX
  6
CONTINUOUS
  8
1
 10
76.275
 20
52.324
  0
VERTEX
  6
CONTINUOUS
  8
1
 10
76.223
 20
52.302
  0
VERTEX
  6
CONTINUOUS
  8
1
 10
76.170
 20
52.279
  0
VERTEX
  6
CONTINUOUS
  8
1
 10
76.118
 20
52.254
  0
VERTEX
  6
CONTINUOUS
  8
1
 10
76.065
 20
52.229
  0
VERTEX
  6
CONTINUOUS
  8
1
 10
76.012
 20
52.202
  0
VERTEX
  6
CONTINUOUS
  8
1
 10
75.960
 20
52.174
  0
VERTEX
  6
CONTINUOUS
  8
1
 10
75.907
 20
52.144
  0
VERTEX
  6
CONTINUOUS
  8
1
 10
75.854
 20
52.114
  0
VERTEX
  6
CONTINUOUS
  8
1
 10
75.801
 20
52.082
  0
VERTEX
  6
CONTINUOUS
  8
1
 10
75.749
 20
52.049
  0
VERTEX
  6
CONTINUOUS
  8
1
 10
75.695
 20
52.016
  0
VERTEX
  6
CONTINUOUS
  8
1
 10
75.643
 20
51.981
  0
VERTEX
  6
CONTINUOUS
  8
1
 10
75.590
 20
51.944
  0
VERTEX
  6
CONTINUOUS
  8
1
 10
75.538
 20
51.907
  0
VERTEX
  6
CONTINUOUS
  8
1
 10
75.485
 20
51.868
  0
VERTEX
  6
CONTINUOUS
  8
1
 10
75.433
 20
51.829
  0
VERTEX
  6
CONTINUOUS
  8
1
 10
75.381
 20
51.788
  0
VERTEX
  6
CONTINUOUS
  8
1
 10
75.330
 20
51.747
  0
VERTEX
  6
CONTINUOUS
  8
1
 10
75.277
 20
51.704
  0
VERTEX
  6
CONTINUOUS
  8
1
 10
75.226
 20
51.660
  0
VERTEX
  6
CONTINUOUS
  8
1
 10
75.174
 20
51.615
  0
VERTEX
  6
CONTINUOUS
  8
1
 10
75.123
 20
51.570
  0
VERTEX
  6
CONTINUOUS
  8
1
 10
75.073
 20
51.523
  0
VERTEX
  6
CONTINUOUS
  8
1
 10
75.022
 20
51.475
  0
VERTEX
  6
CONTINUOUS
  8
1
 10
74.971
 20
51.426
  0
VERTEX
  6
CONTINUOUS
  8
1
 10
74.922
 20
51.377
  0
VERTEX
  6
CONTINUOUS
  8
1
 10
74.872
 20
51.326
  0
VERTEX
  6
CONTINUOUS
  8
1
 10
74.822
 20
51.274
  0
VERTEX
  6
CONTINUOUS
  8
1
 10
74.773
 20
51.222
  0
VERTEX
  6
CONTINUOUS
  8
1
 10
74.724
 20
51.169
  0
VERTEX
  6
CONTINUOUS
  8
1
 10
74.676
 20
51.114
  0
VERTEX
  6
CONTINUOUS
  8
1
 10
74.628
 20
51.059
  0
VERTEX
  6
CONTINUOUS
  8
1
 10
74.580
 20
51.003
  0
VERTEX
  6
CONTINUOUS
  8
1
 10
74.533
 20
50.946
  0
VERTEX
  6
CONTINUOUS
  8
1
 10
74.486
 20
50.888
  0
VERTEX
  6
CONTINUOUS
  8
1
 10
74.440
 20
50.830
  0
VERTEX
  6
CONTINUOUS
  8
1
 10
74.394
 20
50.771
  0
VERTEX
  6
CONTINUOUS
  8
1
 10
74.348
 20
50.711
  0
VERTEX
  6
CONTINUOUS
  8
1
 10
74.304
 20
50.650
  0
VERTEX
  6
CONTINUOUS
  8
1
 10
74.259
 20
50.589
  0
VERTEX
  6
CONTINUOUS
  8
1
 10
74.215
 20
50.527
  0
VERTEX
  6
CONTINUOUS
  8
1
 10
74.171
 20
50.463
  0
VERTEX
  6
CONTINUOUS
  8
1
 10
74.129
 20
50.400
  0
VERTEX
  6
CONTINUOUS
  8
1
 10
74.086
 20
50.337
  0
VERTEX
  6
CONTINUOUS
  8
1
 10
74.044
 20
50.271
  0
VERTEX
  6
CONTINUOUS
  8
1
 10
74.003
 20
50.206
  0
VERTEX
  6
CONTINUOUS
  8
1
 10
73.962
 20
50.140
  0
VERTEX
  6
CONTINUOUS
  8
1
 10
73.921
 20
50.074
  0
VERTEX
  6
CONTINUOUS
  8
1
 10
73.882
 20
50.007
  0
VERTEX
  6
CONTINUOUS
  8
1
 10
73.843
 20
49.939
  0
VERTEX
  6
CONTINUOUS
  8
1
 10
73.804
 20
49.871
  0
VERTEX
  6
CONTINUOUS
  8
1
 10
73.767
 20
49.802
  0
VERTEX
  6
CONTINUOUS
  8
1
 10
73.730
 20
49.733
  0
VERTEX
  6
CONTINUOUS
  8
1
 10
73.694
 20
49.664
  0
VERTEX
  6
CONTINUOUS
  8
1
 10
73.659
 20
49.594
  0
VERTEX
  6
CONTINUOUS
  8
1
 10
73.624
 20
49.524
  0
VERTEX
  6
CONTINUOUS
  8
1
 10
73.589
 20
49.454
  0
VERTEX
  6
CONTINUOUS
  8
1
 10
73.556
 20
49.382
  0
VERTEX
  6
CONTINUOUS
  8
1
 10
73.522
 20
49.311
  0
VERTEX
  6
CONTINUOUS
  8
1
 10
73.491
 20
49.239
  0
VERTEX
  6
CONTINUOUS
  8
1
 10
73.459
 20
49.167
  0
VERTEX
  6
CONTINUOUS
  8
1
 10
73.428
 20
49.095
  0
VERTEX
  6
CONTINUOUS
  8
1
 10
73.399
 20
49.023
  0
VERTEX
  6
CONTINUOUS
  8
1
 10
73.370
 20
48.950
  0
VERTEX
  6
CONTINUOUS
  8
1
 10
73.341
 20
48.878
  0
VERTEX
  6
CONTINUOUS
  8
1
 10
73.314
 20
48.804
  0
VERTEX
  6
CONTINUOUS
  8
1
 10
73.287
 20
48.731
  0
VERTEX
  6
CONTINUOUS
  8
1
 10
73.261
 20
48.658
  0
VERTEX
  6
CONTINUOUS
  8
1
 10
73.236
 20
48.583
  0
VERTEX
  6
CONTINUOUS
  8
1
 10
73.212
 20
48.510
  0
VERTEX
  6
CONTINUOUS
  8
1
 10
73.188
 20
48.437
  0
VERTEX
  6
CONTINUOUS
  8
1
 10
73.165
 20
48.363
  0
VERTEX
  6
CONTINUOUS
  8
1
 10
73.144
 20
48.289
  0
VERTEX
  6
CONTINUOUS
  8
1
 10
73.123
 20
48.216
  0
VERTEX
  6
CONTINUOUS
  8
1
 10
73.103
 20
48.141
  0
VERTEX
  6
CONTINUOUS
  8
1
 10
73.083
 20
48.068
  0
VERTEX
  6
CONTINUOUS
  8
1
 10
73.065
 20
47.995
  0
VERTEX
  6
CONTINUOUS
  8
1
 10
73.047
 20
47.921
  0
VERTEX
  6
CONTINUOUS
  8
1
 10
73.030
 20
47.847
  0
VERTEX
  6
CONTINUOUS
  8
1
 10
73.014
 20
47.774
  0
VERTEX
  6
CONTINUOUS
  8
1
 10
73.000
 20
47.702
  0
VERTEX
  6
CONTINUOUS
  8
1
 10
72.986
 20
47.629
  0
VERTEX
  6
CONTINUOUS
  8
1
 10
72.972
 20
47.556
  0
VERTEX
  6
CONTINUOUS
  8
1
 10
72.960
 20
47.483
  0
VERTEX
  6
CONTINUOUS
  8
1
 10
72.948
 20
47.411
  0
VERTEX
  6
CONTINUOUS
  8
1
 10
72.938
 20
47.339
  0
VERTEX
  6
CONTINUOUS
  8
1
 10
72.929
 20
47.267
  0
VERTEX
  6
CONTINUOUS
  8
1
 10
72.920
 20
47.196
  0
VERTEX
  6
CONTINUOUS
  8
1
 10
72.912
 20
47.125
  0
VERTEX
  6
CONTINUOUS
  8
1
 10
72.905
 20
47.054
  0
VERTEX
  6
CONTINUOUS
  8
1
 10
72.899
 20
46.984
  0
VERTEX
  6
CONTINUOUS
  8
1
 10
72.894
 20
46.914
  0
VERTEX
  6
CONTINUOUS
  8
1
 10
72.890
 20
46.845
  0
VERTEX
  6
CONTINUOUS
  8
1
 10
72.887
 20
46.776
  0
VERTEX
  6
CONTINUOUS
  8
1
 10
72.885
 20
46.707
  0
VERTEX
  6
CONTINUOUS
  8
1
 10
72.884
 20
46.639
  0
VERTEX
  6
CONTINUOUS
  8
1
 10
72.883
 20
46.571
  0
VERTEX
  6
CONTINUOUS
  8
1
 10
72.884
 20
46.503
  0
VERTEX
  6
CONTINUOUS
  8
1
 10
72.885
 20
46.438
  0
VERTEX
  6
CONTINUOUS
  8
1
 10
72.887
 20
46.372
  0
VERTEX
  6
CONTINUOUS
  8
1
 10
72.891
 20
46.306
  0
VERTEX
  6
CONTINUOUS
  8
1
 10
72.895
 20
46.241
  0
VERTEX
  6
CONTINUOUS
  8
1
 10
72.900
 20
46.177
  0
VERTEX
  6
CONTINUOUS
  8
1
 10
72.906
 20
46.113
  0
VERTEX
  6
CONTINUOUS
  8
1
 10
72.913
 20
46.051
  0
VERTEX
  6
CONTINUOUS
  8
1
 10
72.921
 20
45.988
  0
VERTEX
  6
CONTINUOUS
  8
1
 10
72.930
 20
45.927
  0
VERTEX
  6
CONTINUOUS
  8
1
 10
72.939
 20
45.866
  0
VERTEX
  6
CONTINUOUS
  8
1
 10
72.950
 20
45.806
  0
VERTEX
  6
CONTINUOUS
  8
1
 10
72.962
 20
45.746
  0
VERTEX
  6
CONTINUOUS
  8
1
 10
72.973
 20
45.688
  0
VERTEX
  6
CONTINUOUS
  8
1
 10
72.987
 20
45.630
  0
VERTEX
  6
CONTINUOUS
  8
1
 10
73.001
 20
45.573
  0
VERTEX
  6
CONTINUOUS
  8
1
 10
73.016
 20
45.517
  0
VERTEX
  6
CONTINUOUS
  8
1
 10
73.032
 20
45.462
  0
VERTEX
  6
CONTINUOUS
  8
1
 10
73.049
 20
45.408
  0
VERTEX
  6
CONTINUOUS
  8
1
 10
73.067
 20
45.354
  0
VERTEX
  6
CONTINUOUS
  8
1
 10
73.085
 20
45.301
  0
VERTEX
  6
CONTINUOUS
  8
1
 10
73.104
 20
45.250
  0
VERTEX
  6
CONTINUOUS
  8
1
 10
73.125
 20
45.199
  0
VERTEX
  6
CONTINUOUS
  8
1
 10
73.146
 20
45.148
  0
VERTEX
  6
CONTINUOUS
  8
1
 10
73.168
 20
45.100
  0
VERTEX
  6
CONTINUOUS
  8
1
 10
73.191
 20
45.052
  0
VERTEX
  6
CONTINUOUS
  8
1
 10
73.214
 20
45.005
  0
VERTEX
  6
CONTINUOUS
  8
1
 10
73.239
 20
44.959
  0
VERTEX
  6
CONTINUOUS
  8
1
 10
73.265
 20
44.914
  0
VERTEX
  6
CONTINUOUS
  8
1
 10
73.290
 20
44.870
  0
VERTEX
  6
CONTINUOUS
  8
1
 10
73.317
 20
44.827
  0
VERTEX
  6
CONTINUOUS
  8
1
 10
73.345
 20
44.786
  0
VERTEX
  6
CONTINUOUS
  8
1
 10
73.373
 20
44.745
  0
VERTEX
  6
CONTINUOUS
  8
1
 10
73.402
 20
44.706
  0
VERTEX
  6
CONTINUOUS
  8
1
 10
73.432
 20
44.666
  0
VERTEX
  6
CONTINUOUS
  8
1
 10
73.463
 20
44.629
  0
VERTEX
  6
CONTINUOUS
  8
1
 10
73.494
 20
44.593
  0
VERTEX
  6
CONTINUOUS
  8
1
 10
73.527
 20
44.557
  0
VERTEX
  6
CONTINUOUS
  8
1
 10
73.560
 20
44.523
  0
VERTEX
  6
CONTINUOUS
  8
1
 10
73.593
 20
44.491
  0
VERTEX
  6
CONTINUOUS
  8
1
 10
73.628
 20
44.458
  0
VERTEX
  6
CONTINUOUS
  8
1
 10
73.663
 20
44.427
  0
VERTEX
  6
CONTINUOUS
  8
1
 10
73.698
 20
44.399
  0
VERTEX
  6
CONTINUOUS
  8
1
 10
73.735
 20
44.371
  0
VERTEX
  6
CONTINUOUS
  8
1
 10
73.772
 20
44.343
  0
VERTEX
  6
CONTINUOUS
  8
1
 10
73.810
 20
44.317
  0
VERTEX
  6
CONTINUOUS
  8
1
 10
73.848
 20
44.292
  0
VERTEX
  6
CONTINUOUS
  8
1
 10
73.887
 20
44.269
  0
VERTEX
  6
CONTINUOUS
  8
1
 10
73.927
 20
44.247
  0
VERTEX
  6
CONTINUOUS
  8
1
 10
73.960
 20
44.229
  0
SEQEND
  0
LINE
  6
CONTINUOUS
  8
1
 10
85.020
 20
257.371
 11
106.179
 21
245.153
  0
LINE
  6
CONTINUOUS
  8
1
 10
106.165
 20
246.795
 11
106.179
 21
245.153
  0
LINE
  6
CONTINUOUS
  8
1
 10
89.296
 20
256.704
 11
89.296
 21
256.704
  0
LINE
  6
CONTINUOUS
  8
1
 10
89.173
 20
254.973
 11
89.172
 21
254.965
  0
LINE
  6
CONTINUOUS
  8
1
 10
85.020
 20
56.437
 11
85.020
 21
257.371
  0
LINE
  6
CONTINUOUS
  8
1
 10
85.020
 20
257.371
 11
85.020
 21
257.371
  0
LINE
  6
CONTINUOUS
  8
1
 10
87.065
 20
256.190
 11
87.065
 21
256.103
  0
POLYLINE
  6
CONTINUOUS
  8
1
 66
     1
 70
     2
  0
VERTEX
  6
CONTINUOUS
  8
1
 10
80.768
 20
188.029
  0
VERTEX
  6
CONTINUOUS
  8
1
 10
80.818
 20
188.044
  0
VERTEX
  6
CONTINUOUS
  8
1
 10
80.874
 20
188.063
  0
VERTEX
  6
CONTINUOUS
  8
1
 10
80.931
 20
188.081
  0
VERTEX
  6
CONTINUOUS
  8
1
 10
80.987
 20
188.101
  0
VERTEX
  6
CONTINUOUS
  8
1
 10
81.045
 20
188.121
  0
VERTEX
  6
CONTINUOUS
  8
1
 10
81.103
 20
188.142
  0
VERTEX
  6
CONTINUOUS
  8
1
 10
81.162
 20
188.164
  0
VERTEX
  6
CONTINUOUS
  8
1
 10
81.221
 20
188.187
  0
VERTEX
  6
CONTINUOUS
  8
1
 10
81.281
 20
188.211
  0
VERTEX
  6
CONTINUOUS
  8
1
 10
81.342
 20
188.235
  0
VERTEX
  6
CONTINUOUS
  8
1
 10
81.403
 20
188.260
  0
VERTEX
  6
CONTINUOUS
  8
1
 10
81.465
 20
188.285
  0
VERTEX
  6
CONTINUOUS
  8
1
 10
81.528
 20
188.312
  0
VERTEX
  6
CONTINUOUS
  8
1
 10
81.590
 20
188.339
  0
VERTEX
  6
CONTINUOUS
  8
1
 10
81.653
 20
188.367
  0
VERTEX
  6
CONTINUOUS
  8
1
 10
81.717
 20
188.396
  0
VERTEX
  6
CONTINUOUS
  8
1
 10
81.781
 20
188.425
  0
VERTEX
  6
CONTINUOUS
  8
1
 10
81.845
 20
188.455
  0
VERTEX
  6
CONTINUOUS
  8
1
 10
81.910
 20
188.485
  0
VERTEX
  6
CONTINUOUS
  8
1
 10
81.976
 20
188.516
  0
VERTEX
  6
CONTINUOUS
  8
1
 10
82.042
 20
188.549
  0
VERTEX
  6
CONTINUOUS
  8
1
 10
82.108
 20
188.581
  0
VERTEX
  6
CONTINUOUS
  8
1
 10
82.175
 20
188.614
  0
VERTEX
  6
CONTINUOUS
  8
1
 10
82.241
 20
188.648
  0
VERTEX
  6
CONTINUOUS
  8
1
 10
82.308
 20
188.682
  0
VERTEX
  6
CONTINUOUS
  8
1
 10
82.375
 20
188.718
  0
VERTEX
  6
CONTINUOUS
  8
1
 10
82.442
 20
188.754
  0
VERTEX
  6
CONTINUOUS
  8
1
 10
82.511
 20
188.790
  0
VERTEX
  6
CONTINUOUS
  8
1
 10
82.579
 20
188.826
  0
VERTEX
  6
CONTINUOUS
  8
1
 10
82.647
 20
188.864
  0
VERTEX
  6
CONTINUOUS
  8
1
 10
82.715
 20
188.902
  0
VERTEX
  6
CONTINUOUS
  8
1
 10
82.783
 20
188.940
  0
VERTEX
  6
CONTINUOUS
  8
1
 10
82.852
 20
188.979
  0
VERTEX
  6
CONTINUOUS
  8
1
 10
82.920
 20
189.019
  0
VERTEX
  6
CONTINUOUS
  8
1
 10
82.989
 20
189.059
  0
VERTEX
  6
CONTINUOUS
  8
1
 10
83.057
 20
189.099
  0
VERTEX
  6
CONTINUOUS
  8
1
 10
83.126
 20
189.140
  0
VERTEX
  6
CONTINUOUS
  8
1
 10
83.195
 20
189.182
  0
VERTEX
  6
CONTINUOUS
  8
1
 10
83.263
 20
189.224
  0
VERTEX
  6
CONTINUOUS
  8
1
 10
83.333
 20
189.266
  0
VERTEX
  6
CONTINUOUS
  8
1
 10
83.402
 20
189.309
  0
VERTEX
  6
CONTINUOUS
  8
1
 10
83.470
 20
189.353
  0
VERTEX
  6
CONTINUOUS
  8
1
 10
83.538
 20
189.396
  0
VERTEX
  6
CONTINUOUS
  8
1
 10
83.606
 20
189.440
  0
VERTEX
  6
CONTINUOUS
  8
1
 10
83.674
 20
189.484
  0
VERTEX
  6
CONTINUOUS
  8
1
 10
83.743
 20
189.529
  0
VERTEX
  6
CONTINUOUS
  8
1
 10
83.810
 20
189.574
  0
VERTEX
  6
CONTINUOUS
  8
1
 10
83.878
 20
189.620
  0
VERTEX
  6
CONTINUOUS
  8
1
 10
83.946
 20
189.666
  0
VERTEX
  6
CONTINUOUS
  8
1
 10
84.013
 20
189.712
  0
VERTEX
  6
CONTINUOUS
  8
1
 10
84.080
 20
189.758
  0
VERTEX
  6
CONTINUOUS
  8
1
 10
84.147
 20
189.805
  0
VERTEX
  6
CONTINUOUS
  8
1
 10
84.213
 20
189.852
  0
VERTEX
  6
CONTINUOUS
  8
1
 10
84.279
 20
189.898
  0
VERTEX
  6
CONTINUOUS
  8
1
 10
84.345
 20
189.945
  0
VERTEX
  6
CONTINUOUS
  8
1
 10
84.411
 20
189.993
  0
VERTEX
  6
CONTINUOUS
  8
1
 10
84.475
 20
190.042
  0
VERTEX
  6
CONTINUOUS
  8
1
 10
84.540
 20
190.089
  0
VERTEX
  6
CONTINUOUS
  8
1
 10
84.605
 20
190.138
  0
VERTEX
  6
CONTINUOUS
  8
1
 10
84.669
 20
190.187
  0
VERTEX
  6
CONTINUOUS
  8
1
 10
84.731
 20
190.235
  0
VERTEX
  6
CONTINUOUS
  8
1
 10
84.795
 20
190.284
  0
VERTEX
  6
CONTINUOUS
  8
1
 10
84.857
 20
190.332
  0
VERTEX
  6
CONTINUOUS
  8
1
 10
84.919
 20
190.381
  0
VERTEX
  6
CONTINUOUS
  8
1
 10
84.980
 20
190.430
  0
VERTEX
  6
CONTINUOUS
  8
1
 10
85.020
 20
190.462
  0
SEQEND
  0
POLYLINE
  6
CONTINUOUS
  8
1
 66
     1
 70
     2
  0
VERTEX
  6
CONTINUOUS
  8
1
 10
85.020
 20
193.129
  0
VERTEX
  6
CONTINUOUS
  8
1
 10
84.990
 20
193.117
  0
VERTEX
  6
CONTINUOUS
  8
1
 10
84.929
 20
193.092
  0
VERTEX
  6
CONTINUOUS
  8
1
 10
84.867
 20
193.067
  0
VERTEX
  6
CONTINUOUS
  8
1
 10
84.804
 20
193.040
  0
VERTEX
  6
CONTINUOUS
  8
1
 10
84.742
 20
193.013
  0
VERTEX
  6
CONTINUOUS
  8
1
 10
84.679
 20
192.985
  0
VERTEX
  6
CONTINUOUS
  8
1
 10
84.615
 20
192.956
  0
VERTEX
  6
CONTINUOUS
  8
1
 10
84.551
 20
192.927
  0
VERTEX
  6
CONTINUOUS
  8
1
 10
84.487
 20
192.897
  0
VERTEX
  6
CONTINUOUS
  8
1
 10
84.422
 20
192.867
  0
VERTEX
  6
CONTINUOUS
  8
1
 10
84.356
 20
192.836
  0
VERTEX
  6
CONTINUOUS
  8
1
 10
84.290
 20
192.803
  0
VERTEX
  6
CONTINUOUS
  8
1
 10
84.224
 20
192.771
  0
VERTEX
  6
CONTINUOUS
  8
1
 10
84.157
 20
192.738
  0
VERTEX
  6
CONTINUOUS
  8
1
 10
84.091
 20
192.704
  0
VERTEX
  6
CONTINUOUS
  8
1
 10
84.024
 20
192.670
  0
VERTEX
  6
CONTINUOUS
  8
1
 10
83.957
 20
192.634
  0
VERTEX
  6
CONTINUOUS
  8
1
 10
83.890
 20
192.598
  0
VERTEX
  6
CONTINUOUS
  8
1
 10
83.821
 20
192.562
  0
VERTEX
  6
CONTINUOUS
  8
1
 10
83.753
 20
192.526
  0
VERTEX
  6
CONTINUOUS
  8
1
 10
83.685
 20
192.488
  0
VERTEX
  6
CONTINUOUS
  8
1
 10
83.617
 20
192.450
  0
VERTEX
  6
CONTINUOUS
  8
1
 10
83.549
 20
192.412
  0
VERTEX
  6
CONTINUOUS
  8
1
 10
83.480
 20
192.373
  0
VERTEX
  6
CONTINUOUS
  8
1
 10
83.412
 20
192.333
  0
VERTEX
  6
CONTINUOUS
  8
1
 10
83.343
 20
192.293
  0
VERTEX
  6
CONTINUOUS
  8
1
 10
83.275
 20
192.253
  0
VERTEX
  6
CONTINUOUS
  8
1
 10
83.206
 20
192.212
  0
VERTEX
  6
CONTINUOUS
  8
1
 10
83.137
 20
192.170
  0
VERTEX
  6
CONTINUOUS
  8
1
 10
83.069
 20
192.128
  0
VERTEX
  6
CONTINUOUS
  8
1
 10
82.999
 20
192.086
  0
VERTEX
  6
CONTINUOUS
  8
1
 10
82.930
 20
192.043
  0
VERTEX
  6
CONTINUOUS
  8
1
 10
82.862
 20
191.999
  0
VERTEX
  6
CONTINUOUS
  8
1
 10
82.794
 20
191.956
  0
VERTEX
  6
CONTINUOUS
  8
1
 10
82.726
 20
191.912
  0
VERTEX
  6
CONTINUOUS
  8
1
 10
82.658
 20
191.868
  0
VERTEX
  6
CONTINUOUS
  8
1
 10
82.589
 20
191.823
  0
VERTEX
  6
CONTINUOUS
  8
1
 10
82.522
 20
191.778
  0
VERTEX
  6
CONTINUOUS
  8
1
 10
82.454
 20
191.732
  0
VERTEX
  6
CONTINUOUS
  8
1
 10
82.386
 20
191.686
  0
VERTEX
  6
CONTINUOUS
  8
1
 10
82.319
 20
191.640
  0
VERTEX
  6
CONTINUOUS
  8
1
 10
82.252
 20
191.594
  0
VERTEX
  6
CONTINUOUS
  8
1
 10
82.185
 20
191.547
  0
VERTEX
  6
CONTINUOUS
  8
1
 10
82.119
 20
191.500
  0
VERTEX
  6
CONTINUOUS
  8
1
 10
82.053
 20
191.454
  0
VERTEX
  6
CONTINUOUS
  8
1
 10
81.987
 20
191.407
  0
VERTEX
  6
CONTINUOUS
  8
1
 10
81.921
 20
191.359
  0
VERTEX
  6
CONTINUOUS
  8
1
 10
81.857
 20
191.310
  0
VERTEX
  6
CONTINUOUS
  8
1
 10
81.792
 20
191.263
  0
VERTEX
  6
CONTINUOUS
  8
1
 10
81.727
 20
191.214
  0
VERTEX
  6
CONTINUOUS
  8
1
 10
81.663
 20
191.165
  0
VERTEX
  6
CONTINUOUS
  8
1
 10
81.601
 20
191.117
  0
VERTEX
  6
CONTINUOUS
  8
1
 10
81.537
 20
191.068
  0
VERTEX
  6
CONTINUOUS
  8
1
 10
81.475
 20
191.020
  0
VERTEX
  6
CONTINUOUS
  8
1
 10
81.413
 20
190.971
  0
VERTEX
  6
CONTINUOUS
  8
1
 10
81.352
 20
190.922
  0
VERTEX
  6
CONTINUOUS
  8
1
 10
81.291
 20
190.873
  0
VERTEX
  6
CONTINUOUS
  8
1
 10
81.231
 20
190.824
  0
VERTEX
  6
CONTINUOUS
  8
1
 10
81.172
 20
190.775
  0
VERTEX
  6
CONTINUOUS
  8
1
 10
81.112
 20
190.725
  0
VERTEX
  6
CONTINUOUS
  8
1
 10
81.054
 20
190.676
  0
VERTEX
  6
CONTINUOUS
  8
1
 10
80.996
 20
190.627
  0
VERTEX
  6
CONTINUOUS
  8
1
 10
80.939
 20
190.578
  0
VERTEX
  6
CONTINUOUS
  8
1
 10
80.883
 20
190.529
  0
VERTEX
  6
CONTINUOUS
  8
1
 10
80.827
 20
190.479
  0
VERTEX
  6
CONTINUOUS
  8
1
 10
80.773
 20
190.431
  0
VERTEX
  6
CONTINUOUS
  8
1
 10
80.718
 20
190.382
  0
VERTEX
  6
CONTINUOUS
  8
1
 10
80.664
 20
190.332
  0
VERTEX
  6
CONTINUOUS
  8
1
 10
80.612
 20
190.284
  0
VERTEX
  6
CONTINUOUS
  8
1
 10
80.560
 20
190.235
  0
VERTEX
  6
CONTINUOUS
  8
1
 10
80.509
 20
190.187
  0
VERTEX
  6
CONTINUOUS
  8
1
 10
80.459
 20
190.138
  0
VERTEX
  6
CONTINUOUS
  8
1
 10
80.409
 20
190.090
  0
VERTEX
  6
CONTINUOUS
  8
1
 10
80.360
 20
190.043
  0
VERTEX
  6
CONTINUOUS
  8
1
 10
80.312
 20
189.995
  0
VERTEX
  6
CONTINUOUS
  8
1
 10
80.266
 20
189.947
  0
VERTEX
  6
CONTINUOUS
  8
1
 10
80.219
 20
189.900
  0
VERTEX
  6
CONTINUOUS
  8
1
 10
80.174
 20
189.852
  0
VERTEX
  6
CONTINUOUS
  8
1
 10
80.130
 20
189.805
  0
VERTEX
  6
CONTINUOUS
  8
1
 10
80.086
 20
189.759
  0
VERTEX
  6
CONTINUOUS
  8
1
 10
80.044
 20
189.713
  0
VERTEX
  6
CONTINUOUS
  8
1
 10
80.003
 20
189.667
  0
VERTEX
  6
CONTINUOUS
  8
1
 10
79.963
 20
189.620
  0
VERTEX
  6
CONTINUOUS
  8
1
 10
79.923
 20
189.575
  0
VERTEX
  6
CONTINUOUS
  8
1
 10
79.885
 20
189.530
  0
VERTEX
  6
CONTINUOUS
  8
1
 10
79.846
 20
189.485
  0
VERTEX
  6
CONTINUOUS
  8
1
 10
79.810
 20
189.440
  0
VERTEX
  6
CONTINUOUS
  8
1
 10
79.774
 20
189.397
  0
VERTEX
  6
CONTINUOUS
  8
1
 10
79.740
 20
189.353
  0
VERTEX
  6
CONTINUOUS
  8
1
 10
79.706
 20
189.310
  0
VERTEX
  6
CONTINUOUS
  8
1
 10
79.675
 20
189.267
  0
VERTEX
  6
CONTINUOUS
  8
1
 10
79.643
 20
189.225
  0
VERTEX
  6
CONTINUOUS
  8
1
 10
79.613
 20
189.183
  0
VERTEX
  6
CONTINUOUS
  8
1
 10
79.584
 20
189.141
  0
VERTEX
  6
CONTINUOUS
  8
1
 10
79.556
 20
189.100
  0
VERTEX
  6
CONTINUOUS
  8
1
 10
79.529
 20
189.060
  0
VERTEX
  6
CONTINUOUS
  8
1
 10
79.503
 20
189.020
  0
VERTEX
  6
CONTINUOUS
  8
1
 10
79.478
 20
188.980
  0
VERTEX
  6
CONTINUOUS
  8
1
 10
79.455
 20
188.941
  0
VERTEX
  6
CONTINUOUS
  8
1
 10
79.432
 20
188.903
  0
VERTEX
  6
CONTINUOUS
  8
1
 10
79.411
 20
188.865
  0
VERTEX
  6
CONTINUOUS
  8
1
 10
79.391
 20
188.827
  0
VERTEX
  6
CONTINUOUS
  8
1
 10
79.372
 20
188.790
  0
VERTEX
  6
CONTINUOUS
  8
1
 10
79.354
 20
188.754
  0
VERTEX
  6
CONTINUOUS
  8
1
 10
79.337
 20
188.718
  0
VERTEX
  6
CONTINUOUS
  8
1
 10
79.321
 20
188.683
  0
VERTEX
  6
CONTINUOUS
  8
1
 10
79.307
 20
188.648
  0
VERTEX
  6
CONTINUOUS
  8
1
 10
79.293
 20
188.615
  0
VERTEX
  6
CONTINUOUS
  8
1
 10
79.282
 20
188.582
  0
VERTEX
  6
CONTINUOUS
  8
1
 10
79.271
 20
188.550
  0
VERTEX
  6
CONTINUOUS
  8
1
 10
79.261
 20
188.518
  0
VERTEX
  6
CONTINUOUS
  8
1
 10
79.253
 20
188.485
  0
VERTEX
  6
CONTINUOUS
  8
1
 10
79.246
 20
188.455
  0
VERTEX
  6
CONTINUOUS
  8
1
 10
79.239
 20
188.425
  0
VERTEX
  6
CONTINUOUS
  8
1
 10
79.235
 20
188.396
  0
VERTEX
  6
CONTINUOUS
  8
1
 10
79.231
 20
188.368
  0
VERTEX
  6
CONTINUOUS
  8
1
 10
79.228
 20
188.340
  0
VERTEX
  6
CONTINUOUS
  8
1
 10
79.227
 20
188.312
  0
VERTEX
  6
CONTINUOUS
  8
1
 10
79.227
 20
188.286
  0
VERTEX
  6
CONTINUOUS
  8
1
 10
79.229
 20
188.260
  0
VERTEX
  6
CONTINUOUS
  8
1
 10
79.230
 20
188.235
  0
VERTEX
  6
CONTINUOUS
  8
1
 10
79.234
 20
188.211
  0
VERTEX
  6
CONTINUOUS
  8
1
 10
79.239
 20
188.188
  0
VERTEX
  6
CONTINUOUS
  8
1
 10
79.245
 20
188.165
  0
VERTEX
  6
CONTINUOUS
  8
1
 10
79.251
 20
188.143
  0
VERTEX
  6
CONTINUOUS
  8
1
 10
79.259
 20
188.122
  0
VERTEX
  6
CONTINUOUS
  8
1
 10
79.270
 20
188.101
  0
VERTEX
  6
CONTINUOUS
  8
1
 10
79.280
 20
188.082
  0
VERTEX
  6
CONTINUOUS
  8
1
 10
79.292
 20
188.063
  0
SEQEND
  0
LINE
  6
CONTINUOUS
  8
1
 10
94.141
 20
178.690
 11
94.141
 21
178.690
  0
LINE
  6
CONTINUOUS
  8
1
 10
93.038
 20
179.327
 11
87.716
 21
182.400
  0
LINE
  6
CONTINUOUS
  8
1
 10
94.141
 20
179.490
 11
94.141
 21
179.490
  0
LINE
  6
CONTINUOUS
  8
1
 10
94.141
 20
178.690
 11
94.141
 21
178.690
  0
LINE
  6
CONTINUOUS
  8
1
 10
94.141
 20
178.690
 11
94.141
 21
178.690
  0
LINE
  6
CONTINUOUS
  8
1
 10
94.848
 20
179.098
 11
94.848
 21
179.098
  0
LINE
  6
CONTINUOUS
  8
1
 10
89.193
 20
56.641
 11
89.193
 21
173.321
  0
LINE
  6
CONTINUOUS
  8
1
 10
87.066
 20
58.214
 11
87.066
 21
173.147
  0
LINE
  6
CONTINUOUS
  8
1
 10
87.066
 20
174.977
 11
87.066
 21
256.149
  0
LINE
  6
CONTINUOUS
  8
1
 10
89.193
 20
183.163
 11
89.193
 21
254.973
  0
LINE
  6
CONTINUOUS
  8
1
 10
89.193
 20
177.262
 11
89.193
 21
181.547
  0
LINE
  6
CONTINUOUS
  8
1
 10
89.193
 20
182.216
 11
89.193
 21
182.347
  0
LINE
  6
CONTINUOUS
  8
1
 10
85.020
 20
185.573
 11
79.999
 21
188.472
  0
LINE
  6
CONTINUOUS
  8
1
 10
79.292
 20
188.063
 11
85.020
 21
184.756
  0
LINE
  6
CONTINUOUS
  8
1
 10
79.292
 20
187.263
 11
85.020
 21
183.956
  0
POLYLINE
  6
CONTINUOUS
  8
1
 66
     1
 70
     2
  0
VERTEX
  6
CONTINUOUS
  8
1
 10
79.292
 20
188.063
  0
VERTEX
  6
CONTINUOUS
  8
1
 10
79.275
 20
188.083
  0
VERTEX
  6
CONTINUOUS
  8
1
 10
79.259
 20
188.102
  0
VERTEX
  6
CONTINUOUS
  8
1
 10
79.241
 20
188.121
  0
VERTEX
  6
CONTINUOUS
  8
1
 10
79.222
 20
188.138
  0
VERTEX
  6
CONTINUOUS
  8
1
 10
79.202
 20
188.155
  0
VERTEX
  6
CONTINUOUS
  8
1
 10
79.181
 20
188.171
  0
VERTEX
  6
CONTINUOUS
  8
1
 10
79.160
 20
188.186
  0
VERTEX
  6
CONTINUOUS
  8
1
 10
79.137
 20
188.201
  0
VERTEX
  6
CONTINUOUS
  8
1
 10
79.113
 20
188.214
  0
VERTEX
  6
CONTINUOUS
  8
1
 10
79.089
 20
188.227
  0
VERTEX
  6
CONTINUOUS
  8
1
 10
79.064
 20
188.239
  0
VERTEX
  6
CONTINUOUS
  8
1
 10
79.038
 20
188.251
  0
VERTEX
  6
CONTINUOUS
  8
1
 10
79.011
 20
188.262
  0
VERTEX
  6
CONTINUOUS
  8
1
 10
78.983
 20
188.272
  0
VERTEX
  6
CONTINUOUS
  8
1
 10
78.953
 20
188.280
  0
VERTEX
  6
CONTINUOUS
  8
1
 10
78.924
 20
188.288
  0
VERTEX
  6
CONTINUOUS
  8
1
 10
78.893
 20
188.296
  0
VERTEX
  6
CONTINUOUS
  8
1
 10
78.862
 20
188.302
  0
VERTEX
  6
CONTINUOUS
  8
1
 10
78.831
 20
188.308
  0
VERTEX
  6
CONTINUOUS
  8
1
 10
78.797
 20
188.312
  0
VERTEX
  6
CONTINUOUS
  8
1
 10
78.763
 20
188.317
  0
VERTEX
  6
CONTINUOUS
  8
1
 10
78.729
 20
188.320
  0
VERTEX
  6
CONTINUOUS
  8
1
 10
78.694
 20
188.323
  0
VERTEX
  6
CONTINUOUS
  8
1
 10
78.658
 20
188.324
  0
VERTEX
  6
CONTINUOUS
  8
1
 10
78.621
 20
188.325
  0
VERTEX
  6
CONTINUOUS
  8
1
 10
78.584
 20
188.325
  0
VERTEX
  6
CONTINUOUS
  8
1
 10
78.545
 20
188.325
  0
VERTEX
  6
CONTINUOUS
  8
1
 10
78.506
 20
188.323
  0
VERTEX
  6
CONTINUOUS
  8
1
 10
78.466
 20
188.320
  0
VERTEX
  6
CONTINUOUS
  8
1
 10
78.426
 20
188.317
  0
VERTEX
  6
CONTINUOUS
  8
1
 10
78.384
 20
188.314
  0
VERTEX
  6
CONTINUOUS
  8
1
 10
78.343
 20
188.308
  0
VERTEX
  6
CONTINUOUS
  8
1
 10
78.300
 20
188.303
  0
VERTEX
  6
CONTINUOUS
  8
1
 10
78.257
 20
188.296
  0
VERTEX
  6
CONTINUOUS
  8
1
 10
78.213
 20
188.289
  0
VERTEX
  6
CONTINUOUS
  8
1
 10
78.169
 20
188.281
  0
VERTEX
  6
CONTINUOUS
  8
1
 10
78.124
 20
188.272
  0
VERTEX
  6
CONTINUOUS
  8
1
 10
78.078
 20
188.263
  0
VERTEX
  6
CONTINUOUS
  8
1
 10
78.032
 20
188.252
  0
VERTEX
  6
CONTINUOUS
  8
1
 10
77.985
 20
188.241
  0
VERTEX
  6
CONTINUOUS
  8
1
 10
77.937
 20
188.229
  0
VERTEX
  6
CONTINUOUS
  8
1
 10
77.889
 20
188.216
  0
VERTEX
  6
CONTINUOUS
  8
1
 10
77.841
 20
188.203
  0
VERTEX
  6
CONTINUOUS
  8
1
 10
77.792
 20
188.187
  0
VERTEX
  6
CONTINUOUS
  8
1
 10
77.743
 20
188.172
  0
VERTEX
  6
CONTINUOUS
  8
1
 10
77.693
 20
188.156
  0
VERTEX
  6
CONTINUOUS
  8
1
 10
77.642
 20
188.140
  0
VERTEX
  6
CONTINUOUS
  8
1
 10
77.592
 20
188.122
  0
VERTEX
  6
CONTINUOUS
  8
1
 10
77.541
 20
188.104
  0
VERTEX
  6
CONTINUOUS
  8
1
 10
77.489
 20
188.085
  0
VERTEX
  6
CONTINUOUS
  8
1
 10
77.437
 20
188.065
  0
VERTEX
  6
CONTINUOUS
  8
1
 10
77.384
 20
188.045
  0
VERTEX
  6
CONTINUOUS
  8
1
 10
77.332
 20
188.023
  0
VERTEX
  6
CONTINUOUS
  8
1
 10
77.278
 20
188.002
  0
VERTEX
  6
CONTINUOUS
  8
1
 10
77.225
 20
187.978
  0
VERTEX
  6
CONTINUOUS
  8
1
 10
77.171
 20
187.956
  0
VERTEX
  6
CONTINUOUS
  8
1
 10
77.117
 20
187.932
  0
VERTEX
  6
CONTINUOUS
  8
1
 10
77.062
 20
187.907
  0
VERTEX
  6
CONTINUOUS
  8
1
 10
77.008
 20
187.881
  0
VERTEX
  6
CONTINUOUS
  8
1
 10
76.953
 20
187.855
  0
VERTEX
  6
CONTINUOUS
  8
1
 10
76.897
 20
187.828
  0
VERTEX
  6
CONTINUOUS
  8
1
 10
76.842
 20
187.801
  0
VERTEX
  6
CONTINUOUS
  8
1
 10
76.787
 20
187.773
  0
VERTEX
  6
CONTINUOUS
  8
1
 10
76.731
 20
187.744
  0
VERTEX
  6
CONTINUOUS
  8
1
 10
76.674
 20
187.714
  0
VERTEX
  6
CONTINUOUS
  8
1
 10
76.618
 20
187.685
  0
VERTEX
  6
CONTINUOUS
  8
1
 10
76.562
 20
187.654
  0
VERTEX
  6
CONTINUOUS
  8
1
 10
76.506
 20
187.622
  0
VERTEX
  6
CONTINUOUS
  8
1
 10
76.449
 20
187.590
  0
VERTEX
  6
CONTINUOUS
  8
1
 10
76.393
 20
187.558
  0
VERTEX
  6
CONTINUOUS
  8
1
 10
76.336
 20
187.525
  0
VERTEX
  6
CONTINUOUS
  8
1
 10
76.279
 20
187.491
  0
VERTEX
  6
CONTINUOUS
  8
1
 10
76.222
 20
187.457
  0
VERTEX
  6
CONTINUOUS
  8
1
 10
76.166
 20
187.422
  0
VERTEX
  6
CONTINUOUS
  8
1
 10
76.109
 20
187.387
  0
VERTEX
  6
CONTINUOUS
  8
1
 10
76.052
 20
187.352
  0
VERTEX
  6
CONTINUOUS
  8
1
 10
75.995
 20
187.315
  0
VERTEX
  6
CONTINUOUS
  8
1
 10
75.938
 20
187.278
  0
VERTEX
  6
CONTINUOUS
  8
1
 10
75.882
 20
187.241
  0
VERTEX
  6
CONTINUOUS
  8
1
 10
75.826
 20
187.203
  0
VERTEX
  6
CONTINUOUS
  8
1
 10
75.769
 20
187.165
  0
VERTEX
  6
CONTINUOUS
  8
1
 10
75.712
 20
187.126
  0
VERTEX
  6
CONTINUOUS
  8
1
 10
75.657
 20
187.086
  0
VERTEX
  6
CONTINUOUS
  8
1
 10
75.600
 20
187.047
  0
VERTEX
  6
CONTINUOUS
  8
1
 10
75.545
 20
187.006
  0
VERTEX
  6
CONTINUOUS
  8
1
 10
75.490
 20
186.966
  0
VERTEX
  6
CONTINUOUS
  8
1
 10
75.434
 20
186.925
  0
VERTEX
  6
CONTINUOUS
  8
1
 10
75.379
 20
186.884
  0
VERTEX
  6
CONTINUOUS
  8
1
 10
75.323
 20
186.842
  0
VERTEX
  6
CONTINUOUS
  8
1
 10
75.269
 20
186.800
  0
VERTEX
  6
CONTINUOUS
  8
1
 10
75.214
 20
186.758
  0
VERTEX
  6
CONTINUOUS
  8
1
 10
75.160
 20
186.715
  0
VERTEX
  6
CONTINUOUS
  8
1
 10
75.106
 20
186.672
  0
VERTEX
  6
CONTINUOUS
  8
1
 10
75.053
 20
186.628
  0
VERTEX
  6
CONTINUOUS
  8
1
 10
75.000
 20
186.584
  0
VERTEX
  6
CONTINUOUS
  8
1
 10
74.947
 20
186.541
  0
VERTEX
  6
CONTINUOUS
  8
1
 10
74.894
 20
186.496
  0
VERTEX
  6
CONTINUOUS
  8
1
 10
74.842
 20
186.452
  0
VERTEX
  6
CONTINUOUS
  8
1
 10
74.790
 20
186.407
  0
VERTEX
  6
CONTINUOUS
  8
1
 10
74.739
 20
186.362
  0
VERTEX
  6
CONTINUOUS
  8
1
 10
74.688
 20
186.317
  0
VERTEX
  6
CONTINUOUS
  8
1
 10
74.638
 20
186.272
  0
VERTEX
  6
CONTINUOUS
  8
1
 10
74.587
 20
186.226
  0
VERTEX
  6
CONTINUOUS
  8
1
 10
74.538
 20
186.181
  0
VERTEX
  6
CONTINUOUS
  8
1
 10
74.489
 20
186.134
  0
VERTEX
  6
CONTINUOUS
  8
1
 10
74.442
 20
186.088
  0
VERTEX
  6
CONTINUOUS
  8
1
 10
74.394
 20
186.042
  0
VERTEX
  6
CONTINUOUS
  8
1
 10
74.346
 20
185.995
  0
VERTEX
  6
CONTINUOUS
  8
1
 10
74.299
 20
185.949
  0
VERTEX
  6
CONTINUOUS
  8
1
 10
74.252
 20
185.903
  0
VERTEX
  6
CONTINUOUS
  8
1
 10
74.207
 20
185.856
  0
VERTEX
  6
CONTINUOUS
  8
1
 10
74.162
 20
185.809
  0
VERTEX
  6
CONTINUOUS
  8
1
 10
74.118
 20
185.763
  0
VERTEX
  6
CONTINUOUS
  8
1
 10
74.073
 20
185.716
  0
VERTEX
  6
CONTINUOUS
  8
1
 10
74.031
 20
185.669
  0
VERTEX
  6
CONTINUOUS
  8
1
 10
73.988
 20
185.622
  0
VERTEX
  6
CONTINUOUS
  8
1
 10
73.946
 20
185.575
  0
VERTEX
  6
CONTINUOUS
  8
1
 10
73.905
 20
185.529
  0
VERTEX
  6
CONTINUOUS
  8
1
 10
73.865
 20
185.482
  0
VERTEX
  6
CONTINUOUS
  8
1
 10
73.825
 20
185.435
  0
VERTEX
  6
CONTINUOUS
  8
1
 10
73.786
 20
185.388
  0
VERTEX
  6
CONTINUOUS
  8
1
 10
73.747
 20
185.342
  0
VERTEX
  6
CONTINUOUS
  8
1
 10
73.710
 20
185.295
  0
VERTEX
  6
CONTINUOUS
  8
1
 10
73.672
 20
185.249
  0
VERTEX
  6
CONTINUOUS
  8
1
 10
73.637
 20
185.203
  0
VERTEX
  6
CONTINUOUS
  8
1
 10
73.601
 20
185.157
  0
VERTEX
  6
CONTINUOUS
  8
1
 10
73.567
 20
185.110
  0
VERTEX
  6
CONTINUOUS
  8
1
 10
73.533
 20
185.065
  0
VERTEX
  6
CONTINUOUS
  8
1
 10
73.500
 20
185.019
  0
VERTEX
  6
CONTINUOUS
  8
1
 10
73.468
 20
184.974
  0
VERTEX
  6
CONTINUOUS
  8
1
 10
73.436
 20
184.928
  0
VERTEX
  6
CONTINUOUS
  8
1
 10
73.406
 20
184.884
  0
VERTEX
  6
CONTINUOUS
  8
1
 10
73.376
 20
184.839
  0
VERTEX
  6
CONTINUOUS
  8
1
 10
73.348
 20
184.794
  0
VERTEX
  6
CONTINUOUS
  8
1
 10
73.319
 20
184.749
  0
VERTEX
  6
CONTINUOUS
  8
1
 10
73.292
 20
184.706
  0
VERTEX
  6
CONTINUOUS
  8
1
 10
73.265
 20
184.662
  0
VERTEX
  6
CONTINUOUS
  8
1
 10
73.240
 20
184.619
  0
VERTEX
  6
CONTINUOUS
  8
1
 10
73.216
 20
184.576
  0
VERTEX
  6
CONTINUOUS
  8
1
 10
73.192
 20
184.532
  0
VERTEX
  6
CONTINUOUS
  8
1
 10
73.169
 20
184.490
  0
VERTEX
  6
CONTINUOUS
  8
1
 10
73.147
 20
184.448
  0
VERTEX
  6
CONTINUOUS
  8
1
 10
73.127
 20
184.406
  0
VERTEX
  6
CONTINUOUS
  8
1
 10
73.107
 20
184.365
  0
VERTEX
  6
CONTINUOUS
  8
1
 10
73.088
 20
184.324
  0
VERTEX
  6
CONTINUOUS
  8
1
 10
73.070
 20
184.284
  0
VERTEX
  6
CONTINUOUS
  8
1
 10
73.053
 20
184.244
  0
VERTEX
  6
CONTINUOUS
  8
1
 10
73.037
 20
184.204
  0
VERTEX
  6
CONTINUOUS
  8
1
 10
73.021
 20
184.165
  0
VERTEX
  6
CONTINUOUS
  8
1
 10
73.008
 20
184.125
  0
VERTEX
  6
CONTINUOUS
  8
1
 10
72.994
 20
184.087
  0
VERTEX
  6
CONTINUOUS
  8
1
 10
72.982
 20
184.050
  0
VERTEX
  6
CONTINUOUS
  8
1
 10
72.970
 20
184.012
  0
VERTEX
  6
CONTINUOUS
  8
1
 10
72.960
 20
183.975
  0
VERTEX
  6
CONTINUOUS
  8
1
 10
72.951
 20
183.939
  0
VERTEX
  6
CONTINUOUS
  8
1
 10
72.942
 20
183.903
  0
VERTEX
  6
CONTINUOUS
  8
1
 10
72.934
 20
183.867
  0
VERTEX
  6
CONTINUOUS
  8
1
 10
72.928
 20
183.833
  0
VERTEX
  6
CONTINUOUS
  8
1
 10
72.923
 20
183.798
  0
VERTEX
  6
CONTINUOUS
  8
1
 10
72.919
 20
183.765
  0
VERTEX
  6
CONTINUOUS
  8
1
 10
72.915
 20
183.731
  0
VERTEX
  6
CONTINUOUS
  8
1
 10
72.913
 20
183.699
  0
VERTEX
  6
CONTINUOUS
  8
1
 10
72.911
 20
183.667
  0
VERTEX
  6
CONTINUOUS
  8
1
 10
72.910
 20
183.635
  0
VERTEX
  6
CONTINUOUS
  8
1
 10
72.911
 20
183.605
  0
VERTEX
  6
CONTINUOUS
  8
1
 10
72.912
 20
183.574
  0
VERTEX
  6
CONTINUOUS
  8
1
 10
72.914
 20
183.545
  0
VERTEX
  6
CONTINUOUS
  8
1
 10
72.918
 20
183.516
  0
VERTEX
  6
CONTINUOUS
  8
1
 10
72.923
 20
183.488
  0
VERTEX
  6
CONTINUOUS
  8
1
 10
72.928
 20
183.460
  0
VERTEX
  6
CONTINUOUS
  8
1
 10
72.935
 20
183.434
  0
VERTEX
  6
CONTINUOUS
  8
1
 10
72.941
 20
183.407
  0
VERTEX
  6
CONTINUOUS
  8
1
 10
72.950
 20
183.381
  0
VERTEX
  6
CONTINUOUS
  8
1
 10
72.960
 20
183.357
  0
VERTEX
  6
CONTINUOUS
  8
1
 10
72.969
 20
183.333
  0
VERTEX
  6
CONTINUOUS
  8
1
 10
72.981
 20
183.310
  0
VERTEX
  6
CONTINUOUS
  8
1
 10
72.993
 20
183.287
  0
VERTEX
  6
CONTINUOUS
  8
1
 10
73.006
 20
183.264
  0
VERTEX
  6
CONTINUOUS
  8
1
 10
73.021
 20
183.244
  0
VERTEX
  6
CONTINUOUS
  8
1
 10
73.036
 20
183.223
  0
VERTEX
  6
CONTINUOUS
  8
1
 10
73.053
 20
183.203
  0
VERTEX
  6
CONTINUOUS
  8
1
 10
73.069
 20
183.184
  0
VERTEX
  6
CONTINUOUS
  8
1
 10
73.087
 20
183.165
  0
VERTEX
  6
CONTINUOUS
  8
1
 10
73.106
 20
183.148
  0
VERTEX
  6
CONTINUOUS
  8
1
 10
73.126
 20
183.131
  0
VERTEX
  6
CONTINUOUS
  8
1
 10
73.147
 20
183.115
  0
VERTEX
  6
CONTINUOUS
  8
1
 10
73.168
 20
183.100
  0
VERTEX
  6
CONTINUOUS
  8
1
 10
73.191
 20
183.085
  0
VERTEX
  6
CONTINUOUS
  8
1
 10
73.215
 20
183.072
  0
VERTEX
  6
CONTINUOUS
  8
1
 10
73.239
 20
183.059
  0
VERTEX
  6
CONTINUOUS
  8
1
 10
73.264
 20
183.047
  0
VERTEX
  6
CONTINUOUS
  8
1
 10
73.290
 20
183.035
  0
VERTEX
  6
CONTINUOUS
  8
1
 10
73.317
 20
183.024
  0
VERTEX
  6
CONTINUOUS
  8
1
 10
73.345
 20
183.014
  0
VERTEX
  6
CONTINUOUS
  8
1
 10
73.375
 20
183.006
  0
VERTEX
  6
CONTINUOUS
  8
1
 10
73.404
 20
182.998
  0
VERTEX
  6
CONTINUOUS
  8
1
 10
73.435
 20
182.990
  0
VERTEX
  6
CONTINUOUS
  8
1
 10
73.466
 20
182.984
  0
VERTEX
  6
CONTINUOUS
  8
1
 10
73.497
 20
182.978
  0
VERTEX
  6
CONTINUOUS
  8
1
 10
73.531
 20
182.974
  0
VERTEX
  6
CONTINUOUS
  8
1
 10
73.565
 20
182.969
  0
VERTEX
  6
CONTINUOUS
  8
1
 10
73.599
 20
182.966
  0
VERTEX
  6
CONTINUOUS
  8
1
 10
73.634
 20
182.963
  0
VERTEX
  6
CONTINUOUS
  8
1
 10
73.670
 20
182.962
  0
VERTEX
  6
CONTINUOUS
  8
1
 10
73.707
 20
182.961
  0
VERTEX
  6
CONTINUOUS
  8
1
 10
73.744
 20
182.961
  0
VERTEX
  6
CONTINUOUS
  8
1
 10
73.783
 20
182.961
  0
VERTEX
  6
CONTINUOUS
  8
1
 10
73.822
 20
182.963
  0
VERTEX
  6
CONTINUOUS
  8
1
 10
73.862
 20
182.966
  0
VERTEX
  6
CONTINUOUS
  8
1
 10
73.902
 20
182.969
  0
VERTEX
  6
CONTINUOUS
  8
1
 10
73.944
 20
182.972
  0
VERTEX
  6
CONTINUOUS
  8
1
 10
73.985
 20
182.978
  0
VERTEX
  6
CONTINUOUS
  8
1
 10
74.028
 20
182.983
  0
VERTEX
  6
CONTINUOUS
  8
1
 10
74.071
 20
182.990
  0
VERTEX
  6
CONTINUOUS
  8
1
 10
74.115
 20
182.997
  0
VERTEX
  6
CONTINUOUS
  8
1
 10
74.159
 20
183.005
  0
VERTEX
  6
CONTINUOUS
  8
1
 10
74.204
 20
183.014
  0
VERTEX
  6
CONTINUOUS
  8
1
 10
74.250
 20
183.023
  0
VERTEX
  6
CONTINUOUS
  8
1
 10
74.296
 20
183.034
  0
VERTEX
  6
CONTINUOUS
  8
1
 10
74.343
 20
183.045
  0
VERTEX
  6
CONTINUOUS
  8
1
 10
74.391
 20
183.057
  0
VERTEX
  6
CONTINUOUS
  8
1
 10
74.439
 20
183.070
  0
VERTEX
  6
CONTINUOUS
  8
1
 10
74.487
 20
183.083
  0
VERTEX
  6
CONTINUOUS
  8
1
 10
74.536
 20
183.099
  0
VERTEX
  6
CONTINUOUS
  8
1
 10
74.585
 20
183.114
  0
VERTEX
  6
CONTINUOUS
  8
1
 10
74.635
 20
183.130
  0
VERTEX
  6
CONTINUOUS
  8
1
 10
74.686
 20
183.146
  0
VERTEX
  6
CONTINUOUS
  8
1
 10
74.736
 20
183.164
  0
VERTEX
  6
CONTINUOUS
  8
1
 10
74.787
 20
183.182
  0
VERTEX
  6
CONTINUOUS
  8
1
 10
74.839
 20
183.201
  0
VERTEX
  6
CONTINUOUS
  8
1
 10
74.891
 20
183.221
  0
VERTEX
  6
CONTINUOUS
  8
1
 10
74.944
 20
183.241
  0
VERTEX
  6
CONTINUOUS
  8
1
 10
74.996
 20
183.263
  0
VERTEX
  6
CONTINUOUS
  8
1
 10
75.050
 20
183.284
  0
VERTEX
  6
CONTINUOUS
  8
1
 10
75.103
 20
183.308
  0
VERTEX
  6
CONTINUOUS
  8
1
 10
75.157
 20
183.330
  0
VERTEX
  6
CONTINUOUS
  8
1
 10
75.211
 20
183.354
  0
VERTEX
  6
CONTINUOUS
  8
1
 10
75.266
 20
183.379
  0
VERTEX
  6
CONTINUOUS
  8
1
 10
75.320
 20
183.405
  0
VERTEX
  6
CONTINUOUS
  8
1
 10
75.375
 20
183.431
  0
VERTEX
  6
CONTINUOUS
  8
1
 10
75.431
 20
183.458
  0
VERTEX
  6
CONTINUOUS
  8
1
 10
75.486
 20
183.485
  0
VERTEX
  6
CONTINUOUS
  8
1
 10
75.541
 20
183.513
  0
VERTEX
  6
CONTINUOUS
  8
1
 10
75.597
 20
183.542
  0
VERTEX
  6
CONTINUOUS
  8
1
 10
75.654
 20
183.572
  0
VERTEX
  6
CONTINUOUS
  8
1
 10
75.710
 20
183.601
  0
VERTEX
  6
CONTINUOUS
  8
1
 10
75.766
 20
183.632
  0
VERTEX
  6
CONTINUOUS
  8
1
 10
75.822
 20
183.664
  0
VERTEX
  6
CONTINUOUS
  8
1
 10
75.879
 20
183.696
  0
VERTEX
  6
CONTINUOUS
  8
1
 10
75.935
 20
183.728
  0
VERTEX
  6
CONTINUOUS
  8
1
 10
75.992
 20
183.761
  0
VERTEX
  6
CONTINUOUS
  8
1
 10
76.049
 20
183.795
  0
VERTEX
  6
CONTINUOUS
  8
1
 10
76.106
 20
183.829
  0
VERTEX
  6
CONTINUOUS
  8
1
 10
76.162
 20
183.864
  0
VERTEX
  6
CONTINUOUS
  8
1
 10
76.219
 20
183.899
  0
VERTEX
  6
CONTINUOUS
  8
1
 10
76.276
 20
183.934
  0
VERTEX
  6
CONTINUOUS
  8
1
 10
76.333
 20
183.971
  0
VERTEX
  6
CONTINUOUS
  8
1
 10
76.390
 20
184.008
  0
VERTEX
  6
CONTINUOUS
  8
1
 10
76.446
 20
184.045
  0
VERTEX
  6
CONTINUOUS
  8
1
 10
76.502
 20
184.083
  0
VERTEX
  6
CONTINUOUS
  8
1
 10
76.559
 20
184.121
  0
VERTEX
  6
CONTINUOUS
  8
1
 10
76.616
 20
184.160
  0
VERTEX
  6
CONTINUOUS
  8
1
 10
76.671
 20
184.200
  0
VERTEX
  6
CONTINUOUS
  8
1
 10
76.728
 20
184.239
  0
VERTEX
  6
CONTINUOUS
  8
1
 10
76.783
 20
184.280
  0
VERTEX
  6
CONTINUOUS
  8
1
 10
76.838
 20
184.320
  0
VERTEX
  6
CONTINUOUS
  8
1
 10
76.894
 20
184.361
  0
VERTEX
  6
CONTINUOUS
  8
1
 10
76.949
 20
184.402
  0
VERTEX
  6
CONTINUOUS
  8
1
 10
77.005
 20
184.444
  0
VERTEX
  6
CONTINUOUS
  8
1
 10
77.059
 20
184.486
  0
VERTEX
  6
CONTINUOUS
  8
1
 10
77.114
 20
184.528
  0
VERTEX
  6
CONTINUOUS
  8
1
 10
77.168
 20
184.571
  0
VERTEX
  6
CONTINUOUS
  8
1
 10
77.222
 20
184.614
  0
VERTEX
  6
CONTINUOUS
  8
1
 10
77.275
 20
184.658
  0
VERTEX
  6
CONTINUOUS
  8
1
 10
77.328
 20
184.702
  0
VERTEX
  6
CONTINUOUS
  8
1
 10
77.381
 20
184.745
  0
VERTEX
  6
CONTINUOUS
  8
1
 10
77.434
 20
184.790
  0
VERTEX
  6
CONTINUOUS
  8
1
 10
77.486
 20
184.834
  0
VERTEX
  6
CONTINUOUS
  8
1
 10
77.538
 20
184.879
  0
VERTEX
  6
CONTINUOUS
  8
1
 10
77.589
 20
184.924
  0
VERTEX
  6
CONTINUOUS
  8
1
 10
77.640
 20
184.969
  0
VERTEX
  6
CONTINUOUS
  8
1
 10
77.690
 20
185.014
  0
VERTEX
  6
CONTINUOUS
  8
1
 10
77.741
 20
185.060
  0
VERTEX
  6
CONTINUOUS
  8
1
 10
77.790
 20
185.105
  0
VERTEX
  6
CONTINUOUS
  8
1
 10
77.839
 20
185.152
  0
VERTEX
  6
CONTINUOUS
  8
1
 10
77.886
 20
185.198
  0
VERTEX
  6
CONTINUOUS
  8
1
 10
77.934
 20
185.244
  0
VERTEX
  6
CONTINUOUS
  8
1
 10
77.982
 20
185.291
  0
VERTEX
  6
CONTINUOUS
  8
1
 10
78.029
 20
185.337
  0
VERTEX
  6
CONTINUOUS
  8
1
 10
78.076
 20
185.383
  0
VERTEX
  6
CONTINUOUS
  8
1
 10
78.121
 20
185.430
  0
VERTEX
  6
CONTINUOUS
  8
1
 10
78.166
 20
185.477
  0
VERTEX
  6
CONTINUOUS
  8
1
 10
78.210
 20
185.523
  0
VERTEX
  6
CONTINUOUS
  8
1
 10
78.255
 20
185.570
  0
VERTEX
  6
CONTINUOUS
  8
1
 10
78.297
 20
185.617
  0
VERTEX
  6
CONTINUOUS
  8
1
 10
78.340
 20
185.664
  0
VERTEX
  6
CONTINUOUS
  8
1
 10
78.382
 20
185.711
  0
VERTEX
  6
CONTINUOUS
  8
1
 10
78.423
 20
185.757
  0
VERTEX
  6
CONTINUOUS
  8
1
 10
78.463
 20
185.804
  0
VERTEX
  6
CONTINUOUS
  8
1
 10
78.504
 20
185.851
  0
VERTEX
  6
CONTINUOUS
  8
1
 10
78.542
 20
185.898
  0
VERTEX
  6
CONTINUOUS
  8
1
 10
78.581
 20
185.944
  0
VERTEX
  6
CONTINUOUS
  8
1
 10
78.618
 20
185.991
  0
VERTEX
  6
CONTINUOUS
  8
1
 10
78.656
 20
186.037
  0
VERTEX
  6
CONTINUOUS
  8
1
 10
78.691
 20
186.083
  0
VERTEX
  6
CONTINUOUS
  8
1
 10
78.727
 20
186.129
  0
VERTEX
  6
CONTINUOUS
  8
1
 10
78.761
 20
186.176
  0
VERTEX
  6
CONTINUOUS
  8
1
 10
78.795
 20
186.221
  0
VERTEX
  6
CONTINUOUS
  8
1
 10
78.828
 20
186.267
  0
VERTEX
  6
CONTINUOUS
  8
1
 10
78.860
 20
186.312
  0
VERTEX
  6
CONTINUOUS
  8
1
 10
78.892
 20
186.358
  0
VERTEX
  6
CONTINUOUS
  8
1
 10
78.922
 20
186.402
  0
VERTEX
  6
CONTINUOUS
  8
1
 10
78.952
 20
186.447
  0
VERTEX
  6
CONTINUOUS
  8
1
 10
78.980
 20
186.492
  0
VERTEX
  6
CONTINUOUS
  8
1
 10
79.009
 20
186.537
  0
VERTEX
  6
CONTINUOUS
  8
1
 10
79.036
 20
186.580
  0
VERTEX
  6
CONTINUOUS
  8
1
 10
79.063
 20
186.624
  0
VERTEX
  6
CONTINUOUS
  8
1
 10
79.088
 20
186.667
  0
VERTEX
  6
CONTINUOUS
  8
1
 10
79.112
 20
186.710
  0
VERTEX
  6
CONTINUOUS
  8
1
 10
79.136
 20
186.754
  0
VERTEX
  6
CONTINUOUS
  8
1
 10
79.159
 20
186.796
  0
VERTEX
  6
CONTINUOUS
  8
1
 10
79.181
 20
186.838
  0
VERTEX
  6
CONTINUOUS
  8
1
 10
79.201
 20
186.880
  0
VERTEX
  6
CONTINUOUS
  8
1
 10
79.221
 20
186.921
  0
VERTEX
  6
CONTINUOUS
  8
1
 10
79.240
 20
186.962
  0
VERTEX
  6
CONTINUOUS
  8
1
 10
79.258
 20
187.002
  0
VERTEX
  6
CONTINUOUS
  8
1
 10
79.275
 20
187.042
  0
VERTEX
  6
CONTINUOUS
  8
1
 10
79.291
 20
187.082
  0
VERTEX
  6
CONTINUOUS
  8
1
 10
79.307
 20
187.121
  0
VERTEX
  6
CONTINUOUS
  8
1
 10
79.321
 20
187.160
  0
VERTEX
  6
CONTINUOUS
  8
1
 10
79.334
 20
187.199
  0
VERTEX
  6
CONTINUOUS
  8
1
 10
79.345
 20
187.232
  0
SEQEND
  0
POLYLINE
  6
CONTINUOUS
  8
1
 66
     1
 70
     2
  0
VERTEX
  6
CONTINUOUS
  8
1
 10
102.800
 20
34.279
  0
VERTEX
  6
CONTINUOUS
  8
1
 10
102.828
 20
34.354
  0
VERTEX
  6
CONTINUOUS
  8
1
 10
102.853
 20
34.430
  0
VERTEX
  6
CONTINUOUS
  8
1
 10
102.879
 20
34.506
  0
VERTEX
  6
CONTINUOUS
  8
1
 10
102.903
 20
34.582
  0
VERTEX
  6
CONTINUOUS
  8
1
 10
102.925
 20
34.658
  0
VERTEX
  6
CONTINUOUS
  8
1
 10
102.948
 20
34.735
  0
VERTEX
  6
CONTINUOUS
  8
1
 10
102.970
 20
34.811
  0
VERTEX
  6
CONTINUOUS
  8
1
 10
102.990
 20
34.889
  0
VERTEX
  6
CONTINUOUS
  8
1
 10
103.010
 20
34.966
  0
VERTEX
  6
CONTINUOUS
  8
1
 10
103.029
 20
35.042
  0
VERTEX
  6
CONTINUOUS
  8
1
 10
103.047
 20
35.120
  0
VERTEX
  6
CONTINUOUS
  8
1
 10
103.063
 20
35.197
  0
VERTEX
  6
CONTINUOUS
  8
1
 10
103.080
 20
35.275
  0
VERTEX
  6
CONTINUOUS
  8
1
 10
103.095
 20
35.351
  0
VERTEX
  6
CONTINUOUS
  8
1
 10
103.108
 20
35.429
  0
VERTEX
  6
CONTINUOUS
  8
1
 10
103.121
 20
35.506
  0
VERTEX
  6
CONTINUOUS
  8
1
 10
103.133
 20
35.583
  0
VERTEX
  6
CONTINUOUS
  8
1
 10
103.145
 20
35.661
  0
VERTEX
  6
CONTINUOUS
  8
1
 10
103.154
 20
35.737
  0
VERTEX
  6
CONTINUOUS
  8
1
 10
103.163
 20
35.815
  0
VERTEX
  6
CONTINUOUS
  8
1
 10
103.172
 20
35.891
  0
VERTEX
  6
CONTINUOUS
  8
1
 10
103.179
 20
35.968
  0
VERTEX
  6
CONTINUOUS
  8
1
 10
103.185
 20
36.044
  0
VERTEX
  6
CONTINUOUS
  8
1
 10
103.190
 20
36.120
  0
VERTEX
  6
CONTINUOUS
  8
1
 10
103.195
 20
36.196
  0
VERTEX
  6
CONTINUOUS
  8
1
 10
103.198
 20
36.271
  0
VERTEX
  6
CONTINUOUS
  8
1
 10
103.200
 20
36.347
  0
VERTEX
  6
CONTINUOUS
  8
1
 10
103.201
 20
36.423
  0
VERTEX
  6
CONTINUOUS
  8
1
 10
103.201
 20
36.497
  0
VERTEX
  6
CONTINUOUS
  8
1
 10
103.200
 20
36.571
  0
VERTEX
  6
CONTINUOUS
  8
1
 10
103.198
 20
36.645
  0
VERTEX
  6
CONTINUOUS
  8
1
 10
103.196
 20
36.719
  0
VERTEX
  6
CONTINUOUS
  8
1
 10
103.192
 20
36.792
  0
VERTEX
  6
CONTINUOUS
  8
1
 10
103.187
 20
36.865
  0
VERTEX
  6
CONTINUOUS
  8
1
 10
103.181
 20
36.937
  0
VERTEX
  6
CONTINUOUS
  8
1
 10
103.174
 20
37.009
  0
VERTEX
  6
CONTINUOUS
  8
1
 10
103.167
 20
37.080
  0
VERTEX
  6
CONTINUOUS
  8
1
 10
103.158
 20
37.150
  0
VERTEX
  6
CONTINUOUS
  8
1
 10
103.148
 20
37.221
  0
VERTEX
  6
CONTINUOUS
  8
1
 10
103.138
 20
37.290
  0
VERTEX
  6
CONTINUOUS
  8
1
 10
103.126
 20
37.358
  0
VERTEX
  6
CONTINUOUS
  8
1
 10
103.114
 20
37.427
  0
VERTEX
  6
CONTINUOUS
  8
1
 10
103.100
 20
37.495
  0
VERTEX
  6
CONTINUOUS
  8
1
 10
103.085
 20
37.562
  0
VERTEX
  6
CONTINUOUS
  8
1
 10
103.070
 20
37.628
  0
VERTEX
  6
CONTINUOUS
  8
1
 10
103.053
 20
37.694
  0
VERTEX
  6
CONTINUOUS
  8
1
 10
103.036
 20
37.759
  0
VERTEX
  6
CONTINUOUS
  8
1
 10
103.017
 20
37.823
  0
VERTEX
  6
CONTINUOUS
  8
1
 10
102.998
 20
37.886
  0
VERTEX
  6
CONTINUOUS
  8
1
 10
102.978
 20
37.949
  0
VERTEX
  6
CONTINUOUS
  8
1
 10
102.957
 20
38.011
  0
VERTEX
  6
CONTINUOUS
  8
1
 10
102.935
 20
38.072
  0
VERTEX
  6
CONTINUOUS
  8
1
 10
102.912
 20
38.132
  0
VERTEX
  6
CONTINUOUS
  8
1
 10
102.888
 20
38.191
  0
VERTEX
  6
CONTINUOUS
  8
1
 10
102.863
 20
38.250
  0
VERTEX
  6
CONTINUOUS
  8
1
 10
102.837
 20
38.307
  0
VERTEX
  6
CONTINUOUS
  8
1
 10
102.811
 20
38.364
  0
VERTEX
  6
CONTINUOUS
  8
1
 10
102.783
 20
38.420
  0
VERTEX
  6
CONTINUOUS
  8
1
 10
102.755
 20
38.475
  0
VERTEX
  6
CONTINUOUS
  8
1
 10
102.726
 20
38.528
  0
VERTEX
  6
CONTINUOUS
  8
1
 10
102.696
 20
38.581
  0
VERTEX
  6
CONTINUOUS
  8
1
 10
102.665
 20
38.633
  0
VERTEX
  6
CONTINUOUS
  8
1
 10
102.634
 20
38.684
  0
VERTEX
  6
CONTINUOUS
  8
1
 10
102.601
 20
38.733
  0
VERTEX
  6
CONTINUOUS
  8
1
 10
102.567
 20
38.782
  0
VERTEX
  6
CONTINUOUS
  8
1
 10
102.534
 20
38.830
  0
VERTEX
  6
CONTINUOUS
  8
1
 10
102.499
 20
38.877
  0
VERTEX
  6
CONTINUOUS
  8
1
 10
102.463
 20
38.922
  0
VERTEX
  6
CONTINUOUS
  8
1
 10
102.427
 20
38.967
  0
VERTEX
  6
CONTINUOUS
  8
1
 10
102.390
 20
39.010
  0
VERTEX
  6
CONTINUOUS
  8
1
 10
102.351
 20
39.052
  0
VERTEX
  6
CONTINUOUS
  8
1
 10
102.312
 20
39.093
  0
VERTEX
  6
CONTINUOUS
  8
1
 10
102.274
 20
39.133
  0
VERTEX
  6
CONTINUOUS
  8
1
 10
102.234
 20
39.172
  0
VERTEX
  6
CONTINUOUS
  8
1
 10
102.192
 20
39.210
  0
VERTEX
  6
CONTINUOUS
  8
1
 10
102.151
 20
39.246
  0
VERTEX
  6
CONTINUOUS
  8
1
 10
102.108
 20
39.282
  0
VERTEX
  6
CONTINUOUS
  8
1
 10
102.065
 20
39.315
  0
VERTEX
  6
CONTINUOUS
  8
1
 10
102.022
 20
39.348
  0
VERTEX
  6
CONTINUOUS
  8
1
 10
101.978
 20
39.379
  0
VERTEX
  6
CONTINUOUS
  8
1
 10
101.933
 20
39.410
  0
VERTEX
  6
CONTINUOUS
  8
1
 10
101.888
 20
39.438
  0
VERTEX
  6
CONTINUOUS
  8
1
 10
101.842
 20
39.467
  0
VERTEX
  6
CONTINUOUS
  8
1
 10
101.795
 20
39.493
  0
VERTEX
  6
CONTINUOUS
  8
1
 10
101.748
 20
39.519
  0
VERTEX
  6
CONTINUOUS
  8
1
 10
101.700
 20
39.543
  0
VERTEX
  6
CONTINUOUS
  8
1
 10
101.652
 20
39.566
  0
VERTEX
  6
CONTINUOUS
  8
1
 10
101.603
 20
39.587
  0
VERTEX
  6
CONTINUOUS
  8
1
 10
101.554
 20
39.607
  0
VERTEX
  6
CONTINUOUS
  8
1
 10
101.505
 20
39.626
  0
VERTEX
  6
CONTINUOUS
  8
1
 10
101.455
 20
39.643
  0
VERTEX
  6
CONTINUOUS
  8
1
 10
101.404
 20
39.659
  0
VERTEX
  6
CONTINUOUS
  8
1
 10
101.353
 20
39.674
  0
VERTEX
  6
CONTINUOUS
  8
1
 10
101.302
 20
39.688
  0
VERTEX
  6
CONTINUOUS
  8
1
 10
101.250
 20
39.700
  0
VERTEX
  6
CONTINUOUS
  8
1
 10
101.197
 20
39.711
  0
VERTEX
  6
CONTINUOUS
  8
1
 10
101.145
 20
39.721
  0
VERTEX
  6
CONTINUOUS
  8
1
 10
101.091
 20
39.728
  0
VERTEX
  6
CONTINUOUS
  8
1
 10
101.038
 20
39.736
  0
VERTEX
  6
CONTINUOUS
  8
1
 10
100.984
 20
39.741
  0
VERTEX
  6
CONTINUOUS
  8
1
 10
100.930
 20
39.746
  0
VERTEX
  6
CONTINUOUS
  8
1
 10
100.876
 20
39.748
  0
VERTEX
  6
CONTINUOUS
  8
1
 10
100.821
 20
39.750
  0
VERTEX
  6
CONTINUOUS
  8
1
 10
100.766
 20
39.750
  0
VERTEX
  6
CONTINUOUS
  8
1
 10
100.711
 20
39.749
  0
VERTEX
  6
CONTINUOUS
  8
1
 10
100.655
 20
39.747
  0
VERTEX
  6
CONTINUOUS
  8
1
 10
100.599
 20
39.743
  0
VERTEX
  6
CONTINUOUS
  8
1
 10
100.544
 20
39.737
  0
VERTEX
  6
CONTINUOUS
  8
1
 10
100.487
 20
39.730
  0
VERTEX
  6
CONTINUOUS
  8
1
 10
100.431
 20
39.723
  0
VERTEX
  6
CONTINUOUS
  8
1
 10
100.375
 20
39.714
  0
VERTEX
  6
CONTINUOUS
  8
1
 10
100.318
 20
39.702
  0
VERTEX
  6
CONTINUOUS
  8
1
 10
100.262
 20
39.691
  0
VERTEX
  6
CONTINUOUS
  8
1
 10
100.205
 20
39.677
  0
VERTEX
  6
CONTINUOUS
  8
1
 10
100.149
 20
39.663
  0
VERTEX
  6
CONTINUOUS
  8
1
 10
100.092
 20
39.646
  0
VERTEX
  6
CONTINUOUS
  8
1
 10
100.035
 20
39.630
  0
VERTEX
  6
CONTINUOUS
  8
1
 10
99.978
 20
39.611
  0
VERTEX
  6
CONTINUOUS
  8
1
 10
99.921
 20
39.592
  0
VERTEX
  6
CONTINUOUS
  8
1
 10
99.864
 20
39.570
  0
VERTEX
  6
CONTINUOUS
  8
1
 10
99.807
 20
39.548
  0
VERTEX
  6
CONTINUOUS
  8
1
 10
99.750
 20
39.524
  0
VERTEX
  6
CONTINUOUS
  8
1
 10
99.693
 20
39.499
  0
VERTEX
  6
CONTINUOUS
  8
1
 10
99.637
 20
39.472
  0
VERTEX
  6
CONTINUOUS
  8
1
 10
99.580
 20
39.445
  0
VERTEX
  6
CONTINUOUS
  8
1
 10
99.523
 20
39.416
  0
VERTEX
  6
CONTINUOUS
  8
1
 10
99.467
 20
39.386
  0
VERTEX
  6
CONTINUOUS
  8
1
 10
99.411
 20
39.355
  0
VERTEX
  6
CONTINUOUS
  8
1
 10
99.354
 20
39.322
  0
VERTEX
  6
CONTINUOUS
  8
1
 10
99.298
 20
39.288
  0
VERTEX
  6
CONTINUOUS
  8
1
 10
99.243
 20
39.253
  0
VERTEX
  6
CONTINUOUS
  8
1
 10
99.187
 20
39.217
  0
VERTEX
  6
CONTINUOUS
  8
1
 10
99.132
 20
39.179
  0
VERTEX
  6
CONTINUOUS
  8
1
 10
99.077
 20
39.141
  0
VERTEX
  6
CONTINUOUS
  8
1
 10
99.022
 20
39.101
  0
VERTEX
  6
CONTINUOUS
  8
1
 10
98.967
 20
39.060
  0
VERTEX
  6
CONTINUOUS
  8
1
 10
98.913
 20
39.019
  0
VERTEX
  6
CONTINUOUS
  8
1
 10
98.859
 20
38.975
  0
VERTEX
  6
CONTINUOUS
  8
1
 10
98.805
 20
38.931
  0
VERTEX
  6
CONTINUOUS
  8
1
 10
98.753
 20
38.886
  0
VERTEX
  6
CONTINUOUS
  8
1
 10
98.700
 20
38.840
  0
VERTEX
  6
CONTINUOUS
  8
1
 10
98.647
 20
38.792
  0
VERTEX
  6
CONTINUOUS
  8
1
 10
98.595
 20
38.744
  0
VERTEX
  6
CONTINUOUS
  8
1
 10
98.544
 20
38.694
  0
VERTEX
  6
CONTINUOUS
  8
1
 10
98.492
 20
38.644
  0
VERTEX
  6
CONTINUOUS
  8
1
 10
98.442
 20
38.592
  0
VERTEX
  6
CONTINUOUS
  8
1
 10
98.390
 20
38.539
  0
VERTEX
  6
CONTINUOUS
  8
1
 10
98.341
 20
38.486
  0
VERTEX
  6
CONTINUOUS
  8
1
 10
98.291
 20
38.431
  0
VERTEX
  6
CONTINUOUS
  8
1
 10
98.242
 20
38.375
  0
VERTEX
  6
CONTINUOUS
  8
1
 10
98.194
 20
38.319
  0
VERTEX
  6
CONTINUOUS
  8
1
 10
98.147
 20
38.262
  0
VERTEX
  6
CONTINUOUS
  8
1
 10
98.099
 20
38.204
  0
VERTEX
  6
CONTINUOUS
  8
1
 10
98.052
 20
38.144
  0
VERTEX
  6
CONTINUOUS
  8
1
 10
98.006
 20
38.085
  0
VERTEX
  6
CONTINUOUS
  8
1
 10
97.960
 20
38.023
  0
VERTEX
  6
CONTINUOUS
  8
1
 10
97.915
 20
37.962
  0
VERTEX
  6
CONTINUOUS
  8
1
 10
97.871
 20
37.899
  0
VERTEX
  6
CONTINUOUS
  8
1
 10
97.827
 20
37.837
  0
VERTEX
  6
CONTINUOUS
  8
1
 10
97.785
 20
37.772
  0
VERTEX
  6
CONTINUOUS
  8
1
 10
97.742
 20
37.707
  0
VERTEX
  6
CONTINUOUS
  8
1
 10
97.700
 20
37.642
  0
VERTEX
  6
CONTINUOUS
  8
1
 10
97.659
 20
37.576
  0
VERTEX
  6
CONTINUOUS
  8
1
 10
97.619
 20
37.509
  0
VERTEX
  6
CONTINUOUS
  8
1
 10
97.579
 20
37.442
  0
VERTEX
  6
CONTINUOUS
  8
1
 10
97.539
 20
37.373
  0
VERTEX
  6
CONTINUOUS
  8
1
 10
97.502
 20
37.305
  0
VERTEX
  6
CONTINUOUS
  8
1
 10
97.464
 20
37.234
  0
VERTEX
  6
CONTINUOUS
  8
1
 10
97.427
 20
37.165
  0
VERTEX
  6
CONTINUOUS
  8
1
 10
97.391
 20
37.094
  0
VERTEX
  6
CONTINUOUS
  8
1
 10
97.357
 20
37.024
  0
VERTEX
  6
CONTINUOUS
  8
1
 10
97.322
 20
36.952
  0
VERTEX
  6
CONTINUOUS
  8
1
 10
97.288
 20
36.879
  0
VERTEX
  6
CONTINUOUS
  8
1
 10
97.255
 20
36.807
  0
VERTEX
  6
CONTINUOUS
  8
1
 10
97.223
 20
36.734
  0
VERTEX
  6
CONTINUOUS
  8
1
 10
97.192
 20
36.661
  0
VERTEX
  6
CONTINUOUS
  8
1
 10
97.162
 20
36.587
  0
VERTEX
  6
CONTINUOUS
  8
1
 10
97.132
 20
36.512
  0
VERTEX
  6
CONTINUOUS
  8
1
 10
97.103
 20
36.438
  0
VERTEX
  6
CONTINUOUS
  8
1
 10
97.076
 20
36.363
  0
VERTEX
  6
CONTINUOUS
  8
1
 10
97.048
 20
36.288
  0
VERTEX
  6
CONTINUOUS
  8
1
 10
97.023
 20
36.212
  0
VERTEX
  6
CONTINUOUS
  8
1
 10
96.997
 20
36.136
  0
VERTEX
  6
CONTINUOUS
  8
1
 10
96.973
 20
36.060
  0
VERTEX
  6
CONTINUOUS
  8
1
 10
96.951
 20
35.984
  0
VERTEX
  6
CONTINUOUS
  8
1
 10
96.928
 20
35.907
  0
VERTEX
  6
CONTINUOUS
  8
1
 10
96.906
 20
35.831
  0
VERTEX
  6
CONTINUOUS
  8
1
 10
96.886
 20
35.753
  0
VERTEX
  6
CONTINUOUS
  8
1
 10
96.866
 20
35.676
  0
VERTEX
  6
CONTINUOUS
  8
1
 10
96.847
 20
35.600
  0
VERTEX
  6
CONTINUOUS
  8
1
 10
96.829
 20
35.522
  0
VERTEX
  6
CONTINUOUS
  8
1
 10
96.813
 20
35.445
  0
VERTEX
  6
CONTINUOUS
  8
1
 10
96.796
 20
35.367
  0
VERTEX
  6
CONTINUOUS
  8
1
 10
96.781
 20
35.291
  0
VERTEX
  6
CONTINUOUS
  8
1
 10
96.768
 20
35.213
  0
VERTEX
  6
CONTINUOUS
  8
1
 10
96.755
 20
35.136
  0
VERTEX
  6
CONTINUOUS
  8
1
 10
96.743
 20
35.059
  0
VERTEX
  6
CONTINUOUS
  8
1
 10
96.731
 20
34.981
  0
VERTEX
  6
CONTINUOUS
  8
1
 10
96.722
 20
34.905
  0
VERTEX
  6
CONTINUOUS
  8
1
 10
96.713
 20
34.827
  0
VERTEX
  6
CONTINUOUS
  8
1
 10
96.704
 20
34.751
  0
VERTEX
  6
CONTINUOUS
  8
1
 10
96.697
 20
34.674
  0
VERTEX
  6
CONTINUOUS
  8
1
 10
96.691
 20
34.598
  0
VERTEX
  6
CONTINUOUS
  8
1
 10
96.686
 20
34.522
  0
VERTEX
  6
CONTINUOUS
  8
1
 10
96.681
 20
34.446
  0
VERTEX
  6
CONTINUOUS
  8
1
 10
96.678
 20
34.371
  0
VERTEX
  6
CONTINUOUS
  8
1
 10
96.676
 20
34.295
  0
VERTEX
  6
CONTINUOUS
  8
1
 10
96.675
 20
34.219
  0
VERTEX
  6
CONTINUOUS
  8
1
 10
96.675
 20
34.145
  0
VERTEX
  6
CONTINUOUS
  8
1
 10
96.676
 20
34.071
  0
VERTEX
  6
CONTINUOUS
  8
1
 10
96.678
 20
33.997
  0
VERTEX
  6
CONTINUOUS
  8
1
 10
96.680
 20
33.923
  0
VERTEX
  6
CONTINUOUS
  8
1
 10
96.684
 20
33.850
  0
VERTEX
  6
CONTINUOUS
  8
1
 10
96.689
 20
33.777
  0
VERTEX
  6
CONTINUOUS
  8
1
 10
96.695
 20
33.705
  0
VERTEX
  6
CONTINUOUS
  8
1
 10
96.702
 20
33.633
  0
VERTEX
  6
CONTINUOUS
  8
1
 10
96.709
 20
33.562
  0
VERTEX
  6
CONTINUOUS
  8
1
 10
96.718
 20
33.492
  0
VERTEX
  6
CONTINUOUS
  8
1
 10
96.728
 20
33.421
  0
VERTEX
  6
CONTINUOUS
  8
1
 10
96.738
 20
33.352
  0
VERTEX
  6
CONTINUOUS
  8
1
 10
96.750
 20
33.284
  0
VERTEX
  6
CONTINUOUS
  8
1
 10
96.762
 20
33.215
  0
VERTEX
  6
CONTINUOUS
  8
1
 10
96.776
 20
33.147
  0
VERTEX
  6
CONTINUOUS
  8
1
 10
96.791
 20
33.080
  0
VERTEX
  6
CONTINUOUS
  8
1
 10
96.806
 20
33.014
  0
VERTEX
  6
CONTINUOUS
  8
1
 10
96.823
 20
32.948
  0
VERTEX
  6
CONTINUOUS
  8
1
 10
96.840
 20
32.883
  0
VERTEX
  6
CONTINUOUS
  8
1
 10
96.859
 20
32.819
  0
VERTEX
  6
CONTINUOUS
  8
1
 10
96.878
 20
32.756
  0
VERTEX
  6
CONTINUOUS
  8
1
 10
96.898
 20
32.693
  0
VERTEX
  6
CONTINUOUS
  8
1
 10
96.919
 20
32.631
  0
VERTEX
  6
CONTINUOUS
  8
1
 10
96.941
 20
32.570
  0
VERTEX
  6
CONTINUOUS
  8
1
 10
96.964
 20
32.510
  0
VERTEX
  6
CONTINUOUS
  8
1
 10
96.988
 20
32.451
  0
VERTEX
  6
CONTINUOUS
  8
1
 10
97.013
 20
32.392
  0
VERTEX
  6
CONTINUOUS
  8
1
 10
97.039
 20
32.335
  0
VERTEX
  6
CONTINUOUS
  8
1
 10
97.065
 20
32.278
  0
VERTEX
  6
CONTINUOUS
  8
1
 10
97.093
 20
32.222
  0
VERTEX
  6
CONTINUOUS
  8
1
 10
97.121
 20
32.167
  0
VERTEX
  6
CONTINUOUS
  8
1
 10
97.150
 20
32.114
  0
VERTEX
  6
CONTINUOUS
  8
1
 10
97.180
 20
32.061
  0
VERTEX
  6
CONTINUOUS
  8
1
 10
97.211
 20
32.009
  0
VERTEX
  6
CONTINUOUS
  8
1
 10
97.242
 20
31.958
  0
VERTEX
  6
CONTINUOUS
  8
1
 10
97.275
 20
31.909
  0
VERTEX
  6
CONTINUOUS
  8
1
 10
97.309
 20
31.860
  0
VERTEX
  6
CONTINUOUS
  8
1
 10
97.342
 20
31.812
  0
VERTEX
  6
CONTINUOUS
  8
1
 10
97.377
 20
31.765
  0
VERTEX
  6
CONTINUOUS
  8
1
 10
97.413
 20
31.720
  0
VERTEX
  6
CONTINUOUS
  8
1
 10
97.449
 20
31.675
  0
VERTEX
  6
CONTINUOUS
  8
1
 10
97.486
 20
31.632
  0
VERTEX
  6
CONTINUOUS
  8
1
 10
97.525
 20
31.590
  0
VERTEX
  6
CONTINUOUS
  8
1
 10
97.564
 20
31.549
  0
VERTEX
  6
CONTINUOUS
  8
1
 10
97.602
 20
31.509
  0
VERTEX
  6
CONTINUOUS
  8
1
 10
97.642
 20
31.470
  0
VERTEX
  6
CONTINUOUS
  8
1
 10
97.684
 20
31.432
  0
VERTEX
  6
CONTINUOUS
  8
1
 10
97.725
 20
31.396
  0
VERTEX
  6
CONTINUOUS
  8
1
 10
97.768
 20
31.360
  0
VERTEX
  6
CONTINUOUS
  8
1
 10
97.811
 20
31.327
  0
VERTEX
  6
CONTINUOUS
  8
1
 10
97.854
 20
31.294
  0
VERTEX
  6
CONTINUOUS
  8
1
 10
97.898
 20
31.263
  0
VERTEX
  6
CONTINUOUS
  8
1
 10
97.943
 20
31.232
  0
VERTEX
  6
CONTINUOUS
  8
1
 10
97.988
 20
31.204
  0
VERTEX
  6
CONTINUOUS
  8
1
 10
98.034
 20
31.175
  0
VERTEX
  6
CONTINUOUS
  8
1
 10
98.081
 20
31.149
  0
VERTEX
  6
CONTINUOUS
  8
1
 10
98.128
 20
31.123
  0
VERTEX
  6
CONTINUOUS
  8
1
 10
98.176
 20
31.099
  0
VERTEX
  6
CONTINUOUS
  8
1
 10
98.224
 20
31.076
  0
VERTEX
  6
CONTINUOUS
  8
1
 10
98.273
 20
31.055
  0
VERTEX
  6
CONTINUOUS
  8
1
 10
98.322
 20
31.035
  0
VERTEX
  6
CONTINUOUS
  8
1
 10
98.371
 20
31.016
  0
VERTEX
  6
CONTINUOUS
  8
1
 10
98.421
 20
30.999
  0
VERTEX
  6
CONTINUOUS
  8
1
 10
98.472
 20
30.983
  0
VERTEX
  6
CONTINUOUS
  8
1
 10
98.523
 20
30.968
  0
VERTEX
  6
CONTINUOUS
  8
1
 10
98.574
 20
30.954
  0
VERTEX
  6
CONTINUOUS
  8
1
 10
98.626
 20
30.942
  0
VERTEX
  6
CONTINUOUS
  8
1
 10
98.679
 20
30.931
  0
VERTEX
  6
CONTINUOUS
  8
1
 10
98.731
 20
30.921
  0
VERTEX
  6
CONTINUOUS
  8
1
 10
98.785
 20
30.914
  0
VERTEX
  6
CONTINUOUS
  8
1
 10
98.838
 20
30.906
  0
VERTEX
  6
CONTINUOUS
  8
1
 10
98.892
 20
30.901
  0
VERTEX
  6
CONTINUOUS
  8
1
 10
98.946
 20
30.896
  0
VERTEX
  6
CONTINUOUS
  8
1
 10
99.000
 20
30.894
  0
VERTEX
  6
CONTINUOUS
  8
1
 10
99.055
 20
30.892
  0
VERTEX
  6
CONTINUOUS
  8
1
 10
99.110
 20
30.892
  0
VERTEX
  6
CONTINUOUS
  8
1
 10
99.165
 20
30.893
  0
VERTEX
  6
CONTINUOUS
  8
1
 10
99.221
 20
30.895
  0
VERTEX
  6
CONTINUOUS
  8
1
 10
99.277
 20
30.899
  0
VERTEX
  6
CONTINUOUS
  8
1
 10
99.332
 20
30.905
  0
VERTEX
  6
CONTINUOUS
  8
1
 10
99.389
 20
30.912
  0
VERTEX
  6
CONTINUOUS
  8
1
 10
99.445
 20
30.919
  0
VERTEX
  6
CONTINUOUS
  8
1
 10
99.501
 20
30.928
  0
VERTEX
  6
CONTINUOUS
  8
1
 10
99.558
 20
30.940
  0
VERTEX
  6
CONTINUOUS
  8
1
 10
99.614
 20
30.951
  0
VERTEX
  6
CONTINUOUS
  8
1
 10
99.671
 20
30.965
  0
VERTEX
  6
CONTINUOUS
  8
1
 10
99.727
 20
30.979
  0
VERTEX
  6
CONTINUOUS
  8
1
 10
99.784
 20
30.996
  0
VERTEX
  6
CONTINUOUS
  8
1
 10
99.841
 20
31.012
  0
VERTEX
  6
CONTINUOUS
  8
1
 10
99.898
 20
31.031
  0
VERTEX
  6
CONTINUOUS
  8
1
 10
99.955
 20
31.050
  0
VERTEX
  6
CONTINUOUS
  8
1
 10
100.012
 20
31.072
  0
VERTEX
  6
CONTINUOUS
  8
1
 10
100.069
 20
31.094
  0
VERTEX
  6
CONTINUOUS
  8
1
 10
100.126
 20
31.118
  0
VERTEX
  6
CONTINUOUS
  8
1
 10
100.183
 20
31.143
  0
VERTEX
  6
CONTINUOUS
  8
1
 10
100.239
 20
31.170
  0
VERTEX
  6
CONTINUOUS
  8
1
 10
100.296
 20
31.197
  0
VERTEX
  6
CONTINUOUS
  8
1
 10
100.353
 20
31.226
  0
VERTEX
  6
CONTINUOUS
  8
1
 10
100.409
 20
31.256
  0
VERTEX
  6
CONTINUOUS
  8
1
 10
100.465
 20
31.287
  0
VERTEX
  6
CONTINUOUS
  8
1
 10
100.522
 20
31.320
  0
VERTEX
  6
CONTINUOUS
  8
1
 10
100.578
 20
31.354
  0
VERTEX
  6
CONTINUOUS
  8
1
 10
100.633
 20
31.389
  0
VERTEX
  6
CONTINUOUS
  8
1
 10
100.689
 20
31.425
  0
VERTEX
  6
CONTINUOUS
  8
1
 10
100.744
 20
31.463
  0
VERTEX
  6
CONTINUOUS
  8
1
 10
100.799
 20
31.501
  0
VERTEX
  6
CONTINUOUS
  8
1
 10
100.854
 20
31.541
  0
VERTEX
  6
CONTINUOUS
  8
1
 10
100.909
 20
31.582
  0
VERTEX
  6
CONTINUOUS
  8
1
 10
100.963
 20
31.623
  0
VERTEX
  6
CONTINUOUS
  8
1
 10
101.017
 20
31.667
  0
VERTEX
  6
CONTINUOUS
  8
1
 10
101.071
 20
31.711
  0
VERTEX
  6
CONTINUOUS
  8
1
 10
101.123
 20
31.756
  0
VERTEX
  6
CONTINUOUS
  8
1
 10
101.176
 20
31.802
  0
VERTEX
  6
CONTINUOUS
  8
1
 10
101.229
 20
31.850
  0
VERTEX
  6
CONTINUOUS
  8
1
 10
101.281
 20
31.898
  0
VERTEX
  6
CONTINUOUS
  8
1
 10
101.332
 20
31.948
  0
VERTEX
  6
CONTINUOUS
  8
1
 10
101.384
 20
31.998
  0
VERTEX
  6
CONTINUOUS
  8
1
 10
101.434
 20
32.050
  0
VERTEX
  6
CONTINUOUS
  8
1
 10
101.486
 20
32.103
  0
VERTEX
  6
CONTINUOUS
  8
1
 10
101.535
 20
32.156
  0
VERTEX
  6
CONTINUOUS
  8
1
 10
101.585
 20
32.211
  0
VERTEX
  6
CONTINUOUS
  8
1
 10
101.633
 20
32.266
  0
VERTEX
  6
CONTINUOUS
  8
1
 10
101.682
 20
32.323
  0
VERTEX
  6
CONTINUOUS
  8
1
 10
101.729
 20
32.380
  0
VERTEX
  6
CONTINUOUS
  8
1
 10
101.777
 20
32.438
  0
VERTEX
  6
CONTINUOUS
  8
1
 10
101.824
 20
32.498
  0
VERTEX
  6
CONTINUOUS
  8
1
 10
101.870
 20
32.557
  0
VERTEX
  6
CONTINUOUS
  8
1
 10
101.916
 20
32.619
  0
VERTEX
  6
CONTINUOUS
  8
1
 10
101.961
 20
32.680
  0
VERTEX
  6
CONTINUOUS
  8
1
 10
102.005
 20
32.743
  0
VERTEX
  6
CONTINUOUS
  8
1
 10
102.049
 20
32.805
  0
VERTEX
  6
CONTINUOUS
  8
1
 10
102.091
 20
32.870
  0
VERTEX
  6
CONTINUOUS
  8
1
 10
102.134
 20
32.935
  0
VERTEX
  6
CONTINUOUS
  8
1
 10
102.176
 20
33.000
  0
VERTEX
  6
CONTINUOUS
  8
1
 10
102.217
 20
33.066
  0
VERTEX
  6
CONTINUOUS
  8
1
 10
102.257
 20
33.133
  0
VERTEX
  6
CONTINUOUS
  8
1
 10
102.297
 20
33.200
  0
VERTEX
  6
CONTINUOUS
  8
1
 10
102.337
 20
33.269
  0
VERTEX
  6
CONTINUOUS
  8
1
 10
102.374
 20
33.337
  0
VERTEX
  6
CONTINUOUS
  8
1
 10
102.412
 20
33.408
  0
VERTEX
  6
CONTINUOUS
  8
1
 10
102.449
 20
33.477
  0
VERTEX
  6
CONTINUOUS
  8
1
 10
102.485
 20
33.548
  0
VERTEX
  6
CONTINUOUS
  8
1
 10
102.519
 20
33.618
  0
VERTEX
  6
CONTINUOUS
  8
1
 10
102.554
 20
33.690
  0
VERTEX
  6
CONTINUOUS
  8
1
 10
102.588
 20
33.763
  0
VERTEX
  6
CONTINUOUS
  8
1
 10
102.621
 20
33.835
  0
VERTEX
  6
CONTINUOUS
  8
1
 10
102.653
 20
33.908
  0
VERTEX
  6
CONTINUOUS
  8
1
 10
102.684
 20
33.981
  0
VERTEX
  6
CONTINUOUS
  8
1
 10
102.714
 20
34.055
  0
VERTEX
  6
CONTINUOUS
  8
1
 10
102.744
 20
34.130
  0
VERTEX
  6
CONTINUOUS
  8
1
 10
102.773
 20
34.204
  0
VERTEX
  6
CONTINUOUS
  8
1
 10
102.800
 20
34.279
  0
SEQEND
  0
LINE
  6
CONTINUOUS
  8
1
 10
98.365
 20
31.021
 11
98.193
 21
31.085
  0
LINE
  6
CONTINUOUS
  8
1
 10
98.193
 20
31.085
 11
97.953
 21
31.175
  0
LINE
  6
CONTINUOUS
  8
1
 10
99.415
 20
40.814
 11
99.555
 21
40.739
  0
LINE
  6
CONTINUOUS
  8
1
 10
99.555
 20
40.739
 11
99.750
 21
40.636
  0
LINE
  6
CONTINUOUS
  8
1
 10
99.750
 20
40.636
 11
99.984
 21
40.512
  0
LINE
  6
CONTINUOUS
  8
1
 10
99.984
 20
40.512
 11
100.239
 21
40.378
  0
LINE
  6
CONTINUOUS
  8
1
 10
100.239
 20
40.378
 11
100.497
 21
40.241
  0
LINE
  6
CONTINUOUS
  8
1
 10
100.497
 20
40.241
 11
100.742
 21
40.111
  0
LINE
  6
CONTINUOUS
  8
1
 10
100.742
 20
40.111
 11
100.955
 21
39.996
  0
LINE
  6
CONTINUOUS
  8
1
 10
100.955
 20
39.996
 11
101.121
 21
39.907
  0
LINE
  6
CONTINUOUS
  8
1
 10
101.121
 20
39.907
 11
101.240
 21
39.840
  0
LINE
  6
CONTINUOUS
  8
1
 10
101.240
 20
39.840
 11
101.331
 21
39.787
  0
LINE
  6
CONTINUOUS
  8
1
 10
101.331
 20
39.787
 11
101.400
 21
39.746
  0
LINE
  6
CONTINUOUS
  8
1
 10
101.400
 20
39.746
 11
101.451
 21
39.713
  0
LINE
  6
CONTINUOUS
  8
1
 10
101.451
 20
39.713
 11
101.489
 21
39.687
  0
LINE
  6
CONTINUOUS
  8
1
 10
101.489
 20
39.687
 11
101.518
 21
39.666
  0
LINE
  6
CONTINUOUS
  8
1
 10
101.518
 20
39.666
 11
101.545
 21
39.645
  0
LINE
  6
CONTINUOUS
  8
1
 10
101.545
 20
39.645
 11
101.575
 21
39.625
  0
LINE
  6
CONTINUOUS
  8
1
 10
101.575
 20
39.625
 11
101.600
 21
39.605
  0
LINE
  6
CONTINUOUS
  8
1
 10
101.600
 20
39.605
 11
101.616
 21
39.592
  0
LINE
  6
CONTINUOUS
  8
1
 10
101.616
 20
39.592
 11
101.624
 21
39.582
  0
LINE
  6
CONTINUOUS
  8
1
 10
101.627
 20
39.575
 11
101.626
 21
39.570
  0
LINE
  6
CONTINUOUS
  8
1
 10
97.967
 20
31.165
 11
97.740
 21
31.275
  0
LINE
  6
CONTINUOUS
  8
1
 10
97.740
 20
31.275
 11
97.425
 21
31.424
  0
LINE
  6
CONTINUOUS
  8
1
 10
97.425
 20
31.424
 11
97.049
 21
31.601
  0
LINE
  6
CONTINUOUS
  8
1
 10
97.049
 20
31.601
 11
96.638
 21
31.797
  0
LINE
  6
CONTINUOUS
  8
1
 10
96.638
 20
31.797
 11
96.221
 21
32.003
  0
LINE
  6
CONTINUOUS
  8
1
 10
96.221
 20
32.003
 11
95.825
 21
32.208
  0
LINE
  6
CONTINUOUS
  8
1
 10
95.825
 20
32.208
 11
95.478
 21
32.403
  0
LINE
  6
CONTINUOUS
  8
1
 10
95.478
 20
32.403
 11
95.208
 21
32.580
  0
LINE
  6
CONTINUOUS
  8
1
 10
95.208
 20
32.580
 11
95.008
 21
32.738
  0
LINE
  6
CONTINUOUS
  8
1
 10
95.008
 20
32.738
 11
94.853
 21
32.889
  0
LINE
  6
CONTINUOUS
  8
1
 10
94.853
 20
32.889
 11
94.733
 21
33.035
  0
LINE
  6
CONTINUOUS
  8
1
 10
94.733
 20
33.035
 11
94.640
 21
33.178
  0
LINE
  6
CONTINUOUS
  8
1
 10
94.640
 20
33.178
 11
94.568
 21
33.322
  0
LINE
  6
CONTINUOUS
  8
1
 10
94.568
 20
33.322
 11
94.507
 21
33.468
  0
LINE
  6
CONTINUOUS
  8
1
 10
94.507
 20
33.468
 11
94.451
 21
33.619
  0
LINE
  6
CONTINUOUS
  8
1
 10
94.451
 20
33.619
 11
94.391
 21
33.778
  0
LINE
  6
CONTINUOUS
  8
1
 10
94.391
 20
33.778
 11
94.332
 21
33.941
  0
LINE
  6
CONTINUOUS
  8
1
 10
94.332
 20
33.941
 11
94.285
 21
34.104
  0
LINE
  6
CONTINUOUS
  8
1
 10
94.285
 20
34.104
 11
94.247
 21
34.270
  0
LINE
  6
CONTINUOUS
  8
1
 10
94.247
 20
34.270
 11
94.219
 21
34.440
  0
LINE
  6
CONTINUOUS
  8
1
 10
94.219
 20
34.440
 11
94.199
 21
34.616
  0
LINE
  6
CONTINUOUS
  8
1
 10
94.199
 20
34.616
 11
94.185
 21
34.799
  0
LINE
  6
CONTINUOUS
  8
1
 10
94.185
 20
34.799
 11
94.177
 21
34.991
  0
LINE
  6
CONTINUOUS
  8
1
 10
94.177
 20
34.991
 11
94.173
 21
35.194
  0
LINE
  6
CONTINUOUS
  8
1
 10
94.173
 20
35.194
 11
94.176
 21
35.425
  0
LINE
  6
CONTINUOUS
  8
1
 10
94.176
 20
35.425
 11
94.189
 21
35.691
  0
LINE
  6
CONTINUOUS
  8
1
 10
94.189
 20
35.691
 11
94.210
 21
35.975
  0
LINE
  6
CONTINUOUS
  8
1
 10
94.210
 20
35.975
 11
94.236
 21
36.262
  0
LINE
  6
CONTINUOUS
  8
1
 10
94.236
 20
36.262
 11
94.265
 21
36.536
  0
LINE
  6
CONTINUOUS
  8
1
 10
94.265
 20
36.536
 11
94.296
 21
36.780
  0
LINE
  6
CONTINUOUS
  8
1
 10
94.296
 20
36.780
 11
94.320
 21
36.940
  0
POLYLINE
  6
CONTINUOUS
  8
1
 66
     1
 70
     2
  0
VERTEX
  6
CONTINUOUS
  8
1
 10
99.410
 20
40.817
  0
VERTEX
  6
CONTINUOUS
  8
1
 10
99.371
 20
40.838
  0
VERTEX
  6
CONTINUOUS
  8
1
 10
99.330
 20
40.860
  0
VERTEX
  6
CONTINUOUS
  8
1
 10
99.290
 20
40.880
  0
VERTEX
  6
CONTINUOUS
  8
1
 10
99.248
 20
40.898
  0
VERTEX
  6
CONTINUOUS
  8
1
 10
99.206
 20
40.915
  0
VERTEX
  6
CONTINUOUS
  8
1
 10
99.162
 20
40.931
  0
VERTEX
  6
CONTINUOUS
  8
1
 10
99.119
 20
40.946
  0
VERTEX
  6
CONTINUOUS
  8
1
 10
99.075
 20
40.960
  0
VERTEX
  6
CONTINUOUS
  8
1
 10
99.031
 20
40.972
  0
VERTEX
  6
CONTINUOUS
  8
1
 10
98.986
 20
40.984
  0
VERTEX
  6
CONTINUOUS
  8
1
 10
98.939
 20
40.993
  0
VERTEX
  6
CONTINUOUS
  8
1
 10
98.894
 20
41.002
  0
VERTEX
  6
CONTINUOUS
  8
1
 10
98.847
 20
41.009
  0
VERTEX
  6
CONTINUOUS
  8
1
 10
98.799
 20
41.015
  0
VERTEX
  6
CONTINUOUS
  8
1
 10
98.752
 20
41.020
  0
VERTEX
  6
CONTINUOUS
  8
1
 10
98.703
 20
41.024
  0
VERTEX
  6
CONTINUOUS
  8
1
 10
98.654
 20
41.026
  0
VERTEX
  6
CONTINUOUS
  8
1
 10
98.605
 20
41.028
  0
VERTEX
  6
CONTINUOUS
  8
1
 10
98.555
 20
41.028
  0
VERTEX
  6
CONTINUOUS
  8
1
 10
98.505
 20
41.027
  0
VERTEX
  6
CONTINUOUS
  8
1
 10
98.455
 20
41.024
  0
VERTEX
  6
CONTINUOUS
  8
1
 10
98.404
 20
41.019
  0
VERTEX
  6
CONTINUOUS
  8
1
 10
98.352
 20
41.014
  0
VERTEX
  6
CONTINUOUS
  8
1
 10
98.301
 20
41.009
  0
VERTEX
  6
CONTINUOUS
  8
1
 10
98.249
 20
41.001
  0
VERTEX
  6
CONTINUOUS
  8
1
 10
98.197
 20
40.992
  0
VERTEX
  6
CONTINUOUS
  8
1
 10
98.144
 20
40.982
  0
VERTEX
  6
CONTINUOUS
  8
1
 10
98.090
 20
40.971
  0
VERTEX
  6
CONTINUOUS
  8
1
 10
98.037
 20
40.959
  0
VERTEX
  6
CONTINUOUS
  8
1
 10
97.984
 20
40.944
  0
VERTEX
  6
CONTINUOUS
  8
1
 10
97.930
 20
40.929
  0
VERTEX
  6
CONTINUOUS
  8
1
 10
97.876
 20
40.913
  0
VERTEX
  6
CONTINUOUS
  8
1
 10
97.822
 20
40.896
  0
VERTEX
  6
CONTINUOUS
  8
1
 10
97.768
 20
40.878
  0
VERTEX
  6
CONTINUOUS
  8
1
 10
97.713
 20
40.857
  0
VERTEX
  6
CONTINUOUS
  8
1
 10
97.659
 20
40.837
  0
VERTEX
  6
CONTINUOUS
  8
1
 10
97.603
 20
40.814
  0
VERTEX
  6
CONTINUOUS
  8
1
 10
97.549
 20
40.790
  0
VERTEX
  6
CONTINUOUS
  8
1
 10
97.493
 20
40.766
  0
VERTEX
  6
CONTINUOUS
  8
1
 10
97.438
 20
40.740
  0
VERTEX
  6
CONTINUOUS
  8
1
 10
97.383
 20
40.713
  0
VERTEX
  6
CONTINUOUS
  8
1
 10
97.327
 20
40.685
  0
VERTEX
  6
CONTINUOUS
  8
1
 10
97.271
 20
40.656
  0
VERTEX
  6
CONTINUOUS
  8
1
 10
97.216
 20
40.626
  0
VERTEX
  6
CONTINUOUS
  8
1
 10
97.161
 20
40.594
  0
VERTEX
  6
CONTINUOUS
  8
1
 10
97.105
 20
40.562
  0
VERTEX
  6
CONTINUOUS
  8
1
 10
97.049
 20
40.528
  0
VERTEX
  6
CONTINUOUS
  8
1
 10
96.994
 20
40.493
  0
VERTEX
  6
CONTINUOUS
  8
1
 10
96.938
 20
40.457
  0
VERTEX
  6
CONTINUOUS
  8
1
 10
96.884
 20
40.420
  0
VERTEX
  6
CONTINUOUS
  8
1
 10
96.828
 20
40.382
  0
VERTEX
  6
CONTINUOUS
  8
1
 10
96.773
 20
40.342
  0
VERTEX
  6
CONTINUOUS
  8
1
 10
96.717
 20
40.303
  0
VERTEX
  6
CONTINUOUS
  8
1
 10
96.663
 20
40.262
  0
VERTEX
  6
CONTINUOUS
  8
1
 10
96.608
 20
40.219
  0
VERTEX
  6
CONTINUOUS
  8
1
 10
96.553
 20
40.176
  0
VERTEX
  6
CONTINUOUS
  8
1
 10
96.499
 20
40.132
  0
VERTEX
  6
CONTINUOUS
  8
1
 10
96.445
 20
40.087
  0
VERTEX
  6
CONTINUOUS
  8
1
 10
96.391
 20
40.041
  0
VERTEX
  6
CONTINUOUS
  8
1
 10
96.337
 20
39.994
  0
VERTEX
  6
CONTINUOUS
  8
1
 10
96.284
 20
39.946
  0
VERTEX
  6
CONTINUOUS
  8
1
 10
96.230
 20
39.897
  0
VERTEX
  6
CONTINUOUS
  8
1
 10
96.177
 20
39.847
  0
VERTEX
  6
CONTINUOUS
  8
1
 10
96.125
 20
39.796
  0
VERTEX
  6
CONTINUOUS
  8
1
 10
96.072
 20
39.745
  0
VERTEX
  6
CONTINUOUS
  8
1
 10
96.020
 20
39.691
  0
VERTEX
  6
CONTINUOUS
  8
1
 10
95.969
 20
39.638
  0
VERTEX
  6
CONTINUOUS
  8
1
 10
95.917
 20
39.585
  0
VERTEX
  6
CONTINUOUS
  8
1
 10
95.867
 20
39.530
  0
VERTEX
  6
CONTINUOUS
  8
1
 10
95.816
 20
39.473
  0
VERTEX
  6
CONTINUOUS
  8
1
 10
95.766
 20
39.417
  0
VERTEX
  6
CONTINUOUS
  8
1
 10
95.716
 20
39.360
  0
VERTEX
  6
CONTINUOUS
  8
1
 10
95.667
 20
39.302
  0
VERTEX
  6
CONTINUOUS
  8
1
 10
95.618
 20
39.243
  0
VERTEX
  6
CONTINUOUS
  8
1
 10
95.570
 20
39.184
  0
VERTEX
  6
CONTINUOUS
  8
1
 10
95.522
 20
39.124
  0
VERTEX
  6
CONTINUOUS
  8
1
 10
95.474
 20
39.062
  0
VERTEX
  6
CONTINUOUS
  8
1
 10
95.428
 20
39.001
  0
VERTEX
  6
CONTINUOUS
  8
1
 10
95.381
 20
38.939
  0
VERTEX
  6
CONTINUOUS
  8
1
 10
95.335
 20
38.876
  0
VERTEX
  6
CONTINUOUS
  8
1
 10
95.290
 20
38.813
  0
VERTEX
  6
CONTINUOUS
  8
1
 10
95.245
 20
38.749
  0
VERTEX
  6
CONTINUOUS
  8
1
 10
95.201
 20
38.684
  0
VERTEX
  6
CONTINUOUS
  8
1
 10
95.157
 20
38.619
  0
VERTEX
  6
CONTINUOUS
  8
1
 10
95.115
 20
38.554
  0
VERTEX
  6
CONTINUOUS
  8
1
 10
95.072
 20
38.488
  0
VERTEX
  6
CONTINUOUS
  8
1
 10
95.032
 20
38.422
  0
VERTEX
  6
CONTINUOUS
  8
1
 10
94.990
 20
38.354
  0
VERTEX
  6
CONTINUOUS
  8
1
 10
94.950
 20
38.288
  0
VERTEX
  6
CONTINUOUS
  8
1
 10
94.910
 20
38.219
  0
VERTEX
  6
CONTINUOUS
  8
1
 10
94.871
 20
38.151
  0
VERTEX
  6
CONTINUOUS
  8
1
 10
94.833
 20
38.082
  0
VERTEX
  6
CONTINUOUS
  8
1
 10
94.796
 20
38.013
  0
VERTEX
  6
CONTINUOUS
  8
1
 10
94.758
 20
37.944
  0
VERTEX
  6
CONTINUOUS
  8
1
 10
94.723
 20
37.875
  0
VERTEX
  6
CONTINUOUS
  8
1
 10
94.687
 20
37.805
  0
VERTEX
  6
CONTINUOUS
  8
1
 10
94.653
 20
37.735
  0
VERTEX
  6
CONTINUOUS
  8
1
 10
94.619
 20
37.665
  0
VERTEX
  6
CONTINUOUS
  8
1
 10
94.586
 20
37.594
  0
VERTEX
  6
CONTINUOUS
  8
1
 10
94.553
 20
37.523
  0
VERTEX
  6
CONTINUOUS
  8
1
 10
94.522
 20
37.451
  0
VERTEX
  6
CONTINUOUS
  8
1
 10
94.491
 20
37.380
  0
VERTEX
  6
CONTINUOUS
  8
1
 10
94.462
 20
37.309
  0
VERTEX
  6
CONTINUOUS
  8
1
 10
94.432
 20
37.238
  0
VERTEX
  6
CONTINUOUS
  8
1
 10
94.405
 20
37.166
  0
VERTEX
  6
CONTINUOUS
  8
1
 10
94.378
 20
37.095
  0
VERTEX
  6
CONTINUOUS
  8
1
 10
94.351
 20
37.023
  0
VERTEX
  6
CONTINUOUS
  8
1
 10
94.325
 20
36.951
  0
VERTEX
  6
CONTINUOUS
  8
1
 10
94.319
 20
36.936
  0
SEQEND
  0
LINE
  6
CONTINUOUS
  8
1
 10
93.978
 20
36.771
 11
89.683
 21
39.189
  0
LINE
  6
CONTINUOUS
  8
1
 10
93.972
 20
35.596
 11
93.972
 21
35.232
  0
LINE
  6
CONTINUOUS
  8
1
 10
93.972
 20
36.785
 11
93.972
 21
35.596
  0
LINE
  6
CONTINUOUS
  8
1
 10
93.964
 20
35.233
 11
94.172
 21
35.105
  0
ARC
  6
CONTINUOUS
  8
1
 10
94.577
 20
36.191
 40
0.829
 50
136.857
 51
225.191
  0
LINE
  6
CONTINUOUS
  8
1
 10
90.575
 20
37.389
 11
93.985
 21
35.610
  0
ARC
  6
CONTINUOUS
  8
1
 10
91.174
 20
37.960
 40
0.829
 50
136.857
 51
225.191
  0
LINE
  6
CONTINUOUS
  8
1
 10
90.557
 20
38.520
 11
90.565
 21
38.528
  0
LINE
  6
CONTINUOUS
  8
1
 10
90.565
 20
38.528
 11
90.578
 21
38.540
  0
LINE
  6
CONTINUOUS
  8
1
 10
90.578
 20
38.540
 11
90.593
 21
38.555
  0
LINE
  6
CONTINUOUS
  8
1
 10
90.593
 20
38.555
 11
90.609
 21
38.571
  0
LINE
  6
CONTINUOUS
  8
1
 10
90.609
 20
38.571
 11
90.626
 21
38.586
  0
LINE
  6
CONTINUOUS
  8
1
 10
90.626
 20
38.586
 11
90.641
 21
38.600
  0
LINE
  6
CONTINUOUS
  8
1
 10
90.641
 20
38.600
 11
90.655
 21
38.612
  0
LINE
  6
CONTINUOUS
  8
1
 10
90.655
 20
38.612
 11
90.666
 21
38.620
  0
LINE
  6
CONTINUOUS
  8
1
 10
89.713
 20
39.137
 11
89.713
 21
39.718
  0
LINE
  6
CONTINUOUS
  8
1
 10
84.122
 20
41.025
 11
84.122
 21
40.117
  0
LINE
  6
CONTINUOUS
  8
1
 10
90.403
 20
40.916
 11
90.403
 21
39.936
  0
LINE
  6
CONTINUOUS
  8
1
 10
82.888
 20
45.200
 11
82.888
 21
44.292
  0
LINE
  6
CONTINUOUS
  8
1
 10
91.456
 20
45.272
 11
91.456
 21
44.365
  0
LINE
  6
CONTINUOUS
  8
1
 10
73.985
 20
36.037
 11
76.545
 21
34.584
  0
LINE
  6
CONTINUOUS
  8
1
 10
76.545
 20
34.584
 11
78.413
 21
33.521
  0
LINE
  6
CONTINUOUS
  8
1
 10
78.413
 20
33.521
 11
79.452
 21
32.932
  0
LINE
  6
CONTINUOUS
  8
1
 10
79.452
 20
32.932
 11
81.661
 21
31.679
  0
LINE
  6
CONTINUOUS
  8
1
 10
81.661
 20
31.679
 11
83.175
 21
30.817
  0
LINE
  6
CONTINUOUS
  8
1
 10
83.175
 20
30.817
 11
87.856
 21
28.162
  0
LINE
  6
CONTINUOUS
  8
1
 10
76.113
 20
37.231
 11
76.326
 21
37.111
  0
LINE
  6
CONTINUOUS
  8
1
 10
76.326
 20
37.111
 11
74.417
 21
36.009
  0
LINE
  6
CONTINUOUS
  8
1
 10
74.417
 20
36.009
 11
79.045
 21
33.393
  0
LINE
  6
CONTINUOUS
  8
1
 10
79.045
 20
33.393
 11
81.785
 21
31.824
  0
LINE
  6
CONTINUOUS
  8
1
 10
81.785
 20
31.824
 11
87.265
 21
28.726
  0
LINE
  6
CONTINUOUS
  8
1
 10
76.326
 20
37.111
 11
76.326
 21
35.386
  0
LINE
  6
CONTINUOUS
  8
1
 10
76.326
 20
35.386
 11
76.326
 21
34.927
  0
LINE
  6
CONTINUOUS
  8
1
 10
73.985
 20
33.588
 11
77.528
 21
31.542
  0
LINE
  6
CONTINUOUS
  8
1
 10
77.528
 20
31.542
 11
82.390
 21
28.743
  0
LINE
  6
CONTINUOUS
  8
1
 10
82.390
 20
28.743
 11
85.419
 21
26.987
  0
LINE
  6
CONTINUOUS
  8
1
 10
85.419
 20
26.987
 11
87.412
 21
25.843
  0
LINE
  6
CONTINUOUS
  8
1
 10
87.856
 20
28.162
 11
90.125
 21
26.881
  0
LINE
  6
CONTINUOUS
  8
1
 10
87.265
 20
28.726
 11
90.124
 21
27.105
  0
LINE
  6
CONTINUOUS
  8
1
 10
87.412
 20
25.843
 11
88.867
 21
25.004
  0
LINE
  6
CONTINUOUS
  8
1
 10
88.863
 20
24.998
 11
88.863
 21
26.228
  0
LINE
  6
CONTINUOUS
  8
1
 10
88.863
 20
26.228
 11
89.928
 21
25.613
  0
LINE
  6
CONTINUOUS
  8
1
 10
89.928
 20
25.613
 11
89.928
 21
24.458
  0
LINE
  6
CONTINUOUS
  8
1
 10
89.928
 20
24.458
 11
89.928
 21
24.383
  0
LINE
  6
CONTINUOUS
  8
1
 10
89.928
 20
24.383
 11
90.124
 21
24.270
  0
LINE
  6
CONTINUOUS
  8
1
 10
88.863
 20
25.006
 11
89.061
 21
25.112
  0
LINE
  6
CONTINUOUS
  8
1
 10
89.061
 20
25.112
 11
89.061
 21
26.114
  0
LINE
  6
CONTINUOUS
  8
1
 10
74.348
 20
38.695
 11
74.156
 21
38.806
  0
LINE
  6
CONTINUOUS
  8
1
 10
74.156
 20
38.806
 11
71.864
 21
37.483
  0
LINE
  6
CONTINUOUS
  8
1
 10
71.864
 20
37.483
 11
64.177
 21
41.922
  0
LINE
  6
CONTINUOUS
  8
1
 10
71.864
 20
37.262
 11
63.985
 21
41.811
  0
LINE
  6
CONTINUOUS
  8
1
 10
71.864
 20
34.812
 11
63.863
 21
39.432
  0
LINE
  6
CONTINUOUS
  8
1
 10
90.124
 20
27.105
 11
90.319
 21
26.994
  0
LINE
  6
CONTINUOUS
  8
1
 10
90.124
 20
26.941
 11
90.319
 21
26.994
  0
LINE
  6
CONTINUOUS
  8
1
 10
90.124
 20
26.881
 11
90.124
 21
24.270
  0
LINE
  6
CONTINUOUS
  8
1
 10
90.319
 20
26.994
 11
90.319
 21
24.383
  0
LINE
  6
CONTINUOUS
  8
1
 10
90.319
 20
24.383
 11
90.124
 21
24.270
  0
LINE
  6
CONTINUOUS
  8
1
 10
61.985
 20
42.965
 11
63.985
 21
41.811
  0
LINE
  6
CONTINUOUS
  8
1
 10
59.864
 20
44.190
 11
59.864
 21
41.740
  0
LINE
  6
CONTINUOUS
  8
1
 10
59.864
 20
44.190
 11
61.985
 21
42.965
  0
LINE
  6
CONTINUOUS
  8
1
 10
59.864
 20
44.189
 11
60.056
 21
44.301
  0
LINE
  6
CONTINUOUS
  8
1
 10
60.056
 20
44.301
 11
64.177
 21
41.922
  0
LINE
  6
CONTINUOUS
  8
1
 10
60.057
 20
41.629
 11
60.057
 21
42.859
  0
LINE
  6
CONTINUOUS
  8
1
 10
60.863
 20
42.394
 11
60.863
 21
41.164
  0
LINE
  6
CONTINUOUS
  8
1
 10
63.864
 20
39.432
 11
60.864
 21
41.164
  0
LINE
  6
CONTINUOUS
  8
1
 10
59.864
 20
41.740
 11
60.057
 21
41.629
  0
LINE
  6
CONTINUOUS
  8
1
 10
60.057
 20
42.860
 11
60.863
 21
42.394
  0
LINE
  6
CONTINUOUS
  8
1
 10
60.057
 20
41.629
 11
60.249
 21
41.740
  0
LINE
  6
CONTINUOUS
  8
1
 10
60.249
 20
41.740
 11
60.249
 21
42.748
  0
LINE
  6
CONTINUOUS
  8
1
 10
71.864
 20
37.261
 11
71.863
 21
34.812
  0
LINE
  6
CONTINUOUS
  8
1
 10
73.985
 20
36.037
 11
73.985
 21
33.588
  0
LINE
  6
CONTINUOUS
  8
1
 10
76.326
 20
36.573
 11
87.066
 21
42.773
  0
LINE
  6
CONTINUOUS
  8
1
 10
87.066
 20
41.957
 11
76.326
 21
35.756
  0
LINE
  6
CONTINUOUS
  8
1
 10
102.268
 20
52.367
 11
108.269
 21
48.903
  0
LINE
  6
CONTINUOUS
  8
1
 10
108.269
 20
48.903
 11
113.929
 21
45.648
  0
LINE
  6
CONTINUOUS
  8
1
 10
102.269
 20
52.089
 11
110.774
 21
47.184
  0
LINE
  6
CONTINUOUS
  8
1
 10
110.774
 20
47.184
 11
115.635
 21
44.369
  0
LINE
  6
CONTINUOUS
  8
1
 10
115.635
 20
44.369
 11
118.074
 21
42.964
  0
LINE
  6
CONTINUOUS
  8
1
 10
118.031
 20
42.989
 11
118.268
 21
43.142
  0
LINE
  6
CONTINUOUS
  8
1
 10
118.268
 20
43.142
 11
118.031
 21
42.989
  0
LINE
  6
CONTINUOUS
  8
1
 10
118.268
 20
43.130
 11
118.268
 21
40.959
  0
LINE
  6
CONTINUOUS
  8
1
 10
118.027
 20
40.820
 11
118.027
 21
42.991
  0
LINE
  6
CONTINUOUS
  8
1
 10
113.929
 20
45.648
 11
118.263
 21
43.145
  0
LINE
  6
CONTINUOUS
  8
1
 10
117.833
 20
40.932
 11
117.833
 21
41.724
  0
LINE
  6
CONTINUOUS
  8
1
 10
117.833
 20
41.724
 11
117.147
 21
42.120
  0
LINE
  6
CONTINUOUS
  8
1
 10
102.269
 20
52.089
 11
102.269
 21
51.551
  0
LINE
  6
CONTINUOUS
  8
1
 10
99.523
 20
50.782
 11
99.764
 21
50.643
  0
LINE
  6
CONTINUOUS
  8
1
 10
99.764
 20
50.643
 11
102.269
 21
52.089
  0
LINE
  6
CONTINUOUS
  8
1
 10
99.523
 20
50.782
 11
99.523
 21
48.333
  0
LINE
  6
CONTINUOUS
  8
1
 10
99.523
 20
48.333
 11
99.764
 21
48.194
  0
LINE
  6
CONTINUOUS
  8
1
 10
99.764
 20
48.194
 11
99.764
 21
50.643
  0
LINE
  6
CONTINUOUS
  8
1
 10
102.269
 20
52.089
 11
102.269
 21
49.691
  0
LINE
  6
CONTINUOUS
  8
1
 10
91.309
 20
43.590
 11
99.523
 21
48.333
  0
LINE
  6
CONTINUOUS
  8
1
 10
99.523
 20
49.150
 11
90.602
 21
43.999
  0
LINE
  6
CONTINUOUS
  8
1
 10
89.895
 20
44.407
 11
99.523
 21
49.966
  0
LINE
  6
CONTINUOUS
  8
1
 10
99.717
 20
48.221
 11
100.136
 21
47.247
  0
LINE
  6
CONTINUOUS
  8
1
 10
99.764
 20
48.194
 11
102.269
 21
49.674
  0
LINE
  6
CONTINUOUS
  8
1
 10
102.269
 20
49.674
 11
105.937
 21
47.556
  0
LINE
  6
CONTINUOUS
  8
1
 10
105.937
 20
47.556
 11
110.733
 21
44.784
  0
LINE
  6
CONTINUOUS
  8
1
 10
110.733
 20
44.784
 11
115.742
 21
41.896
  0
LINE
  6
CONTINUOUS
  8
1
 10
118.268
 20
40.715
 11
118.027
 21
40.576
  0
LINE
  6
CONTINUOUS
  8
1
 10
118.027
 20
40.576
 11
118.027
 21
40.820
  0
LINE
  6
CONTINUOUS
  8
1
 10
117.833
 20
40.932
 11
117.833
 21
40.688
  0
LINE
  6
CONTINUOUS
  8
1
 10
117.833
 20
40.688
 11
118.027
 21
40.576
  0
LINE
  6
CONTINUOUS
  8
1
 10
117.147
 20
42.120
 11
116.936
 21
42.242
  0
LINE
  6
CONTINUOUS
  8
1
 10
116.936
 20
42.242
 11
116.936
 21
41.206
  0
LINE
  6
CONTINUOUS
  8
1
 10
115.742
 20
41.896
 11
116.936
 21
41.206
  0
LINE
  6
CONTINUOUS
  8
1
 10
117.147
 20
42.120
 11
117.147
 21
41.328
  0
LINE
  6
CONTINUOUS
  8
1
 10
118.268
 20
40.959
 11
118.268
 21
40.681
  0
LINE
  6
CONTINUOUS
  8
1
 10
116.936
 20
41.206
 11
117.147
 21
41.328
  0
LINE
  6
CONTINUOUS
  8
1
 10
97.211
 20
51.895
 11
97.211
 21
52.117
  0
LINE
  6
CONTINUOUS
  8
1
 10
97.211
 20
52.117
 11
99.716
 21
53.563
  0
LINE
  6
CONTINUOUS
  8
1
 10
99.716
 20
53.563
 11
93.028
 21
57.424
  0
LINE
  6
CONTINUOUS
  8
1
 10
93.028
 20
57.424
 11
89.193
 21
59.638
  0
LINE
  6
CONTINUOUS
  8
1
 10
91.566
 20
58.562
 11
95.269
 21
56.408
  0
LINE
  6
CONTINUOUS
  8
1
 10
95.269
 20
56.408
 11
99.269
 21
54.099
  0
LINE
  6
CONTINUOUS
  8
1
 10
99.269
 20
54.099
 11
100.147
 21
53.592
  0
LINE
  6
CONTINUOUS
  8
1
 10
97.211
 20
52.117
 11
97.402
 21
52.007
  0
LINE
  6
CONTINUOUS
  8
1
 10
97.624
 20
52.356
 11
92.937
 21
55.062
  0
LINE
  6
CONTINUOUS
  8
1
 10
89.195
 20
59.920
 11
91.566
 21
58.562
  0
LINE
  6
CONTINUOUS
  8
1
 10
92.937
 20
55.062
 11
89.193
 21
57.223
  0
LINE
  6
CONTINUOUS
  8
1
 10
107.678
 20
246.018
 11
106.179
 21
245.153
  0
POLYLINE
  6
CONTINUOUS
  8
1
 66
     1
 70
     2
  0
VERTEX
  6
CONTINUOUS
  8
1
 10
105.357
 20
245.627
  0
VERTEX
  6
CONTINUOUS
  8
1
 10
105.341
 20
245.612
  0
VERTEX
  6
CONTINUOUS
  8
1
 10
105.320
 20
245.590
  0
VERTEX
  6
CONTINUOUS
  8
1
 10
105.299
 20
245.568
  0
VERTEX
  6
CONTINUOUS
  8
1
 10
105.279
 20
245.546
  0
VERTEX
  6
CONTINUOUS
  8
1
 10
105.258
 20
245.522
  0
VERTEX
  6
CONTINUOUS
  8
1
 10
105.238
 20
245.499
  0
VERTEX
  6
CONTINUOUS
  8
1
 10
105.219
 20
245.475
  0
VERTEX
  6
CONTINUOUS
  8
1
 10
105.199
 20
245.450
  0
VERTEX
  6
CONTINUOUS
  8
1
 10
105.180
 20
245.425
  0
VERTEX
  6
CONTINUOUS
  8
1
 10
105.161
 20
245.400
  0
VERTEX
  6
CONTINUOUS
  8
1
 10
105.143
 20
245.374
  0
VERTEX
  6
CONTINUOUS
  8
1
 10
105.125
 20
245.347
  0
VERTEX
  6
CONTINUOUS
  8
1
 10
105.107
 20
245.320
  0
VERTEX
  6
CONTINUOUS
  8
1
 10
105.089
 20
245.293
  0
VERTEX
  6
CONTINUOUS
  8
1
 10
105.072
 20
245.265
  0
VERTEX
  6
CONTINUOUS
  8
1
 10
105.055
 20
245.237
  0
VERTEX
  6
CONTINUOUS
  8
1
 10
105.039
 20
245.208
  0
VERTEX
  6
CONTINUOUS
  8
1
 10
105.023
 20
245.179
  0
VERTEX
  6
CONTINUOUS
  8
1
 10
105.007
 20
245.150
  0
VERTEX
  6
CONTINUOUS
  8
1
 10
104.992
 20
245.120
  0
VERTEX
  6
CONTINUOUS
  8
1
 10
104.977
 20
245.090
  0
VERTEX
  6
CONTINUOUS
  8
1
 10
104.962
 20
245.059
  0
VERTEX
  6
CONTINUOUS
  8
1
 10
104.948
 20
245.028
  0
VERTEX
  6
CONTINUOUS
  8
1
 10
104.934
 20
244.997
  0
VERTEX
  6
CONTINUOUS
  8
1
 10
104.920
 20
244.965
  0
VERTEX
  6
CONTINUOUS
  8
1
 10
104.907
 20
244.934
  0
VERTEX
  6
CONTINUOUS
  8
1
 10
104.894
 20
244.901
  0
VERTEX
  6
CONTINUOUS
  8
1
 10
104.882
 20
244.869
  0
VERTEX
  6
CONTINUOUS
  8
1
 10
104.870
 20
244.836
  0
VERTEX
  6
CONTINUOUS
  8
1
 10
104.858
 20
244.803
  0
VERTEX
  6
CONTINUOUS
  8
1
 10
104.847
 20
244.769
  0
VERTEX
  6
CONTINUOUS
  8
1
 10
104.836
 20
244.735
  0
VERTEX
  6
CONTINUOUS
  8
1
 10
104.826
 20
244.701
  0
VERTEX
  6
CONTINUOUS
  8
1
 10
104.816
 20
244.667
  0
VERTEX
  6
CONTINUOUS
  8
1
 10
104.807
 20
244.633
  0
VERTEX
  6
CONTINUOUS
  8
1
 10
104.798
 20
244.598
  0
VERTEX
  6
CONTINUOUS
  8
1
 10
104.789
 20
244.563
  0
VERTEX
  6
CONTINUOUS
  8
1
 10
104.781
 20
244.528
  0
VERTEX
  6
CONTINUOUS
  8
1
 10
104.773
 20
244.492
  0
VERTEX
  6
CONTINUOUS
  8
1
 10
104.766
 20
244.457
  0
VERTEX
  6
CONTINUOUS
  8
1
 10
104.759
 20
244.421
  0
VERTEX
  6
CONTINUOUS
  8
1
 10
104.752
 20
244.385
  0
VERTEX
  6
CONTINUOUS
  8
1
 10
104.746
 20
244.349
  0
VERTEX
  6
CONTINUOUS
  8
1
 10
104.740
 20
244.313
  0
VERTEX
  6
CONTINUOUS
  8
1
 10
104.735
 20
244.276
  0
VERTEX
  6
CONTINUOUS
  8
1
 10
104.731
 20
244.240
  0
VERTEX
  6
CONTINUOUS
  8
1
 10
104.726
 20
244.203
  0
VERTEX
  6
CONTINUOUS
  8
1
 10
104.722
 20
244.167
  0
VERTEX
  6
CONTINUOUS
  8
1
 10
104.719
 20
244.130
  0
VERTEX
  6
CONTINUOUS
  8
1
 10
104.716
 20
244.093
  0
VERTEX
  6
CONTINUOUS
  8
1
 10
104.714
 20
244.056
  0
VERTEX
  6
CONTINUOUS
  8
1
 10
104.712
 20
244.019
  0
VERTEX
  6
CONTINUOUS
  8
1
 10
104.710
 20
243.982
  0
VERTEX
  6
CONTINUOUS
  8
1
 10
104.709
 20
243.945
  0
VERTEX
  6
CONTINUOUS
  8
1
 10
104.708
 20
243.908
  0
VERTEX
  6
CONTINUOUS
  8
1
 10
104.708
 20
243.871
  0
VERTEX
  6
CONTINUOUS
  8
1
 10
104.708
 20
243.834
  0
VERTEX
  6
CONTINUOUS
  8
1
 10
104.709
 20
243.797
  0
VERTEX
  6
CONTINUOUS
  8
1
 10
104.710
 20
243.760
  0
VERTEX
  6
CONTINUOUS
  8
1
 10
104.712
 20
243.723
  0
VERTEX
  6
CONTINUOUS
  8
1
 10
104.714
 20
243.686
  0
VERTEX
  6
CONTINUOUS
  8
1
 10
104.716
 20
243.649
  0
VERTEX
  6
CONTINUOUS
  8
1
 10
104.719
 20
243.612
  0
VERTEX
  6
CONTINUOUS
  8
1
 10
104.722
 20
243.575
  0
VERTEX
  6
CONTINUOUS
  8
1
 10
104.726
 20
243.539
  0
VERTEX
  6
CONTINUOUS
  8
1
 10
104.731
 20
243.502
  0
VERTEX
  6
CONTINUOUS
  8
1
 10
104.735
 20
243.466
  0
VERTEX
  6
CONTINUOUS
  8
1
 10
104.740
 20
243.429
  0
VERTEX
  6
CONTINUOUS
  8
1
 10
104.746
 20
243.393
  0
VERTEX
  6
CONTINUOUS
  8
1
 10
104.752
 20
243.357
  0
VERTEX
  6
CONTINUOUS
  8
1
 10
104.759
 20
243.321
  0
VERTEX
  6
CONTINUOUS
  8
1
 10
104.766
 20
243.285
  0
VERTEX
  6
CONTINUOUS
  8
1
 10
104.773
 20
243.250
  0
VERTEX
  6
CONTINUOUS
  8
1
 10
104.781
 20
243.214
  0
VERTEX
  6
CONTINUOUS
  8
1
 10
104.789
 20
243.179
  0
VERTEX
  6
CONTINUOUS
  8
1
 10
104.798
 20
243.144
  0
VERTEX
  6
CONTINUOUS
  8
1
 10
104.807
 20
243.109
  0
VERTEX
  6
CONTINUOUS
  8
1
 10
104.816
 20
243.075
  0
VERTEX
  6
CONTINUOUS
  8
1
 10
104.826
 20
243.041
  0
VERTEX
  6
CONTINUOUS
  8
1
 10
104.836
 20
243.007
  0
VERTEX
  6
CONTINUOUS
  8
1
 10
104.847
 20
242.973
  0
VERTEX
  6
CONTINUOUS
  8
1
 10
104.858
 20
242.939
  0
VERTEX
  6
CONTINUOUS
  8
1
 10
104.870
 20
242.906
  0
VERTEX
  6
CONTINUOUS
  8
1
 10
104.882
 20
242.873
  0
VERTEX
  6
CONTINUOUS
  8
1
 10
104.894
 20
242.841
  0
VERTEX
  6
CONTINUOUS
  8
1
 10
104.907
 20
242.809
  0
VERTEX
  6
CONTINUOUS
  8
1
 10
104.920
 20
242.777
  0
VERTEX
  6
CONTINUOUS
  8
1
 10
104.934
 20
242.745
  0
VERTEX
  6
CONTINUOUS
  8
1
 10
104.948
 20
242.714
  0
VERTEX
  6
CONTINUOUS
  8
1
 10
104.962
 20
242.683
  0
VERTEX
  6
CONTINUOUS
  8
1
 10
104.977
 20
242.652
  0
VERTEX
  6
CONTINUOUS
  8
1
 10
104.992
 20
242.622
  0
VERTEX
  6
CONTINUOUS
  8
1
 10
105.007
 20
242.592
  0
VERTEX
  6
CONTINUOUS
  8
1
 10
105.023
 20
242.563
  0
VERTEX
  6
CONTINUOUS
  8
1
 10
105.039
 20
242.534
  0
VERTEX
  6
CONTINUOUS
  8
1
 10
105.055
 20
242.505
  0
VERTEX
  6
CONTINUOUS
  8
1
 10
105.072
 20
242.477
  0
VERTEX
  6
CONTINUOUS
  8
1
 10
105.089
 20
242.449
  0
VERTEX
  6
CONTINUOUS
  8
1
 10
105.107
 20
242.422
  0
VERTEX
  6
CONTINUOUS
  8
1
 10
105.125
 20
242.395
  0
VERTEX
  6
CONTINUOUS
  8
1
 10
105.143
 20
242.368
  0
VERTEX
  6
CONTINUOUS
  8
1
 10
105.161
 20
242.342
  0
VERTEX
  6
CONTINUOUS
  8
1
 10
105.180
 20
242.317
  0
VERTEX
  6
CONTINUOUS
  8
1
 10
105.199
 20
242.292
  0
VERTEX
  6
CONTINUOUS
  8
1
 10
105.219
 20
242.267
  0
VERTEX
  6
CONTINUOUS
  8
1
 10
105.238
 20
242.243
  0
VERTEX
  6
CONTINUOUS
  8
1
 10
105.258
 20
242.220
  0
VERTEX
  6
CONTINUOUS
  8
1
 10
105.279
 20
242.196
  0
VERTEX
  6
CONTINUOUS
  8
1
 10
105.299
 20
242.174
  0
VERTEX
  6
CONTINUOUS
  8
1
 10
105.320
 20
242.152
  0
VERTEX
  6
CONTINUOUS
  8
1
 10
105.341
 20
242.130
  0
VERTEX
  6
CONTINUOUS
  8
1
 10
105.363
 20
242.109
  0
VERTEX
  6
CONTINUOUS
  8
1
 10
105.384
 20
242.089
  0
VERTEX
  6
CONTINUOUS
  8
1
 10
105.406
 20
242.069
  0
VERTEX
  6
CONTINUOUS
  8
1
 10
105.428
 20
242.050
  0
VERTEX
  6
CONTINUOUS
  8
1
 10
105.451
 20
242.031
  0
VERTEX
  6
CONTINUOUS
  8
1
 10
105.473
 20
242.012
  0
VERTEX
  6
CONTINUOUS
  8
1
 10
105.496
 20
241.995
  0
VERTEX
  6
CONTINUOUS
  8
1
 10
105.519
 20
241.978
  0
VERTEX
  6
CONTINUOUS
  8
1
 10
105.542
 20
241.961
  0
VERTEX
  6
CONTINUOUS
  8
1
 10
105.565
 20
241.945
  0
VERTEX
  6
CONTINUOUS
  8
1
 10
105.589
 20
241.930
  0
VERTEX
  6
CONTINUOUS
  8
1
 10
105.613
 20
241.915
  0
VERTEX
  6
CONTINUOUS
  8
1
 10
105.637
 20
241.901
  0
VERTEX
  6
CONTINUOUS
  8
1
 10
105.661
 20
241.887
  0
VERTEX
  6
CONTINUOUS
  8
1
 10
105.685
 20
241.874
  0
VERTEX
  6
CONTINUOUS
  8
1
 10
105.710
 20
241.862
  0
VERTEX
  6
CONTINUOUS
  8
1
 10
105.734
 20
241.850
  0
VERTEX
  6
CONTINUOUS
  8
1
 10
105.759
 20
241.839
  0
VERTEX
  6
CONTINUOUS
  8
1
 10
105.784
 20
241.828
  0
VERTEX
  6
CONTINUOUS
  8
1
 10
105.809
 20
241.818
  0
VERTEX
  6
CONTINUOUS
  8
1
 10
105.834
 20
241.809
  0
VERTEX
  6
CONTINUOUS
  8
1
 10
105.859
 20
241.800
  0
VERTEX
  6
CONTINUOUS
  8
1
 10
105.884
 20
241.792
  0
VERTEX
  6
CONTINUOUS
  8
1
 10
105.910
 20
241.785
  0
VERTEX
  6
CONTINUOUS
  8
1
 10
105.935
 20
241.778
  0
VERTEX
  6
CONTINUOUS
  8
1
 10
105.961
 20
241.772
  0
VERTEX
  6
CONTINUOUS
  8
1
 10
105.986
 20
241.767
  0
VERTEX
  6
CONTINUOUS
  8
1
 10
106.012
 20
241.762
  0
VERTEX
  6
CONTINUOUS
  8
1
 10
106.038
 20
241.758
  0
VERTEX
  6
CONTINUOUS
  8
1
 10
106.064
 20
241.754
  0
VERTEX
  6
CONTINUOUS
  8
1
 10
106.089
 20
241.751
  0
VERTEX
  6
CONTINUOUS
  8
1
 10
106.115
 20
241.749
  0
VERTEX
  6
CONTINUOUS
  8
1
 10
106.141
 20
241.747
  0
VERTEX
  6
CONTINUOUS
  8
1
 10
106.167
 20
241.746
  0
VERTEX
  6
CONTINUOUS
  8
1
 10
106.193
 20
241.746
  0
VERTEX
  6
CONTINUOUS
  8
1
 10
106.219
 20
241.746
  0
VERTEX
  6
CONTINUOUS
  8
1
 10
106.245
 20
241.747
  0
VERTEX
  6
CONTINUOUS
  8
1
 10
106.271
 20
241.749
  0
VERTEX
  6
CONTINUOUS
  8
1
 10
106.297
 20
241.751
  0
VERTEX
  6
CONTINUOUS
  8
1
 10
106.322
 20
241.754
  0
VERTEX
  6
CONTINUOUS
  8
1
 10
106.348
 20
241.758
  0
VERTEX
  6
CONTINUOUS
  8
1
 10
106.374
 20
241.762
  0
VERTEX
  6
CONTINUOUS
  8
1
 10
106.400
 20
241.767
  0
VERTEX
  6
CONTINUOUS
  8
1
 10
106.425
 20
241.772
  0
VERTEX
  6
CONTINUOUS
  8
1
 10
106.451
 20
241.778
  0
VERTEX
  6
CONTINUOUS
  8
1
 10
106.476
 20
241.785
  0
VERTEX
  6
CONTINUOUS
  8
1
 10
106.502
 20
241.792
  0
VERTEX
  6
CONTINUOUS
  8
1
 10
106.527
 20
241.800
  0
VERTEX
  6
CONTINUOUS
  8
1
 10
106.552
 20
241.809
  0
VERTEX
  6
CONTINUOUS
  8
1
 10
106.577
 20
241.818
  0
VERTEX
  6
CONTINUOUS
  8
1
 10
106.602
 20
241.828
  0
VERTEX
  6
CONTINUOUS
  8
1
 10
106.627
 20
241.839
  0
VERTEX
  6
CONTINUOUS
  8
1
 10
106.652
 20
241.850
  0
VERTEX
  6
CONTINUOUS
  8
1
 10
106.676
 20
241.862
  0
VERTEX
  6
CONTINUOUS
  8
1
 10
106.701
 20
241.874
  0
VERTEX
  6
CONTINUOUS
  8
1
 10
106.725
 20
241.887
  0
VERTEX
  6
CONTINUOUS
  8
1
 10
106.749
 20
241.901
  0
VERTEX
  6
CONTINUOUS
  8
1
 10
106.773
 20
241.915
  0
VERTEX
  6
CONTINUOUS
  8
1
 10
106.797
 20
241.930
  0
VERTEX
  6
CONTINUOUS
  8
1
 10
106.821
 20
241.945
  0
VERTEX
  6
CONTINUOUS
  8
1
 10
106.844
 20
241.961
  0
VERTEX
  6
CONTINUOUS
  8
1
 10
106.867
 20
241.978
  0
VERTEX
  6
CONTINUOUS
  8
1
 10
106.890
 20
241.995
  0
VERTEX
  6
CONTINUOUS
  8
1
 10
106.913
 20
242.012
  0
VERTEX
  6
CONTINUOUS
  8
1
 10
106.935
 20
242.031
  0
VERTEX
  6
CONTINUOUS
  8
1
 10
106.958
 20
242.050
  0
VERTEX
  6
CONTINUOUS
  8
1
 10
106.980
 20
242.069
  0
VERTEX
  6
CONTINUOUS
  8
1
 10
107.002
 20
242.089
  0
VERTEX
  6
CONTINUOUS
  8
1
 10
107.023
 20
242.109
  0
VERTEX
  6
CONTINUOUS
  8
1
 10
107.045
 20
242.130
  0
VERTEX
  6
CONTINUOUS
  8
1
 10
107.066
 20
242.152
  0
VERTEX
  6
CONTINUOUS
  8
1
 10
107.087
 20
242.174
  0
VERTEX
  6
CONTINUOUS
  8
1
 10
107.107
 20
242.196
  0
VERTEX
  6
CONTINUOUS
  8
1
 10
107.128
 20
242.220
  0
VERTEX
  6
CONTINUOUS
  8
1
 10
107.148
 20
242.243
  0
VERTEX
  6
CONTINUOUS
  8
1
 10
107.167
 20
242.267
  0
VERTEX
  6
CONTINUOUS
  8
1
 10
107.187
 20
242.292
  0
VERTEX
  6
CONTINUOUS
  8
1
 10
107.206
 20
242.317
  0
VERTEX
  6
CONTINUOUS
  8
1
 10
107.225
 20
242.342
  0
VERTEX
  6
CONTINUOUS
  8
1
 10
107.243
 20
242.368
  0
VERTEX
  6
CONTINUOUS
  8
1
 10
107.261
 20
242.395
  0
VERTEX
  6
CONTINUOUS
  8
1
 10
107.279
 20
242.422
  0
VERTEX
  6
CONTINUOUS
  8
1
 10
107.297
 20
242.449
  0
VERTEX
  6
CONTINUOUS
  8
1
 10
107.314
 20
242.477
  0
VERTEX
  6
CONTINUOUS
  8
1
 10
107.331
 20
242.505
  0
VERTEX
  6
CONTINUOUS
  8
1
 10
107.347
 20
242.534
  0
VERTEX
  6
CONTINUOUS
  8
1
 10
107.363
 20
242.563
  0
VERTEX
  6
CONTINUOUS
  8
1
 10
107.379
 20
242.592
  0
VERTEX
  6
CONTINUOUS
  8
1
 10
107.394
 20
242.622
  0
VERTEX
  6
CONTINUOUS
  8
1
 10
107.409
 20
242.652
  0
VERTEX
  6
CONTINUOUS
  8
1
 10
107.424
 20
242.683
  0
VERTEX
  6
CONTINUOUS
  8
1
 10
107.438
 20
242.714
  0
VERTEX
  6
CONTINUOUS
  8
1
 10
107.452
 20
242.745
  0
VERTEX
  6
CONTINUOUS
  8
1
 10
107.466
 20
242.777
  0
VERTEX
  6
CONTINUOUS
  8
1
 10
107.479
 20
242.808
  0
VERTEX
  6
CONTINUOUS
  8
1
 10
107.492
 20
242.841
  0
VERTEX
  6
CONTINUOUS
  8
1
 10
107.504
 20
242.873
  0
VERTEX
  6
CONTINUOUS
  8
1
 10
107.516
 20
242.906
  0
VERTEX
  6
CONTINUOUS
  8
1
 10
107.528
 20
242.939
  0
VERTEX
  6
CONTINUOUS
  8
1
 10
107.539
 20
242.973
  0
VERTEX
  6
CONTINUOUS
  8
1
 10
107.550
 20
243.007
  0
VERTEX
  6
CONTINUOUS
  8
1
 10
107.560
 20
243.041
  0
VERTEX
  6
CONTINUOUS
  8
1
 10
107.570
 20
243.075
  0
VERTEX
  6
CONTINUOUS
  8
1
 10
107.579
 20
243.109
  0
VERTEX
  6
CONTINUOUS
  8
1
 10
107.588
 20
243.144
  0
VERTEX
  6
CONTINUOUS
  8
1
 10
107.597
 20
243.179
  0
VERTEX
  6
CONTINUOUS
  8
1
 10
107.605
 20
243.214
  0
VERTEX
  6
CONTINUOUS
  8
1
 10
107.613
 20
243.250
  0
VERTEX
  6
CONTINUOUS
  8
1
 10
107.620
 20
243.285
  0
VERTEX
  6
CONTINUOUS
  8
1
 10
107.627
 20
243.321
  0
VERTEX
  6
CONTINUOUS
  8
1
 10
107.634
 20
243.357
  0
VERTEX
  6
CONTINUOUS
  8
1
 10
107.640
 20
243.393
  0
VERTEX
  6
CONTINUOUS
  8
1
 10
107.646
 20
243.429
  0
VERTEX
  6
CONTINUOUS
  8
1
 10
107.651
 20
243.466
  0
VERTEX
  6
CONTINUOUS
  8
1
 10
107.655
 20
243.502
  0
VERTEX
  6
CONTINUOUS
  8
1
 10
107.660
 20
243.539
  0
VERTEX
  6
CONTINUOUS
  8
1
 10
107.664
 20
243.575
  0
VERTEX
  6
CONTINUOUS
  8
1
 10
107.667
 20
243.612
  0
VERTEX
  6
CONTINUOUS
  8
1
 10
107.670
 20
243.649
  0
VERTEX
  6
CONTINUOUS
  8
1
 10
107.672
 20
243.686
  0
VERTEX
  6
CONTINUOUS
  8
1
 10
107.674
 20
243.723
  0
VERTEX
  6
CONTINUOUS
  8
1
 10
107.676
 20
243.760
  0
VERTEX
  6
CONTINUOUS
  8
1
 10
107.677
 20
243.797
  0
VERTEX
  6
CONTINUOUS
  8
1
 10
107.678
 20
243.834
  0
VERTEX
  6
CONTINUOUS
  8
1
 10
107.678
 20
243.871
  0
VERTEX
  6
CONTINUOUS
  8
1
 10
107.678
 20
243.908
  0
VERTEX
  6
CONTINUOUS
  8
1
 10
107.677
 20
243.945
  0
VERTEX
  6
CONTINUOUS
  8
1
 10
107.676
 20
243.982
  0
VERTEX
  6
CONTINUOUS
  8
1
 10
107.674
 20
244.019
  0
VERTEX
  6
CONTINUOUS
  8
1
 10
107.672
 20
244.056
  0
VERTEX
  6
CONTINUOUS
  8
1
 10
107.670
 20
244.093
  0
VERTEX
  6
CONTINUOUS
  8
1
 10
107.667
 20
244.130
  0
VERTEX
  6
CONTINUOUS
  8
1
 10
107.664
 20
244.167
  0
VERTEX
  6
CONTINUOUS
  8
1
 10
107.660
 20
244.203
  0
VERTEX
  6
CONTINUOUS
  8
1
 10
107.655
 20
244.240
  0
VERTEX
  6
CONTINUOUS
  8
1
 10
107.651
 20
244.276
  0
VERTEX
  6
CONTINUOUS
  8
1
 10
107.646
 20
244.313
  0
VERTEX
  6
CONTINUOUS
  8
1
 10
107.640
 20
244.349
  0
VERTEX
  6
CONTINUOUS
  8
1
 10
107.634
 20
244.385
  0
VERTEX
  6
CONTINUOUS
  8
1
 10
107.627
 20
244.421
  0
VERTEX
  6
CONTINUOUS
  8
1
 10
107.620
 20
244.457
  0
VERTEX
  6
CONTINUOUS
  8
1
 10
107.613
 20
244.492
  0
VERTEX
  6
CONTINUOUS
  8
1
 10
107.605
 20
244.528
  0
VERTEX
  6
CONTINUOUS
  8
1
 10
107.597
 20
244.563
  0
VERTEX
  6
CONTINUOUS
  8
1
 10
107.588
 20
244.598
  0
VERTEX
  6
CONTINUOUS
  8
1
 10
107.579
 20
244.633
  0
VERTEX
  6
CONTINUOUS
  8
1
 10
107.570
 20
244.667
  0
VERTEX
  6
CONTINUOUS
  8
1
 10
107.560
 20
244.701
  0
VERTEX
  6
CONTINUOUS
  8
1
 10
107.550
 20
244.735
  0
VERTEX
  6
CONTINUOUS
  8
1
 10
107.539
 20
244.769
  0
VERTEX
  6
CONTINUOUS
  8
1
 10
107.528
 20
244.803
  0
VERTEX
  6
CONTINUOUS
  8
1
 10
107.516
 20
244.836
  0
VERTEX
  6
CONTINUOUS
  8
1
 10
107.504
 20
244.869
  0
VERTEX
  6
CONTINUOUS
  8
1
 10
107.492
 20
244.901
  0
VERTEX
  6
CONTINUOUS
  8
1
 10
107.479
 20
244.934
  0
VERTEX
  6
CONTINUOUS
  8
1
 10
107.466
 20
244.965
  0
VERTEX
  6
CONTINUOUS
  8
1
 10
107.452
 20
244.997
  0
VERTEX
  6
CONTINUOUS
  8
1
 10
107.438
 20
245.028
  0
VERTEX
  6
CONTINUOUS
  8
1
 10
107.424
 20
245.059
  0
VERTEX
  6
CONTINUOUS
  8
1
 10
107.409
 20
245.090
  0
VERTEX
  6
CONTINUOUS
  8
1
 10
107.394
 20
245.120
  0
VERTEX
  6
CONTINUOUS
  8
1
 10
107.379
 20
245.150
  0
VERTEX
  6
CONTINUOUS
  8
1
 10
107.363
 20
245.179
  0
VERTEX
  6
CONTINUOUS
  8
1
 10
107.347
 20
245.208
  0
VERTEX
  6
CONTINUOUS
  8
1
 10
107.331
 20
245.237
  0
VERTEX
  6
CONTINUOUS
  8
1
 10
107.314
 20
245.265
  0
VERTEX
  6
CONTINUOUS
  8
1
 10
107.297
 20
245.293
  0
VERTEX
  6
CONTINUOUS
  8
1
 10
107.279
 20
245.320
  0
VERTEX
  6
CONTINUOUS
  8
1
 10
107.261
 20
245.347
  0
VERTEX
  6
CONTINUOUS
  8
1
 10
107.243
 20
245.374
  0
VERTEX
  6
CONTINUOUS
  8
1
 10
107.225
 20
245.400
  0
VERTEX
  6
CONTINUOUS
  8
1
 10
107.206
 20
245.425
  0
VERTEX
  6
CONTINUOUS
  8
1
 10
107.187
 20
245.450
  0
VERTEX
  6
CONTINUOUS
  8
1
 10
107.167
 20
245.475
  0
VERTEX
  6
CONTINUOUS
  8
1
 10
107.148
 20
245.499
  0
VERTEX
  6
CONTINUOUS
  8
1
 10
107.128
 20
245.522
  0
VERTEX
  6
CONTINUOUS
  8
1
 10
107.107
 20
245.546
  0
VERTEX
  6
CONTINUOUS
  8
1
 10
107.087
 20
245.568
  0
VERTEX
  6
CONTINUOUS
  8
1
 10
107.066
 20
245.590
  0
VERTEX
  6
CONTINUOUS
  8
1
 10
107.045
 20
245.612
  0
VERTEX
  6
CONTINUOUS
  8
1
 10
107.023
 20
245.633
  0
VERTEX
  6
CONTINUOUS
  8
1
 10
107.019
 20
245.637
  0
SEQEND
  0
CIRCLE
  6
CONTINUOUS
  8
1
 10
108.245
 20
242.479
 40
0.528
  0
LINE
  6
CONTINUOUS
  8
1
 10
106.166
 20
244.248
 11
108.656
 21
242.810
  0
LINE
  6
CONTINUOUS
  8
1
 10
106.167
 20
243.202
 11
108.323
 21
241.957
  0
ARC
  6
CONTINUOUS
  8
1
 10
106.193
 20
243.725
 40
0.524
 50
27.005
 51
267.263
  0
LINE
  6
CONTINUOUS
  8
1
 10
105.534
 20
241.820
 11
101.541
 21
244.126
  0
POLYLINE
  6
CONTINUOUS
  8
1
 66
     1
 70
     2
  0
VERTEX
  6
CONTINUOUS
  8
1
 10
102.088
 20
247.452
  0
VERTEX
  6
CONTINUOUS
  8
1
 10
102.083
 20
247.455
  0
VERTEX
  6
CONTINUOUS
  8
1
 10
102.062
 20
247.468
  0
VERTEX
  6
CONTINUOUS
  8
1
 10
102.042
 20
247.480
  0
VERTEX
  6
CONTINUOUS
  8
1
 10
102.021
 20
247.492
  0
VERTEX
  6
CONTINUOUS
  8
1
 10
102.000
 20
247.503
  0
VERTEX
  6
CONTINUOUS
  8
1
 10
101.979
 20
247.514
  0
VERTEX
  6
CONTINUOUS
  8
1
 10
101.958
 20
247.524
  0
VERTEX
  6
CONTINUOUS
  8
1
 10
101.937
 20
247.533
  0
VERTEX
  6
CONTINUOUS
  8
1
 10
101.916
 20
247.543
  0
VERTEX
  6
CONTINUOUS
  8
1
 10
101.894
 20
247.551
  0
VERTEX
  6
CONTINUOUS
  8
1
 10
101.873
 20
247.559
  0
VERTEX
  6
CONTINUOUS
  8
1
 10
101.851
 20
247.567
  0
VERTEX
  6
CONTINUOUS
  8
1
 10
101.829
 20
247.574
  0
VERTEX
  6
CONTINUOUS
  8
1
 10
101.808
 20
247.581
  0
VERTEX
  6
CONTINUOUS
  8
1
 10
101.786
 20
247.587
  0
VERTEX
  6
CONTINUOUS
  8
1
 10
101.764
 20
247.592
  0
VERTEX
  6
CONTINUOUS
  8
1
 10
101.742
 20
247.597
  0
VERTEX
  6
CONTINUOUS
  8
1
 10
101.719
 20
247.602
  0
VERTEX
  6
CONTINUOUS
  8
1
 10
101.697
 20
247.606
  0
VERTEX
  6
CONTINUOUS
  8
1
 10
101.675
 20
247.609
  0
VERTEX
  6
CONTINUOUS
  8
1
 10
101.653
 20
247.612
  0
VERTEX
  6
CONTINUOUS
  8
1
 10
101.630
 20
247.615
  0
VERTEX
  6
CONTINUOUS
  8
1
 10
101.608
 20
247.617
  0
VERTEX
  6
CONTINUOUS
  8
1
 10
101.586
 20
247.618
  0
VERTEX
  6
CONTINUOUS
  8
1
 10
101.563
 20
247.619
  0
VERTEX
  6
CONTINUOUS
  8
1
 10
101.541
 20
247.619
  0
VERTEX
  6
CONTINUOUS
  8
1
 10
101.519
 20
247.619
  0
VERTEX
  6
CONTINUOUS
  8
1
 10
101.496
 20
247.618
  0
VERTEX
  6
CONTINUOUS
  8
1
 10
101.474
 20
247.617
  0
VERTEX
  6
CONTINUOUS
  8
1
 10
101.452
 20
247.615
  0
VERTEX
  6
CONTINUOUS
  8
1
 10
101.429
 20
247.612
  0
VERTEX
  6
CONTINUOUS
  8
1
 10
101.407
 20
247.609
  0
VERTEX
  6
CONTINUOUS
  8
1
 10
101.385
 20
247.606
  0
VERTEX
  6
CONTINUOUS
  8
1
 10
101.363
 20
247.602
  0
VERTEX
  6
CONTINUOUS
  8
1
 10
101.340
 20
247.597
  0
VERTEX
  6
CONTINUOUS
  8
1
 10
101.318
 20
247.592
  0
VERTEX
  6
CONTINUOUS
  8
1
 10
101.296
 20
247.587
  0
VERTEX
  6
CONTINUOUS
  8
1
 10
101.274
 20
247.581
  0
VERTEX
  6
CONTINUOUS
  8
1
 10
101.253
 20
247.574
  0
VERTEX
  6
CONTINUOUS
  8
1
 10
101.231
 20
247.567
  0
VERTEX
  6
CONTINUOUS
  8
1
 10
101.209
 20
247.559
  0
VERTEX
  6
CONTINUOUS
  8
1
 10
101.188
 20
247.551
  0
VERTEX
  6
CONTINUOUS
  8
1
 10
101.166
 20
247.543
  0
VERTEX
  6
CONTINUOUS
  8
1
 10
101.145
 20
247.533
  0
VERTEX
  6
CONTINUOUS
  8
1
 10
101.124
 20
247.524
  0
VERTEX
  6
CONTINUOUS
  8
1
 10
101.103
 20
247.514
  0
VERTEX
  6
CONTINUOUS
  8
1
 10
101.082
 20
247.503
  0
VERTEX
  6
CONTINUOUS
  8
1
 10
101.061
 20
247.492
  0
VERTEX
  6
CONTINUOUS
  8
1
 10
101.040
 20
247.480
  0
VERTEX
  6
CONTINUOUS
  8
1
 10
101.020
 20
247.468
  0
VERTEX
  6
CONTINUOUS
  8
1
 10
100.999
 20
247.455
  0
VERTEX
  6
CONTINUOUS
  8
1
 10
100.979
 20
247.442
  0
VERTEX
  6
CONTINUOUS
  8
1
 10
100.959
 20
247.429
  0
VERTEX
  6
CONTINUOUS
  8
1
 10
100.939
 20
247.415
  0
VERTEX
  6
CONTINUOUS
  8
1
 10
100.919
 20
247.400
  0
VERTEX
  6
CONTINUOUS
  8
1
 10
100.900
 20
247.385
  0
VERTEX
  6
CONTINUOUS
  8
1
 10
100.881
 20
247.369
  0
VERTEX
  6
CONTINUOUS
  8
1
 10
100.862
 20
247.354
  0
VERTEX
  6
CONTINUOUS
  8
1
 10
100.843
 20
247.337
  0
VERTEX
  6
CONTINUOUS
  8
1
 10
100.824
 20
247.320
  0
VERTEX
  6
CONTINUOUS
  8
1
 10
100.806
 20
247.303
  0
VERTEX
  6
CONTINUOUS
  8
1
 10
100.787
 20
247.285
  0
VERTEX
  6
CONTINUOUS
  8
1
 10
100.769
 20
247.267
  0
VERTEX
  6
CONTINUOUS
  8
1
 10
100.752
 20
247.249
  0
VERTEX
  6
CONTINUOUS
  8
1
 10
100.734
 20
247.230
  0
VERTEX
  6
CONTINUOUS
  8
1
 10
100.717
 20
247.210
  0
VERTEX
  6
CONTINUOUS
  8
1
 10
100.700
 20
247.190
  0
VERTEX
  6
CONTINUOUS
  8
1
 10
100.683
 20
247.170
  0
VERTEX
  6
CONTINUOUS
  8
1
 10
100.667
 20
247.150
  0
VERTEX
  6
CONTINUOUS
  8
1
 10
100.650
 20
247.129
  0
VERTEX
  6
CONTINUOUS
  8
1
 10
100.634
 20
247.107
  0
VERTEX
  6
CONTINUOUS
  8
1
 10
100.619
 20
247.086
  0
VERTEX
  6
CONTINUOUS
  8
1
 10
100.603
 20
247.063
  0
VERTEX
  6
CONTINUOUS
  8
1
 10
100.588
 20
247.041
  0
VERTEX
  6
CONTINUOUS
  8
1
 10
100.573
 20
247.018
  0
VERTEX
  6
CONTINUOUS
  8
1
 10
100.559
 20
246.995
  0
VERTEX
  6
CONTINUOUS
  8
1
 10
100.545
 20
246.971
  0
VERTEX
  6
CONTINUOUS
  8
1
 10
100.531
 20
246.948
  0
VERTEX
  6
CONTINUOUS
  8
1
 10
100.517
 20
246.923
  0
VERTEX
  6
CONTINUOUS
  8
1
 10
100.504
 20
246.899
  0
VERTEX
  6
CONTINUOUS
  8
1
 10
100.491
 20
246.874
  0
VERTEX
  6
CONTINUOUS
  8
1
 10
100.478
 20
246.849
  0
VERTEX
  6
CONTINUOUS
  8
1
 10
100.466
 20
246.823
  0
VERTEX
  6
CONTINUOUS
  8
1
 10
100.454
 20
246.798
  0
VERTEX
  6
CONTINUOUS
  8
1
 10
100.442
 20
246.772
  0
VERTEX
  6
CONTINUOUS
  8
1
 10
100.431
 20
246.746
  0
VERTEX
  6
CONTINUOUS
  8
1
 10
100.420
 20
246.719
  0
VERTEX
  6
CONTINUOUS
  8
1
 10
100.409
 20
246.692
  0
VERTEX
  6
CONTINUOUS
  8
1
 10
100.399
 20
246.665
  0
VERTEX
  6
CONTINUOUS
  8
1
 10
100.389
 20
246.638
  0
VERTEX
  6
CONTINUOUS
  8
1
 10
100.379
 20
246.610
  0
VERTEX
  6
CONTINUOUS
  8
1
 10
100.370
 20
246.583
  0
VERTEX
  6
CONTINUOUS
  8
1
 10
100.361
 20
246.555
  0
VERTEX
  6
CONTINUOUS
  8
1
 10
100.352
 20
246.526
  0
VERTEX
  6
CONTINUOUS
  8
1
 10
100.344
 20
246.498
  0
VERTEX
  6
CONTINUOUS
  8
1
 10
100.336
 20
246.470
  0
VERTEX
  6
CONTINUOUS
  8
1
 10
100.329
 20
246.441
  0
VERTEX
  6
CONTINUOUS
  8
1
 10
100.322
 20
246.412
  0
VERTEX
  6
CONTINUOUS
  8
1
 10
100.315
 20
246.383
  0
VERTEX
  6
CONTINUOUS
  8
1
 10
100.309
 20
246.354
  0
VERTEX
  6
CONTINUOUS
  8
1
 10
100.303
 20
246.324
  0
VERTEX
  6
CONTINUOUS
  8
1
 10
100.297
 20
246.295
  0
VERTEX
  6
CONTINUOUS
  8
1
 10
100.292
 20
246.265
  0
VERTEX
  6
CONTINUOUS
  8
1
 10
100.287
 20
246.235
  0
VERTEX
  6
CONTINUOUS
  8
1
 10
100.283
 20
246.205
  0
VERTEX
  6
CONTINUOUS
  8
1
 10
100.278
 20
246.175
  0
VERTEX
  6
CONTINUOUS
  8
1
 10
100.275
 20
246.145
  0
VERTEX
  6
CONTINUOUS
  8
1
 10
100.271
 20
246.115
  0
VERTEX
  6
CONTINUOUS
  8
1
 10
100.269
 20
246.085
  0
VERTEX
  6
CONTINUOUS
  8
1
 10
100.266
 20
246.055
  0
VERTEX
  6
CONTINUOUS
  8
1
 10
100.264
 20
246.024
  0
VERTEX
  6
CONTINUOUS
  8
1
 10
100.262
 20
245.994
  0
VERTEX
  6
CONTINUOUS
  8
1
 10
100.261
 20
245.963
  0
VERTEX
  6
CONTINUOUS
  8
1
 10
100.260
 20
245.933
  0
VERTEX
  6
CONTINUOUS
  8
1
 10
100.259
 20
245.902
  0
VERTEX
  6
CONTINUOUS
  8
1
 10
100.259
 20
245.872
  0
VERTEX
  6
CONTINUOUS
  8
1
 10
100.259
 20
245.842
  0
VERTEX
  6
CONTINUOUS
  8
1
 10
100.260
 20
245.811
  0
VERTEX
  6
CONTINUOUS
  8
1
 10
100.261
 20
245.781
  0
VERTEX
  6
CONTINUOUS
  8
1
 10
100.262
 20
245.750
  0
VERTEX
  6
CONTINUOUS
  8
1
 10
100.264
 20
245.720
  0
VERTEX
  6
CONTINUOUS
  8
1
 10
100.266
 20
245.689
  0
VERTEX
  6
CONTINUOUS
  8
1
 10
100.269
 20
245.659
  0
VERTEX
  6
CONTINUOUS
  8
1
 10
100.271
 20
245.629
  0
VERTEX
  6
CONTINUOUS
  8
1
 10
100.275
 20
245.599
  0
VERTEX
  6
CONTINUOUS
  8
1
 10
100.278
 20
245.569
  0
VERTEX
  6
CONTINUOUS
  8
1
 10
100.283
 20
245.539
  0
VERTEX
  6
CONTINUOUS
  8
1
 10
100.287
 20
245.509
  0
VERTEX
  6
CONTINUOUS
  8
1
 10
100.292
 20
245.479
  0
VERTEX
  6
CONTINUOUS
  8
1
 10
100.297
 20
245.449
  0
VERTEX
  6
CONTINUOUS
  8
1
 10
100.303
 20
245.420
  0
VERTEX
  6
CONTINUOUS
  8
1
 10
100.309
 20
245.390
  0
VERTEX
  6
CONTINUOUS
  8
1
 10
100.315
 20
245.361
  0
VERTEX
  6
CONTINUOUS
  8
1
 10
100.322
 20
245.332
  0
VERTEX
  6
CONTINUOUS
  8
1
 10
100.329
 20
245.303
  0
VERTEX
  6
CONTINUOUS
  8
1
 10
100.336
 20
245.274
  0
VERTEX
  6
CONTINUOUS
  8
1
 10
100.344
 20
245.246
  0
VERTEX
  6
CONTINUOUS
  8
1
 10
100.352
 20
245.218
  0
VERTEX
  6
CONTINUOUS
  8
1
 10
100.361
 20
245.189
  0
VERTEX
  6
CONTINUOUS
  8
1
 10
100.370
 20
245.161
  0
VERTEX
  6
CONTINUOUS
  8
1
 10
100.379
 20
245.134
  0
VERTEX
  6
CONTINUOUS
  8
1
 10
100.389
 20
245.106
  0
VERTEX
  6
CONTINUOUS
  8
1
 10
100.399
 20
245.079
  0
VERTEX
  6
CONTINUOUS
  8
1
 10
100.409
 20
245.052
  0
VERTEX
  6
CONTINUOUS
  8
1
 10
100.420
 20
245.025
  0
VERTEX
  6
CONTINUOUS
  8
1
 10
100.431
 20
244.998
  0
VERTEX
  6
CONTINUOUS
  8
1
 10
100.442
 20
244.972
  0
VERTEX
  6
CONTINUOUS
  8
1
 10
100.454
 20
244.946
  0
VERTEX
  6
CONTINUOUS
  8
1
 10
100.466
 20
244.921
  0
VERTEX
  6
CONTINUOUS
  8
1
 10
100.478
 20
244.895
  0
VERTEX
  6
CONTINUOUS
  8
1
 10
100.491
 20
244.870
  0
VERTEX
  6
CONTINUOUS
  8
1
 10
100.504
 20
244.845
  0
VERTEX
  6
CONTINUOUS
  8
1
 10
100.517
 20
244.821
  0
VERTEX
  6
CONTINUOUS
  8
1
 10
100.531
 20
244.796
  0
VERTEX
  6
CONTINUOUS
  8
1
 10
100.545
 20
244.773
  0
VERTEX
  6
CONTINUOUS
  8
1
 10
100.559
 20
244.749
  0
VERTEX
  6
CONTINUOUS
  8
1
 10
100.573
 20
244.726
  0
VERTEX
  6
CONTINUOUS
  8
1
 10
100.588
 20
244.703
  0
VERTEX
  6
CONTINUOUS
  8
1
 10
100.603
 20
244.681
  0
VERTEX
  6
CONTINUOUS
  8
1
 10
100.619
 20
244.658
  0
VERTEX
  6
CONTINUOUS
  8
1
 10
100.634
 20
244.637
  0
VERTEX
  6
CONTINUOUS
  8
1
 10
100.650
 20
244.615
  0
VERTEX
  6
CONTINUOUS
  8
1
 10
100.667
 20
244.594
  0
VERTEX
  6
CONTINUOUS
  8
1
 10
100.683
 20
244.574
  0
VERTEX
  6
CONTINUOUS
  8
1
 10
100.700
 20
244.554
  0
VERTEX
  6
CONTINUOUS
  8
1
 10
100.717
 20
244.534
  0
VERTEX
  6
CONTINUOUS
  8
1
 10
100.734
 20
244.514
  0
VERTEX
  6
CONTINUOUS
  8
1
 10
100.752
 20
244.495
  0
VERTEX
  6
CONTINUOUS
  8
1
 10
100.769
 20
244.477
  0
VERTEX
  6
CONTINUOUS
  8
1
 10
100.787
 20
244.459
  0
VERTEX
  6
CONTINUOUS
  8
1
 10
100.806
 20
244.441
  0
VERTEX
  6
CONTINUOUS
  8
1
 10
100.824
 20
244.424
  0
VERTEX
  6
CONTINUOUS
  8
1
 10
100.843
 20
244.407
  0
VERTEX
  6
CONTINUOUS
  8
1
 10
100.862
 20
244.390
  0
VERTEX
  6
CONTINUOUS
  8
1
 10
100.881
 20
244.375
  0
VERTEX
  6
CONTINUOUS
  8
1
 10
100.900
 20
244.359
  0
VERTEX
  6
CONTINUOUS
  8
1
 10
100.919
 20
244.344
  0
VERTEX
  6
CONTINUOUS
  8
1
 10
100.939
 20
244.329
  0
VERTEX
  6
CONTINUOUS
  8
1
 10
100.959
 20
244.315
  0
VERTEX
  6
CONTINUOUS
  8
1
 10
100.979
 20
244.302
  0
VERTEX
  6
CONTINUOUS
  8
1
 10
100.999
 20
244.289
  0
VERTEX
  6
CONTINUOUS
  8
1
 10
101.020
 20
244.276
  0
VERTEX
  6
CONTINUOUS
  8
1
 10
101.040
 20
244.264
  0
VERTEX
  6
CONTINUOUS
  8
1
 10
101.061
 20
244.252
  0
VERTEX
  6
CONTINUOUS
  8
1
 10
101.082
 20
244.241
  0
VERTEX
  6
CONTINUOUS
  8
1
 10
101.103
 20
244.230
  0
VERTEX
  6
CONTINUOUS
  8
1
 10
101.124
 20
244.220
  0
VERTEX
  6
CONTINUOUS
  8
1
 10
101.145
 20
244.211
  0
VERTEX
  6
CONTINUOUS
  8
1
 10
101.166
 20
244.201
  0
VERTEX
  6
CONTINUOUS
  8
1
 10
101.188
 20
244.193
  0
VERTEX
  6
CONTINUOUS
  8
1
 10
101.209
 20
244.185
  0
VERTEX
  6
CONTINUOUS
  8
1
 10
101.231
 20
244.177
  0
VERTEX
  6
CONTINUOUS
  8
1
 10
101.253
 20
244.170
  0
VERTEX
  6
CONTINUOUS
  8
1
 10
101.274
 20
244.163
  0
VERTEX
  6
CONTINUOUS
  8
1
 10
101.296
 20
244.157
  0
VERTEX
  6
CONTINUOUS
  8
1
 10
101.318
 20
244.152
  0
VERTEX
  6
CONTINUOUS
  8
1
 10
101.340
 20
244.147
  0
VERTEX
  6
CONTINUOUS
  8
1
 10
101.363
 20
244.142
  0
VERTEX
  6
CONTINUOUS
  8
1
 10
101.385
 20
244.138
  0
VERTEX
  6
CONTINUOUS
  8
1
 10
101.407
 20
244.135
  0
VERTEX
  6
CONTINUOUS
  8
1
 10
101.429
 20
244.132
  0
VERTEX
  6
CONTINUOUS
  8
1
 10
101.452
 20
244.129
  0
VERTEX
  6
CONTINUOUS
  8
1
 10
101.474
 20
244.127
  0
VERTEX
  6
CONTINUOUS
  8
1
 10
101.496
 20
244.126
  0
VERTEX
  6
CONTINUOUS
  8
1
 10
101.519
 20
244.125
  0
VERTEX
  6
CONTINUOUS
  8
1
 10
101.541
 20
244.125
  0
SEQEND
  0
LINE
  6
CONTINUOUS
  8
1
 10
101.541
 20
249.548
 11
101.541
 21
249.825
  0
LINE
  6
CONTINUOUS
  8
1
 10
101.541
 20
249.825
 11
105.621
 21
247.470
  0
LINE
  6
CONTINUOUS
  8
1
 10
105.621
 20
247.470
 11
109.461
 21
245.253
  0
LINE
  6
CONTINUOUS
  8
1
 10
106.166
 20
246.796
 11
109.216
 21
245.111
  0
LINE
  6
CONTINUOUS
  8
1
 10
110.949
 20
246.112
 11
104.469
 21
249.853
  0
LINE
  6
CONTINUOUS
  8
1
 10
101.541
 20
249.825
 11
103.029
 21
250.684
  0
LINE
  6
CONTINUOUS
  8
1
 10
103.029
 20
250.684
 11
104.469
 21
249.853
  0
LINE
  6
CONTINUOUS
  8
1
 10
109.216
 20
245.111
 11
109.216
 21
239.694
  0
LINE
  6
CONTINUOUS
  8
1
 10
109.216
 20
239.694
 11
109.461
 21
239.553
  0
LINE
  6
CONTINUOUS
  8
1
 10
109.461
 20
239.553
 11
110.949
 21
240.412
  0
LINE
  6
CONTINUOUS
  8
1
 10
110.949
 20
240.412
 11
110.949
 21
246.112
  0
LINE
  6
CONTINUOUS
  8
1
 10
110.949
 20
246.112
 11
109.461
 21
245.253
  0
LINE
  6
CONTINUOUS
  8
1
 10
109.461
 20
245.253
 11
109.461
 21
239.553
  0
LINE
  6
CONTINUOUS
  8
1
 10
106.166
 20
246.796
 11
96.908
 21
252.139
  0
LINE
  6
CONTINUOUS
  8
1
 10
96.908
 20
252.139
 11
91.628
 21
255.188
  0
LINE
  6
CONTINUOUS
  8
1
 10
91.628
 20
255.188
 11
86.349
 21
258.236
  0
LINE
  6
CONTINUOUS
  8
1
 10
86.349
 20
258.236
 11
67.542
 21
269.093
  0
LINE
  6
CONTINUOUS
  8
1
 10
85.020
 20
257.354
 11
67.542
 21
267.445
  0
LINE
  6
CONTINUOUS
  8
1
 10
67.542
 20
269.094
 11
67.542
 21
267.445
  0
POLYLINE
  6
CONTINUOUS
  8
1
 66
     1
 70
     2
  0
VERTEX
  6
CONTINUOUS
  8
1
 10
71.841
 20
264.962
  0
VERTEX
  6
CONTINUOUS
  8
1
 10
71.834
 20
264.957
  0
VERTEX
  6
CONTINUOUS
  8
1
 10
71.812
 20
264.944
  0
VERTEX
  6
CONTINUOUS
  8
1
 10
71.791
 20
264.929
  0
VERTEX
  6
CONTINUOUS
  8
1
 10
71.770
 20
264.915
  0
VERTEX
  6
CONTINUOUS
  8
1
 10
71.749
 20
264.898
  0
VERTEX
  6
CONTINUOUS
  8
1
 10
71.729
 20
264.882
  0
VERTEX
  6
CONTINUOUS
  8
1
 10
71.709
 20
264.866
  0
VERTEX
  6
CONTINUOUS
  8
1
 10
71.688
 20
264.848
  0
VERTEX
  6
CONTINUOUS
  8
1
 10
71.668
 20
264.830
  0
VERTEX
  6
CONTINUOUS
  8
1
 10
71.648
 20
264.812
  0
VERTEX
  6
CONTINUOUS
  8
1
 10
71.629
 20
264.793
  0
VERTEX
  6
CONTINUOUS
  8
1
 10
71.610
 20
264.774
  0
VERTEX
  6
CONTINUOUS
  8
1
 10
71.590
 20
264.754
  0
VERTEX
  6
CONTINUOUS
  8
1
 10
71.571
 20
264.733
  0
VERTEX
  6
CONTINUOUS
  8
1
 10
71.552
 20
264.712
  0
VERTEX
  6
CONTINUOUS
  8
1
 10
71.535
 20
264.690
  0
VERTEX
  6
CONTINUOUS
  8
1
 10
71.516
 20
264.669
  0
VERTEX
  6
CONTINUOUS
  8
1
 10
71.498
 20
264.646
  0
VERTEX
  6
CONTINUOUS
  8
1
 10
71.480
 20
264.622
  0
VERTEX
  6
CONTINUOUS
  8
1
 10
71.464
 20
264.599
  0
VERTEX
  6
CONTINUOUS
  8
1
 10
71.446
 20
264.575
  0
VERTEX
  6
CONTINUOUS
  8
1
 10
71.429
 20
264.551
  0
VERTEX
  6
CONTINUOUS
  8
1
 10
71.412
 20
264.527
  0
VERTEX
  6
CONTINUOUS
  8
1
 10
71.397
 20
264.500
  0
VERTEX
  6
CONTINUOUS
  8
1
 10
71.381
 20
264.475
  0
VERTEX
  6
CONTINUOUS
  8
1
 10
71.365
 20
264.449
  0
VERTEX
  6
CONTINUOUS
  8
1
 10
71.350
 20
264.422
  0
VERTEX
  6
CONTINUOUS
  8
1
 10
71.335
 20
264.396
  0
VERTEX
  6
CONTINUOUS
  8
1
 10
71.320
 20
264.368
  0
VERTEX
  6
CONTINUOUS
  8
1
 10
71.306
 20
264.340
  0
VERTEX
  6
CONTINUOUS
  8
1
 10
71.292
 20
264.312
  0
VERTEX
  6
CONTINUOUS
  8
1
 10
71.277
 20
264.283
  0
VERTEX
  6
CONTINUOUS
  8
1
 10
71.265
 20
264.254
  0
VERTEX
  6
CONTINUOUS
  8
1
 10
71.251
 20
264.225
  0
VERTEX
  6
CONTINUOUS
  8
1
 10
71.238
 20
264.196
  0
VERTEX
  6
CONTINUOUS
  8
1
 10
71.226
 20
264.165
  0
VERTEX
  6
CONTINUOUS
  8
1
 10
71.214
 20
264.134
  0
VERTEX
  6
CONTINUOUS
  8
1
 10
71.202
 20
264.104
  0
VERTEX
  6
CONTINUOUS
  8
1
 10
71.191
 20
264.073
  0
VERTEX
  6
CONTINUOUS
  8
1
 10
71.180
 20
264.042
  0
VERTEX
  6
CONTINUOUS
  8
1
 10
71.168
 20
264.010
  0
VERTEX
  6
CONTINUOUS
  8
1
 10
71.159
 20
263.978
  0
VERTEX
  6
CONTINUOUS
  8
1
 10
71.148
 20
263.946
  0
VERTEX
  6
CONTINUOUS
  8
1
 10
71.138
 20
263.913
  0
VERTEX
  6
CONTINUOUS
  8
1
 10
71.130
 20
263.880
  0
VERTEX
  6
CONTINUOUS
  8
1
 10
71.121
 20
263.848
  0
VERTEX
  6
CONTINUOUS
  8
1
 10
71.112
 20
263.814
  0
VERTEX
  6
CONTINUOUS
  8
1
 10
71.104
 20
263.781
  0
VERTEX
  6
CONTINUOUS
  8
1
 10
71.096
 20
263.748
  0
VERTEX
  6
CONTINUOUS
  8
1
 10
71.089
 20
263.714
  0
VERTEX
  6
CONTINUOUS
  8
1
 10
71.082
 20
263.680
  0
VERTEX
  6
CONTINUOUS
  8
1
 10
71.075
 20
263.646
  0
VERTEX
  6
CONTINUOUS
  8
1
 10
71.069
 20
263.611
  0
VERTEX
  6
CONTINUOUS
  8
1
 10
71.063
 20
263.577
  0
VERTEX
  6
CONTINUOUS
  8
1
 10
71.058
 20
263.542
  0
VERTEX
  6
CONTINUOUS
  8
1
 10
71.053
 20
263.506
  0
VERTEX
  6
CONTINUOUS
  8
1
 10
71.048
 20
263.471
  0
VERTEX
  6
CONTINUOUS
  8
1
 10
71.044
 20
263.436
  0
VERTEX
  6
CONTINUOUS
  8
1
 10
71.040
 20
263.401
  0
VERTEX
  6
CONTINUOUS
  8
1
 10
71.036
 20
263.365
  0
VERTEX
  6
CONTINUOUS
  8
1
 10
71.034
 20
263.330
  0
VERTEX
  6
CONTINUOUS
  8
1
 10
71.031
 20
263.294
  0
VERTEX
  6
CONTINUOUS
  8
1
 10
71.029
 20
263.259
  0
VERTEX
  6
CONTINUOUS
  8
1
 10
71.027
 20
263.223
  0
VERTEX
  6
CONTINUOUS
  8
1
 10
71.025
 20
263.187
  0
VERTEX
  6
CONTINUOUS
  8
1
 10
71.025
 20
263.151
  0
VERTEX
  6
CONTINUOUS
  8
1
 10
71.024
 20
263.116
  0
VERTEX
  6
CONTINUOUS
  8
1
 10
71.024
 20
263.080
  0
VERTEX
  6
CONTINUOUS
  8
1
 10
71.024
 20
263.044
  0
VERTEX
  6
CONTINUOUS
  8
1
 10
71.024
 20
263.008
  0
VERTEX
  6
CONTINUOUS
  8
1
 10
71.026
 20
262.972
  0
VERTEX
  6
CONTINUOUS
  8
1
 10
71.027
 20
262.937
  0
VERTEX
  6
CONTINUOUS
  8
1
 10
71.029
 20
262.901
  0
VERTEX
  6
CONTINUOUS
  8
1
 10
71.031
 20
262.865
  0
VERTEX
  6
CONTINUOUS
  8
1
 10
71.033
 20
262.829
  0
VERTEX
  6
CONTINUOUS
  8
1
 10
71.037
 20
262.794
  0
VERTEX
  6
CONTINUOUS
  8
1
 10
71.040
 20
262.758
  0
VERTEX
  6
CONTINUOUS
  8
1
 10
71.044
 20
262.723
  0
VERTEX
  6
CONTINUOUS
  8
1
 10
71.048
 20
262.687
  0
VERTEX
  6
CONTINUOUS
  8
1
 10
71.052
 20
262.652
  0
VERTEX
  6
CONTINUOUS
  8
1
 10
71.058
 20
262.617
  0
VERTEX
  6
CONTINUOUS
  8
1
 10
71.063
 20
262.583
  0
VERTEX
  6
CONTINUOUS
  8
1
 10
71.069
 20
262.548
  0
VERTEX
  6
CONTINUOUS
  8
1
 10
71.075
 20
262.513
  0
VERTEX
  6
CONTINUOUS
  8
1
 10
71.081
 20
262.479
  0
VERTEX
  6
CONTINUOUS
  8
1
 10
71.089
 20
262.444
  0
VERTEX
  6
CONTINUOUS
  8
1
 10
71.096
 20
262.410
  0
VERTEX
  6
CONTINUOUS
  8
1
 10
71.104
 20
262.376
  0
VERTEX
  6
CONTINUOUS
  8
1
 10
71.112
 20
262.342
  0
VERTEX
  6
CONTINUOUS
  8
1
 10
71.120
 20
262.309
  0
VERTEX
  6
CONTINUOUS
  8
1
 10
71.130
 20
262.276
  0
VERTEX
  6
CONTINUOUS
  8
1
 10
71.139
 20
262.242
  0
VERTEX
  6
CONTINUOUS
  8
1
 10
71.148
 20
262.210
  0
VERTEX
  6
CONTINUOUS
  8
1
 10
71.158
 20
262.178
  0
VERTEX
  6
CONTINUOUS
  8
1
 10
71.168
 20
262.146
  0
VERTEX
  6
CONTINUOUS
  8
1
 10
71.180
 20
262.114
  0
VERTEX
  6
CONTINUOUS
  8
1
 10
71.190
 20
262.082
  0
VERTEX
  6
CONTINUOUS
  8
1
 10
71.202
 20
262.050
  0
VERTEX
  6
CONTINUOUS
  8
1
 10
71.214
 20
262.019
  0
VERTEX
  6
CONTINUOUS
  8
1
 10
71.226
 20
261.988
  0
VERTEX
  6
CONTINUOUS
  8
1
 10
71.238
 20
261.958
  0
VERTEX
  6
CONTINUOUS
  8
1
 10
71.251
 20
261.928
  0
VERTEX
  6
CONTINUOUS
  8
1
 10
71.264
 20
261.898
  0
VERTEX
  6
CONTINUOUS
  8
1
 10
71.277
 20
261.869
  0
VERTEX
  6
CONTINUOUS
  8
1
 10
71.292
 20
261.840
  0
VERTEX
  6
CONTINUOUS
  8
1
 10
71.305
 20
261.811
  0
VERTEX
  6
CONTINUOUS
  8
1
 10
71.320
 20
261.782
  0
VERTEX
  6
CONTINUOUS
  8
1
 10
71.335
 20
261.755
  0
VERTEX
  6
CONTINUOUS
  8
1
 10
71.350
 20
261.728
  0
VERTEX
  6
CONTINUOUS
  8
1
 10
71.365
 20
261.700
  0
VERTEX
  6
CONTINUOUS
  8
1
 10
71.380
 20
261.674
  0
VERTEX
  6
CONTINUOUS
  8
1
 10
71.397
 20
261.647
  0
VERTEX
  6
CONTINUOUS
  8
1
 10
71.413
 20
261.621
  0
VERTEX
  6
CONTINUOUS
  8
1
 10
71.429
 20
261.597
  0
VERTEX
  6
CONTINUOUS
  8
1
 10
71.446
 20
261.571
  0
VERTEX
  6
CONTINUOUS
  8
1
 10
71.463
 20
261.547
  0
VERTEX
  6
CONTINUOUS
  8
1
 10
71.480
 20
261.523
  0
VERTEX
  6
CONTINUOUS
  8
1
 10
71.498
 20
261.499
  0
VERTEX
  6
CONTINUOUS
  8
1
 10
71.516
 20
261.477
  0
VERTEX
  6
CONTINUOUS
  8
1
 10
71.534
 20
261.454
  0
VERTEX
  6
CONTINUOUS
  8
1
 10
71.552
 20
261.431
  0
VERTEX
  6
CONTINUOUS
  8
1
 10
71.571
 20
261.410
  0
VERTEX
  6
CONTINUOUS
  8
1
 10
71.590
 20
261.388
  0
VERTEX
  6
CONTINUOUS
  8
1
 10
71.609
 20
261.368
  0
VERTEX
  6
CONTINUOUS
  8
1
 10
71.628
 20
261.348
  0
VERTEX
  6
CONTINUOUS
  8
1
 10
71.648
 20
261.328
  0
VERTEX
  6
CONTINUOUS
  8
1
 10
71.668
 20
261.309
  0
VERTEX
  6
CONTINUOUS
  8
1
 10
71.688
 20
261.290
  0
VERTEX
  6
CONTINUOUS
  8
1
 10
71.708
 20
261.273
  0
VERTEX
  6
CONTINUOUS
  8
1
 10
71.728
 20
261.256
  0
VERTEX
  6
CONTINUOUS
  8
1
 10
71.749
 20
261.238
  0
VERTEX
  6
CONTINUOUS
  8
1
 10
71.770
 20
261.222
  0
VERTEX
  6
CONTINUOUS
  8
1
 10
71.791
 20
261.207
  0
VERTEX
  6
CONTINUOUS
  8
1
 10
71.812
 20
261.191
  0
VERTEX
  6
CONTINUOUS
  8
1
 10
71.833
 20
261.177
  0
VERTEX
  6
CONTINUOUS
  8
1
 10
71.854
 20
261.162
  0
VERTEX
  6
CONTINUOUS
  8
1
 10
71.876
 20
261.150
  0
VERTEX
  6
CONTINUOUS
  8
1
 10
71.898
 20
261.136
  0
VERTEX
  6
CONTINUOUS
  8
1
 10
71.920
 20
261.124
  0
VERTEX
  6
CONTINUOUS
  8
1
 10
71.942
 20
261.112
  0
VERTEX
  6
CONTINUOUS
  8
1
 10
71.964
 20
261.102
  0
VERTEX
  6
CONTINUOUS
  8
1
 10
71.986
 20
261.091
  0
VERTEX
  6
CONTINUOUS
  8
1
 10
72.008
 20
261.081
  0
VERTEX
  6
CONTINUOUS
  8
1
 10
72.030
 20
261.071
  0
VERTEX
  6
CONTINUOUS
  8
1
 10
72.053
 20
261.063
  0
VERTEX
  6
CONTINUOUS
  8
1
 10
72.075
 20
261.055
  0
VERTEX
  6
CONTINUOUS
  8
1
 10
72.099
 20
261.047
  0
VERTEX
  6
CONTINUOUS
  8
1
 10
72.122
 20
261.040
  0
VERTEX
  6
CONTINUOUS
  8
1
 10
72.144
 20
261.034
  0
VERTEX
  6
CONTINUOUS
  8
1
 10
72.167
 20
261.028
  0
VERTEX
  6
CONTINUOUS
  8
1
 10
72.190
 20
261.023
  0
VERTEX
  6
CONTINUOUS
  8
1
 10
72.213
 20
261.018
  0
VERTEX
  6
CONTINUOUS
  8
1
 10
72.236
 20
261.015
  0
VERTEX
  6
CONTINUOUS
  8
1
 10
72.259
 20
261.012
  0
VERTEX
  6
CONTINUOUS
  8
1
 10
72.282
 20
261.009
  0
VERTEX
  6
CONTINUOUS
  8
1
 10
72.305
 20
261.007
  0
VERTEX
  6
CONTINUOUS
  8
1
 10
72.329
 20
261.006
  0
VERTEX
  6
CONTINUOUS
  8
1
 10
72.352
 20
261.005
  0
VERTEX
  6
CONTINUOUS
  8
1
 10
72.375
 20
261.005
  0
VERTEX
  6
CONTINUOUS
  8
1
 10
72.398
 20
261.005
  0
VERTEX
  6
CONTINUOUS
  8
1
 10
72.421
 20
261.007
  0
VERTEX
  6
CONTINUOUS
  8
1
 10
72.445
 20
261.009
  0
VERTEX
  6
CONTINUOUS
  8
1
 10
72.468
 20
261.011
  0
VERTEX
  6
CONTINUOUS
  8
1
 10
72.491
 20
261.014
  0
VERTEX
  6
CONTINUOUS
  8
1
 10
72.514
 20
261.018
  0
VERTEX
  6
CONTINUOUS
  8
1
 10
72.537
 20
261.022
  0
VERTEX
  6
CONTINUOUS
  8
1
 10
72.560
 20
261.027
  0
VERTEX
  6
CONTINUOUS
  8
1
 10
72.583
 20
261.032
  0
VERTEX
  6
CONTINUOUS
  8
1
 10
72.606
 20
261.039
  0
VERTEX
  6
CONTINUOUS
  8
1
 10
72.628
 20
261.046
  0
VERTEX
  6
CONTINUOUS
  8
1
 10
72.650
 20
261.053
  0
VERTEX
  6
CONTINUOUS
  8
1
 10
72.673
 20
261.061
  0
VERTEX
  6
CONTINUOUS
  8
1
 10
72.695
 20
261.070
  0
VERTEX
  6
CONTINUOUS
  8
1
 10
72.718
 20
261.079
  0
VERTEX
  6
CONTINUOUS
  8
1
 10
72.740
 20
261.089
  0
VERTEX
  6
CONTINUOUS
  8
1
 10
72.762
 20
261.099
  0
VERTEX
  6
CONTINUOUS
  8
1
 10
72.784
 20
261.111
  0
VERTEX
  6
CONTINUOUS
  8
1
 10
72.806
 20
261.122
  0
VERTEX
  6
CONTINUOUS
  8
1
 10
72.828
 20
261.134
  0
VERTEX
  6
CONTINUOUS
  8
1
 10
72.849
 20
261.146
  0
VERTEX
  6
CONTINUOUS
  8
1
 10
72.870
 20
261.161
  0
VERTEX
  6
CONTINUOUS
  8
1
 10
72.892
 20
261.174
  0
VERTEX
  6
CONTINUOUS
  8
1
 10
72.913
 20
261.189
  0
VERTEX
  6
CONTINUOUS
  8
1
 10
72.934
 20
261.203
  0
VERTEX
  6
CONTINUOUS
  8
1
 10
72.955
 20
261.220
  0
VERTEX
  6
CONTINUOUS
  8
1
 10
72.975
 20
261.236
  0
VERTEX
  6
CONTINUOUS
  8
1
 10
72.995
 20
261.252
  0
VERTEX
  6
CONTINUOUS
  8
1
 10
73.016
 20
261.270
  0
VERTEX
  6
CONTINUOUS
  8
1
 10
73.036
 20
261.288
  0
VERTEX
  6
CONTINUOUS
  8
1
 10
73.056
 20
261.306
  0
VERTEX
  6
CONTINUOUS
  8
1
 10
73.075
 20
261.325
  0
VERTEX
  6
CONTINUOUS
  8
1
 10
73.094
 20
261.344
  0
VERTEX
  6
CONTINUOUS
  8
1
 10
73.114
 20
261.364
  0
VERTEX
  6
CONTINUOUS
  8
1
 10
73.133
 20
261.385
  0
VERTEX
  6
CONTINUOUS
  8
1
 10
73.152
 20
261.406
  0
VERTEX
  6
CONTINUOUS
  8
1
 10
73.169
 20
261.428
  0
VERTEX
  6
CONTINUOUS
  8
1
 10
73.188
 20
261.449
  0
VERTEX
  6
CONTINUOUS
  8
1
 10
73.206
 20
261.472
  0
VERTEX
  6
CONTINUOUS
  8
1
 10
73.224
 20
261.496
  0
VERTEX
  6
CONTINUOUS
  8
1
 10
73.240
 20
261.519
  0
VERTEX
  6
CONTINUOUS
  8
1
 10
73.258
 20
261.543
  0
VERTEX
  6
CONTINUOUS
  8
1
 10
73.275
 20
261.567
  0
VERTEX
  6
CONTINUOUS
  8
1
 10
73.292
 20
261.591
  0
VERTEX
  6
CONTINUOUS
  8
1
 10
73.307
 20
261.618
  0
VERTEX
  6
CONTINUOUS
  8
1
 10
73.323
 20
261.643
  0
VERTEX
  6
CONTINUOUS
  8
1
 10
73.339
 20
261.669
  0
VERTEX
  6
CONTINUOUS
  8
1
 10
73.354
 20
261.696
  0
VERTEX
  6
CONTINUOUS
  8
1
 10
73.369
 20
261.722
  0
VERTEX
  6
CONTINUOUS
  8
1
 10
73.384
 20
261.750
  0
VERTEX
  6
CONTINUOUS
  8
1
 10
73.398
 20
261.778
  0
VERTEX
  6
CONTINUOUS
  8
1
 10
73.412
 20
261.806
  0
VERTEX
  6
CONTINUOUS
  8
1
 10
73.427
 20
261.835
  0
VERTEX
  6
CONTINUOUS
  8
1
 10
73.439
 20
261.864
  0
VERTEX
  6
CONTINUOUS
  8
1
 10
73.453
 20
261.893
  0
VERTEX
  6
CONTINUOUS
  8
1
 10
73.466
 20
261.922
  0
VERTEX
  6
CONTINUOUS
  8
1
 10
73.478
 20
261.953
  0
VERTEX
  6
CONTINUOUS
  8
1
 10
73.490
 20
261.984
  0
VERTEX
  6
CONTINUOUS
  8
1
 10
73.502
 20
262.014
  0
VERTEX
  6
CONTINUOUS
  8
1
 10
73.513
 20
262.045
  0
VERTEX
  6
CONTINUOUS
  8
1
 10
73.524
 20
262.076
  0
VERTEX
  6
CONTINUOUS
  8
1
 10
73.536
 20
262.108
  0
VERTEX
  6
CONTINUOUS
  8
1
 10
73.545
 20
262.140
  0
VERTEX
  6
CONTINUOUS
  8
1
 10
73.556
 20
262.172
  0
VERTEX
  6
CONTINUOUS
  8
1
 10
73.566
 20
262.205
  0
VERTEX
  6
CONTINUOUS
  8
1
 10
73.574
 20
262.238
  0
VERTEX
  6
CONTINUOUS
  8
1
 10
73.583
 20
262.270
  0
VERTEX
  6
CONTINUOUS
  8
1
 10
73.592
 20
262.304
  0
VERTEX
  6
CONTINUOUS
  8
1
 10
73.600
 20
262.337
  0
VERTEX
  6
CONTINUOUS
  8
1
 10
73.608
 20
262.370
  0
VERTEX
  6
CONTINUOUS
  8
1
 10
73.615
 20
262.404
  0
VERTEX
  6
CONTINUOUS
  8
1
 10
73.622
 20
262.438
  0
VERTEX
  6
CONTINUOUS
  8
1
 10
73.629
 20
262.472
  0
VERTEX
  6
CONTINUOUS
  8
1
 10
73.635
 20
262.507
  0
VERTEX
  6
CONTINUOUS
  8
1
 10
73.641
 20
262.541
  0
VERTEX
  6
CONTINUOUS
  8
1
 10
73.646
 20
262.576
  0
VERTEX
  6
CONTINUOUS
  8
1
 10
73.651
 20
262.612
  0
VERTEX
  6
CONTINUOUS
  8
1
 10
73.656
 20
262.647
  0
VERTEX
  6
CONTINUOUS
  8
1
 10
73.660
 20
262.682
  0
VERTEX
  6
CONTINUOUS
  8
1
 10
73.664
 20
262.717
  0
VERTEX
  6
CONTINUOUS
  8
1
 10
73.668
 20
262.753
  0
VERTEX
  6
CONTINUOUS
  8
1
 10
73.670
 20
262.788
  0
VERTEX
  6
CONTINUOUS
  8
1
 10
73.673
 20
262.824
  0
VERTEX
  6
CONTINUOUS
  8
1
 10
73.675
 20
262.859
  0
VERTEX
  6
CONTINUOUS
  8
1
 10
73.677
 20
262.895
  0
VERTEX
  6
CONTINUOUS
  8
1
 10
73.679
 20
262.931
  0
VERTEX
  6
CONTINUOUS
  8
1
 10
73.679
 20
262.967
  0
VERTEX
  6
CONTINUOUS
  8
1
 10
73.680
 20
263.002
  0
VERTEX
  6
CONTINUOUS
  8
1
 10
73.680
 20
263.038
  0
VERTEX
  6
CONTINUOUS
  8
1
 10
73.680
 20
263.074
  0
VERTEX
  6
CONTINUOUS
  8
1
 10
73.680
 20
263.110
  0
VERTEX
  6
CONTINUOUS
  8
1
 10
73.678
 20
263.146
  0
VERTEX
  6
CONTINUOUS
  8
1
 10
73.677
 20
263.181
  0
VERTEX
  6
CONTINUOUS
  8
1
 10
73.675
 20
263.217
  0
VERTEX
  6
CONTINUOUS
  8
1
 10
73.673
 20
263.253
  0
VERTEX
  6
CONTINUOUS
  8
1
 10
73.671
 20
263.289
  0
VERTEX
  6
CONTINUOUS
  8
1
 10
73.667
 20
263.324
  0
VERTEX
  6
CONTINUOUS
  8
1
 10
73.664
 20
263.360
  0
VERTEX
  6
CONTINUOUS
  8
1
 10
73.660
 20
263.395
  0
VERTEX
  6
CONTINUOUS
  8
1
 10
73.656
 20
263.431
  0
VERTEX
  6
CONTINUOUS
  8
1
 10
73.652
 20
263.466
  0
VERTEX
  6
CONTINUOUS
  8
1
 10
73.646
 20
263.501
  0
VERTEX
  6
CONTINUOUS
  8
1
 10
73.641
 20
263.535
  0
VERTEX
  6
CONTINUOUS
  8
1
 10
73.635
 20
263.570
  0
VERTEX
  6
CONTINUOUS
  8
1
 10
73.629
 20
263.605
  0
VERTEX
  6
CONTINUOUS
  8
1
 10
73.623
 20
263.639
  0
VERTEX
  6
CONTINUOUS
  8
1
 10
73.615
 20
263.674
  0
VERTEX
  6
CONTINUOUS
  8
1
 10
73.608
 20
263.708
  0
VERTEX
  6
CONTINUOUS
  8
1
 10
73.600
 20
263.742
  0
VERTEX
  6
CONTINUOUS
  8
1
 10
73.592
 20
263.776
  0
VERTEX
  6
CONTINUOUS
  8
1
 10
73.584
 20
263.809
  0
VERTEX
  6
CONTINUOUS
  8
1
 10
73.574
 20
263.842
  0
VERTEX
  6
CONTINUOUS
  8
1
 10
73.565
 20
263.876
  0
VERTEX
  6
CONTINUOUS
  8
1
 10
73.556
 20
263.908
  0
VERTEX
  6
CONTINUOUS
  8
1
 10
73.546
 20
263.940
  0
VERTEX
  6
CONTINUOUS
  8
1
 10
73.536
 20
263.972
  0
VERTEX
  6
CONTINUOUS
  8
1
 10
73.531
 20
263.987
  0
SEQEND
  0
POLYLINE
  6
CONTINUOUS
  8
1
 66
     1
 70
     2
  0
VERTEX
  6
CONTINUOUS
  8
1
 10
67.807
 20
267.292
  0
VERTEX
  6
CONTINUOUS
  8
1
 10
67.793
 20
267.287
  0
VERTEX
  6
CONTINUOUS
  8
1
 10
67.774
 20
267.277
  0
VERTEX
  6
CONTINUOUS
  8
1
 10
67.754
 20
267.267
  0
VERTEX
  6
CONTINUOUS
  8
1
 10
67.734
 20
267.256
  0
VERTEX
  6
CONTINUOUS
  8
1
 10
67.716
 20
267.246
  0
VERTEX
  6
CONTINUOUS
  8
1
 10
67.696
 20
267.234
  0
VERTEX
  6
CONTINUOUS
  8
1
 10
67.676
 20
267.222
  0
VERTEX
  6
CONTINUOUS
  8
1
 10
67.658
 20
267.210
  0
VERTEX
  6
CONTINUOUS
  8
1
 10
67.639
 20
267.196
  0
VERTEX
  6
CONTINUOUS
  8
1
 10
67.620
 20
267.182
  0
VERTEX
  6
CONTINUOUS
  8
1
 10
67.601
 20
267.168
  0
VERTEX
  6
CONTINUOUS
  8
1
 10
67.584
 20
267.153
  0
VERTEX
  6
CONTINUOUS
  8
1
 10
67.565
 20
267.137
  0
VERTEX
  6
CONTINUOUS
  8
1
 10
67.547
 20
267.122
  0
VERTEX
  6
CONTINUOUS
  8
1
 10
67.530
 20
267.105
  0
VERTEX
  6
CONTINUOUS
  8
1
 10
67.512
 20
267.088
  0
VERTEX
  6
CONTINUOUS
  8
1
 10
67.495
 20
267.071
  0
VERTEX
  6
CONTINUOUS
  8
1
 10
67.477
 20
267.053
  0
VERTEX
  6
CONTINUOUS
  8
1
 10
67.460
 20
267.034
  0
VERTEX
  6
CONTINUOUS
  8
1
 10
67.443
 20
267.015
  0
VERTEX
  6
CONTINUOUS
  8
1
 10
67.426
 20
266.996
  0
VERTEX
  6
CONTINUOUS
  8
1
 10
67.410
 20
266.976
  0
VERTEX
  6
CONTINUOUS
  8
1
 10
67.394
 20
266.955
  0
VERTEX
  6
CONTINUOUS
  8
1
 10
67.378
 20
266.934
  0
VERTEX
  6
CONTINUOUS
  8
1
 10
67.362
 20
266.913
  0
VERTEX
  6
CONTINUOUS
  8
1
 10
67.347
 20
266.891
  0
VERTEX
  6
CONTINUOUS
  8
1
 10
67.332
 20
266.869
  0
VERTEX
  6
CONTINUOUS
  8
1
 10
67.317
 20
266.846
  0
VERTEX
  6
CONTINUOUS
  8
1
 10
67.302
 20
266.823
  0
VERTEX
  6
CONTINUOUS
  8
1
 10
67.287
 20
266.799
  0
VERTEX
  6
CONTINUOUS
  8
1
 10
67.273
 20
266.775
  0
VERTEX
  6
CONTINUOUS
  8
1
 10
67.259
 20
266.750
  0
VERTEX
  6
CONTINUOUS
  8
1
 10
67.246
 20
266.726
  0
VERTEX
  6
CONTINUOUS
  8
1
 10
67.232
 20
266.700
  0
VERTEX
  6
CONTINUOUS
  8
1
 10
67.219
 20
266.675
  0
VERTEX
  6
CONTINUOUS
  8
1
 10
67.207
 20
266.648
  0
VERTEX
  6
CONTINUOUS
  8
1
 10
67.194
 20
266.622
  0
VERTEX
  6
CONTINUOUS
  8
1
 10
67.182
 20
266.595
  0
VERTEX
  6
CONTINUOUS
  8
1
 10
67.170
 20
266.568
  0
VERTEX
  6
CONTINUOUS
  8
1
 10
67.157
 20
266.540
  0
VERTEX
  6
CONTINUOUS
  8
1
 10
67.146
 20
266.512
  0
VERTEX
  6
CONTINUOUS
  8
1
 10
67.135
 20
266.484
  0
VERTEX
  6
CONTINUOUS
  8
1
 10
67.125
 20
266.455
  0
VERTEX
  6
CONTINUOUS
  8
1
 10
67.115
 20
266.427
  0
VERTEX
  6
CONTINUOUS
  8
1
 10
67.105
 20
266.397
  0
VERTEX
  6
CONTINUOUS
  8
1
 10
67.095
 20
266.368
  0
VERTEX
  6
CONTINUOUS
  8
1
 10
67.085
 20
266.338
  0
VERTEX
  6
CONTINUOUS
  8
1
 10
67.076
 20
266.307
  0
VERTEX
  6
CONTINUOUS
  8
1
 10
67.067
 20
266.277
  0
VERTEX
  6
CONTINUOUS
  8
1
 10
67.059
 20
266.247
  0
VERTEX
  6
CONTINUOUS
  8
1
 10
67.050
 20
266.215
  0
VERTEX
  6
CONTINUOUS
  8
1
 10
67.042
 20
266.184
  0
VERTEX
  6
CONTINUOUS
  8
1
 10
67.035
 20
266.153
  0
VERTEX
  6
CONTINUOUS
  8
1
 10
67.028
 20
266.121
  0
VERTEX
  6
CONTINUOUS
  8
1
 10
67.021
 20
266.089
  0
VERTEX
  6
CONTINUOUS
  8
1
 10
67.015
 20
266.057
  0
VERTEX
  6
CONTINUOUS
  8
1
 10
67.009
 20
266.025
  0
VERTEX
  6
CONTINUOUS
  8
1
 10
67.003
 20
265.993
  0
VERTEX
  6
CONTINUOUS
  8
1
 10
66.997
 20
265.959
  0
VERTEX
  6
CONTINUOUS
  8
1
 10
66.992
 20
265.927
  0
VERTEX
  6
CONTINUOUS
  8
1
 10
66.987
 20
265.894
  0
VERTEX
  6
CONTINUOUS
  8
1
 10
66.984
 20
265.861
  0
VERTEX
  6
CONTINUOUS
  8
1
 10
66.979
 20
265.828
  0
VERTEX
  6
CONTINUOUS
  8
1
 10
66.975
 20
265.793
  0
VERTEX
  6
CONTINUOUS
  8
1
 10
66.972
 20
265.760
  0
VERTEX
  6
CONTINUOUS
  8
1
 10
66.969
 20
265.726
  0
VERTEX
  6
CONTINUOUS
  8
1
 10
66.967
 20
265.693
  0
VERTEX
  6
CONTINUOUS
  8
1
 10
66.965
 20
265.659
  0
VERTEX
  6
CONTINUOUS
  8
1
 10
66.963
 20
265.625
  0
VERTEX
  6
CONTINUOUS
  8
1
 10
66.961
 20
265.591
  0
VERTEX
  6
CONTINUOUS
  8
1
 10
66.960
 20
265.557
  0
VERTEX
  6
CONTINUOUS
  8
1
 10
66.960
 20
265.523
  0
VERTEX
  6
CONTINUOUS
  8
1
 10
66.959
 20
265.489
  0
VERTEX
  6
CONTINUOUS
  8
1
 10
66.959
 20
265.455
  0
VERTEX
  6
CONTINUOUS
  8
1
 10
66.959
 20
265.420
  0
VERTEX
  6
CONTINUOUS
  8
1
 10
66.960
 20
265.386
  0
VERTEX
  6
CONTINUOUS
  8
1
 10
66.961
 20
265.352
  0
VERTEX
  6
CONTINUOUS
  8
1
 10
66.962
 20
265.318
  0
VERTEX
  6
CONTINUOUS
  8
1
 10
66.964
 20
265.284
  0
VERTEX
  6
CONTINUOUS
  8
1
 10
66.966
 20
265.249
  0
VERTEX
  6
CONTINUOUS
  8
1
 10
66.969
 20
265.215
  0
VERTEX
  6
CONTINUOUS
  8
1
 10
66.972
 20
265.181
  0
VERTEX
  6
CONTINUOUS
  8
1
 10
66.975
 20
265.147
  0
VERTEX
  6
CONTINUOUS
  8
1
 10
66.978
 20
265.113
  0
VERTEX
  6
CONTINUOUS
  8
1
 10
66.982
 20
265.079
  0
VERTEX
  6
CONTINUOUS
  8
1
 10
66.987
 20
265.045
  0
VERTEX
  6
CONTINUOUS
  8
1
 10
66.991
 20
265.011
  0
VERTEX
  6
CONTINUOUS
  8
1
 10
66.996
 20
264.979
  0
VERTEX
  6
CONTINUOUS
  8
1
 10
67.001
 20
264.945
  0
VERTEX
  6
CONTINUOUS
  8
1
 10
67.006
 20
264.912
  0
VERTEX
  6
CONTINUOUS
  8
1
 10
67.013
 20
264.878
  0
VERTEX
  6
CONTINUOUS
  8
1
 10
67.020
 20
264.845
  0
VERTEX
  6
CONTINUOUS
  8
1
 10
67.026
 20
264.813
  0
VERTEX
  6
CONTINUOUS
  8
1
 10
67.033
 20
264.780
  0
VERTEX
  6
CONTINUOUS
  8
1
 10
67.040
 20
264.748
  0
VERTEX
  6
CONTINUOUS
  8
1
 10
67.049
 20
264.715
  0
VERTEX
  6
CONTINUOUS
  8
1
 10
67.057
 20
264.684
  0
VERTEX
  6
CONTINUOUS
  8
1
 10
67.065
 20
264.652
  0
VERTEX
  6
CONTINUOUS
  8
1
 10
67.074
 20
264.620
  0
VERTEX
  6
CONTINUOUS
  8
1
 10
67.083
 20
264.588
  0
VERTEX
  6
CONTINUOUS
  8
1
 10
67.092
 20
264.558
  0
VERTEX
  6
CONTINUOUS
  8
1
 10
67.101
 20
264.527
  0
VERTEX
  6
CONTINUOUS
  8
1
 10
67.111
 20
264.496
  0
VERTEX
  6
CONTINUOUS
  8
1
 10
67.122
 20
264.466
  0
VERTEX
  6
CONTINUOUS
  8
1
 10
67.133
 20
264.436
  0
VERTEX
  6
CONTINUOUS
  8
1
 10
67.144
 20
264.407
  0
VERTEX
  6
CONTINUOUS
  8
1
 10
67.155
 20
264.377
  0
VERTEX
  6
CONTINUOUS
  8
1
 10
67.167
 20
264.347
  0
VERTEX
  6
CONTINUOUS
  8
1
 10
67.179
 20
264.319
  0
VERTEX
  6
CONTINUOUS
  8
1
 10
67.191
 20
264.290
  0
VERTEX
  6
CONTINUOUS
  8
1
 10
67.203
 20
264.263
  0
VERTEX
  6
CONTINUOUS
  8
1
 10
67.216
 20
264.235
  0
VERTEX
  6
CONTINUOUS
  8
1
 10
67.229
 20
264.207
  0
VERTEX
  6
CONTINUOUS
  8
1
 10
67.242
 20
264.180
  0
VERTEX
  6
CONTINUOUS
  8
1
 10
67.256
 20
264.153
  0
VERTEX
  6
CONTINUOUS
  8
1
 10
67.270
 20
264.127
  0
VERTEX
  6
CONTINUOUS
  8
1
 10
67.284
 20
264.101
  0
VERTEX
  6
CONTINUOUS
  8
1
 10
67.298
 20
264.076
  0
VERTEX
  6
CONTINUOUS
  8
1
 10
67.312
 20
264.050
  0
VERTEX
  6
CONTINUOUS
  8
1
 10
67.327
 20
264.026
  0
VERTEX
  6
CONTINUOUS
  8
1
 10
67.343
 20
264.001
  0
VERTEX
  6
CONTINUOUS
  8
1
 10
67.358
 20
263.978
  0
VERTEX
  6
CONTINUOUS
  8
1
 10
67.374
 20
263.954
  0
VERTEX
  6
CONTINUOUS
  8
1
 10
67.390
 20
263.931
  0
VERTEX
  6
CONTINUOUS
  8
1
 10
67.406
 20
263.909
  0
VERTEX
  6
CONTINUOUS
  8
1
 10
67.422
 20
263.886
  0
VERTEX
  6
CONTINUOUS
  8
1
 10
67.439
 20
263.865
  0
VERTEX
  6
CONTINUOUS
  8
1
 10
67.456
 20
263.843
  0
VERTEX
  6
CONTINUOUS
  8
1
 10
67.473
 20
263.823
  0
VERTEX
  6
CONTINUOUS
  8
1
 10
67.489
 20
263.802
  0
VERTEX
  6
CONTINUOUS
  8
1
 10
67.507
 20
263.783
  0
VERTEX
  6
CONTINUOUS
  8
1
 10
67.525
 20
263.764
  0
VERTEX
  6
CONTINUOUS
  8
1
 10
67.542
 20
263.744
  0
VERTEX
  6
CONTINUOUS
  8
1
 10
67.560
 20
263.727
  0
VERTEX
  6
CONTINUOUS
  8
1
 10
67.579
 20
263.709
  0
VERTEX
  6
CONTINUOUS
  8
1
 10
67.597
 20
263.691
  0
VERTEX
  6
CONTINUOUS
  8
1
 10
67.616
 20
263.675
  0
VERTEX
  6
CONTINUOUS
  8
1
 10
67.635
 20
263.659
  0
VERTEX
  6
CONTINUOUS
  8
1
 10
67.653
 20
263.643
  0
VERTEX
  6
CONTINUOUS
  8
1
 10
67.672
 20
263.628
  0
VERTEX
  6
CONTINUOUS
  8
1
 10
67.691
 20
263.614
  0
VERTEX
  6
CONTINUOUS
  8
1
 10
67.711
 20
263.599
  0
VERTEX
  6
CONTINUOUS
  8
1
 10
67.729
 20
263.586
  0
VERTEX
  6
CONTINUOUS
  8
1
 10
67.749
 20
263.573
  0
VERTEX
  6
CONTINUOUS
  8
1
 10
67.769
 20
263.560
  0
VERTEX
  6
CONTINUOUS
  8
1
 10
67.789
 20
263.548
  0
VERTEX
  6
CONTINUOUS
  8
1
 10
67.808
 20
263.537
  0
VERTEX
  6
CONTINUOUS
  8
1
 10
67.828
 20
263.526
  0
VERTEX
  6
CONTINUOUS
  8
1
 10
67.849
 20
263.516
  0
VERTEX
  6
CONTINUOUS
  8
1
 10
67.868
 20
263.507
  0
VERTEX
  6
CONTINUOUS
  8
1
 10
67.888
 20
263.498
  0
VERTEX
  6
CONTINUOUS
  8
1
 10
67.909
 20
263.489
  0
VERTEX
  6
CONTINUOUS
  8
1
 10
67.929
 20
263.481
  0
VERTEX
  6
CONTINUOUS
  8
1
 10
67.950
 20
263.474
  0
VERTEX
  6
CONTINUOUS
  8
1
 10
67.971
 20
263.467
  0
VERTEX
  6
CONTINUOUS
  8
1
 10
67.991
 20
263.461
  0
VERTEX
  6
CONTINUOUS
  8
1
 10
68.012
 20
263.456
  0
VERTEX
  6
CONTINUOUS
  8
1
 10
68.032
 20
263.451
  0
VERTEX
  6
CONTINUOUS
  8
1
 10
68.053
 20
263.446
  0
VERTEX
  6
CONTINUOUS
  8
1
 10
68.074
 20
263.443
  0
VERTEX
  6
CONTINUOUS
  8
1
 10
68.095
 20
263.440
  0
VERTEX
  6
CONTINUOUS
  8
1
 10
68.115
 20
263.437
  0
VERTEX
  6
CONTINUOUS
  8
1
 10
68.136
 20
263.435
  0
VERTEX
  6
CONTINUOUS
  8
1
 10
68.157
 20
263.434
  0
VERTEX
  6
CONTINUOUS
  8
1
 10
68.178
 20
263.433
  0
VERTEX
  6
CONTINUOUS
  8
1
 10
68.198
 20
263.432
  0
VERTEX
  6
CONTINUOUS
  8
1
 10
68.219
 20
263.433
  0
VERTEX
  6
CONTINUOUS
  8
1
 10
68.240
 20
263.434
  0
VERTEX
  6
CONTINUOUS
  8
1
 10
68.260
 20
263.436
  0
VERTEX
  6
CONTINUOUS
  8
1
 10
68.281
 20
263.438
  0
VERTEX
  6
CONTINUOUS
  8
1
 10
68.302
 20
263.441
  0
VERTEX
  6
CONTINUOUS
  8
1
 10
68.323
 20
263.444
  0
VERTEX
  6
CONTINUOUS
  8
1
 10
68.343
 20
263.449
  0
VERTEX
  6
CONTINUOUS
  8
1
 10
68.363
 20
263.453
  0
VERTEX
  6
CONTINUOUS
  8
1
 10
68.383
 20
263.458
  0
VERTEX
  6
CONTINUOUS
  8
1
 10
68.404
 20
263.464
  0
VERTEX
  6
CONTINUOUS
  8
1
 10
68.424
 20
263.471
  0
VERTEX
  6
CONTINUOUS
  8
1
 10
68.445
 20
263.477
  0
VERTEX
  6
CONTINUOUS
  8
1
 10
68.464
 20
263.485
  0
VERTEX
  6
CONTINUOUS
  8
1
 10
68.484
 20
263.493
  0
VERTEX
  6
CONTINUOUS
  8
1
 10
68.505
 20
263.501
  0
VERTEX
  6
CONTINUOUS
  8
1
 10
68.524
 20
263.511
  0
VERTEX
  6
CONTINUOUS
  8
1
 10
68.544
 20
263.521
  0
VERTEX
  6
CONTINUOUS
  8
1
 10
68.564
 20
263.532
  0
VERTEX
  6
CONTINUOUS
  8
1
 10
68.582
 20
263.542
  0
VERTEX
  6
CONTINUOUS
  8
1
 10
68.602
 20
263.554
  0
VERTEX
  6
CONTINUOUS
  8
1
 10
68.622
 20
263.566
  0
VERTEX
  6
CONTINUOUS
  8
1
 10
68.640
 20
263.578
  0
VERTEX
  6
CONTINUOUS
  8
1
 10
68.659
 20
263.592
  0
VERTEX
  6
CONTINUOUS
  8
1
 10
68.678
 20
263.606
  0
VERTEX
  6
CONTINUOUS
  8
1
 10
68.697
 20
263.620
  0
VERTEX
  6
CONTINUOUS
  8
1
 10
68.714
 20
263.635
  0
VERTEX
  6
CONTINUOUS
  8
1
 10
68.733
 20
263.651
  0
VERTEX
  6
CONTINUOUS
  8
1
 10
68.751
 20
263.666
  0
VERTEX
  6
CONTINUOUS
  8
1
 10
68.768
 20
263.683
  0
VERTEX
  6
CONTINUOUS
  8
1
 10
68.786
 20
263.700
  0
VERTEX
  6
CONTINUOUS
  8
1
 10
68.803
 20
263.717
  0
VERTEX
  6
CONTINUOUS
  8
1
 10
68.821
 20
263.735
  0
VERTEX
  6
CONTINUOUS
  8
1
 10
68.838
 20
263.754
  0
VERTEX
  6
CONTINUOUS
  8
1
 10
68.855
 20
263.773
  0
VERTEX
  6
CONTINUOUS
  8
1
 10
68.872
 20
263.792
  0
VERTEX
  6
CONTINUOUS
  8
1
 10
68.888
 20
263.812
  0
VERTEX
  6
CONTINUOUS
  8
1
 10
68.904
 20
263.833
  0
VERTEX
  6
CONTINUOUS
  8
1
 10
68.920
 20
263.854
  0
VERTEX
  6
CONTINUOUS
  8
1
 10
68.936
 20
263.875
  0
VERTEX
  6
CONTINUOUS
  8
1
 10
68.951
 20
263.897
  0
VERTEX
  6
CONTINUOUS
  8
1
 10
68.966
 20
263.919
  0
VERTEX
  6
CONTINUOUS
  8
1
 10
68.981
 20
263.942
  0
VERTEX
  6
CONTINUOUS
  8
1
 10
68.996
 20
263.965
  0
VERTEX
  6
CONTINUOUS
  8
1
 10
69.011
 20
263.989
  0
VERTEX
  6
CONTINUOUS
  8
1
 10
69.025
 20
264.013
  0
VERTEX
  6
CONTINUOUS
  8
1
 10
69.039
 20
264.038
  0
VERTEX
  6
CONTINUOUS
  8
1
 10
69.052
 20
264.062
  0
VERTEX
  6
CONTINUOUS
  8
1
 10
69.066
 20
264.088
  0
VERTEX
  6
CONTINUOUS
  8
1
 10
69.079
 20
264.113
  0
VERTEX
  6
CONTINUOUS
  8
1
 10
69.091
 20
264.140
  0
VERTEX
  6
CONTINUOUS
  8
1
 10
69.104
 20
264.166
  0
VERTEX
  6
CONTINUOUS
  8
1
 10
69.116
 20
264.193
  0
VERTEX
  6
CONTINUOUS
  8
1
 10
69.128
 20
264.220
  0
VERTEX
  6
CONTINUOUS
  8
1
 10
69.141
 20
264.248
  0
VERTEX
  6
CONTINUOUS
  8
1
 10
69.152
 20
264.276
  0
VERTEX
  6
CONTINUOUS
  8
1
 10
69.163
 20
264.304
  0
VERTEX
  6
CONTINUOUS
  8
1
 10
69.173
 20
264.333
  0
VERTEX
  6
CONTINUOUS
  8
1
 10
69.183
 20
264.361
  0
VERTEX
  6
CONTINUOUS
  8
1
 10
69.193
 20
264.391
  0
VERTEX
  6
CONTINUOUS
  8
1
 10
69.203
 20
264.420
  0
VERTEX
  6
CONTINUOUS
  8
1
 10
69.213
 20
264.450
  0
VERTEX
  6
CONTINUOUS
  8
1
 10
69.222
 20
264.481
  0
VERTEX
  6
CONTINUOUS
  8
1
 10
69.231
 20
264.511
  0
VERTEX
  6
CONTINUOUS
  8
1
 10
69.239
 20
264.541
  0
VERTEX
  6
CONTINUOUS
  8
1
 10
69.248
 20
264.573
  0
VERTEX
  6
CONTINUOUS
  8
1
 10
69.256
 20
264.604
  0
VERTEX
  6
CONTINUOUS
  8
1
 10
69.263
 20
264.635
  0
VERTEX
  6
CONTINUOUS
  8
1
 10
69.270
 20
264.667
  0
VERTEX
  6
CONTINUOUS
  8
1
 10
69.277
 20
264.699
  0
VERTEX
  6
CONTINUOUS
  8
1
 10
69.283
 20
264.731
  0
VERTEX
  6
CONTINUOUS
  8
1
 10
69.289
 20
264.763
  0
VERTEX
  6
CONTINUOUS
  8
1
 10
69.295
 20
264.795
  0
VERTEX
  6
CONTINUOUS
  8
1
 10
69.301
 20
264.829
  0
VERTEX
  6
CONTINUOUS
  8
1
 10
69.306
 20
264.861
  0
VERTEX
  6
CONTINUOUS
  8
1
 10
69.311
 20
264.894
  0
VERTEX
  6
CONTINUOUS
  8
1
 10
69.314
 20
264.927
  0
VERTEX
  6
CONTINUOUS
  8
1
 10
69.319
 20
264.960
  0
VERTEX
  6
CONTINUOUS
  8
1
 10
69.323
 20
264.995
  0
VERTEX
  6
CONTINUOUS
  8
1
 10
69.326
 20
265.028
  0
VERTEX
  6
CONTINUOUS
  8
1
 10
69.329
 20
265.062
  0
VERTEX
  6
CONTINUOUS
  8
1
 10
69.331
 20
265.095
  0
VERTEX
  6
CONTINUOUS
  8
1
 10
69.333
 20
265.129
  0
VERTEX
  6
CONTINUOUS
  8
1
 10
69.335
 20
265.163
  0
VERTEX
  6
CONTINUOUS
  8
1
 10
69.337
 20
265.197
  0
VERTEX
  6
CONTINUOUS
  8
1
 10
69.338
 20
265.231
  0
VERTEX
  6
CONTINUOUS
  8
1
 10
69.338
 20
265.265
  0
VERTEX
  6
CONTINUOUS
  8
1
 10
69.339
 20
265.299
  0
VERTEX
  6
CONTINUOUS
  8
1
 10
69.339
 20
265.333
  0
VERTEX
  6
CONTINUOUS
  8
1
 10
69.339
 20
265.368
  0
VERTEX
  6
CONTINUOUS
  8
1
 10
69.338
 20
265.402
  0
VERTEX
  6
CONTINUOUS
  8
1
 10
69.337
 20
265.436
  0
VERTEX
  6
CONTINUOUS
  8
1
 10
69.336
 20
265.470
  0
VERTEX
  6
CONTINUOUS
  8
1
 10
69.334
 20
265.504
  0
VERTEX
  6
CONTINUOUS
  8
1
 10
69.332
 20
265.539
  0
VERTEX
  6
CONTINUOUS
  8
1
 10
69.329
 20
265.573
  0
VERTEX
  6
CONTINUOUS
  8
1
 10
69.326
 20
265.607
  0
VERTEX
  6
CONTINUOUS
  8
1
 10
69.323
 20
265.641
  0
VERTEX
  6
CONTINUOUS
  8
1
 10
69.320
 20
265.675
  0
VERTEX
  6
CONTINUOUS
  8
1
 10
69.316
 20
265.709
  0
VERTEX
  6
CONTINUOUS
  8
1
 10
69.311
 20
265.743
  0
VERTEX
  6
CONTINUOUS
  8
1
 10
69.307
 20
265.777
  0
VERTEX
  6
CONTINUOUS
  8
1
 10
69.302
 20
265.809
  0
VERTEX
  6
CONTINUOUS
  8
1
 10
69.297
 20
265.843
  0
VERTEX
  6
CONTINUOUS
  8
1
 10
69.292
 20
265.876
  0
VERTEX
  6
CONTINUOUS
  8
1
 10
69.285
 20
265.910
  0
VERTEX
  6
CONTINUOUS
  8
1
 10
69.278
 20
265.943
  0
VERTEX
  6
CONTINUOUS
  8
1
 10
69.272
 20
265.975
  0
VERTEX
  6
CONTINUOUS
  8
1
 10
69.265
 20
266.008
  0
VERTEX
  6
CONTINUOUS
  8
1
 10
69.258
 20
266.040
  0
VERTEX
  6
CONTINUOUS
  8
1
 10
69.249
 20
266.073
  0
VERTEX
  6
CONTINUOUS
  8
1
 10
69.241
 20
266.104
  0
VERTEX
  6
CONTINUOUS
  8
1
 10
69.233
 20
266.136
  0
VERTEX
  6
CONTINUOUS
  8
1
 10
69.224
 20
266.168
  0
VERTEX
  6
CONTINUOUS
  8
1
 10
69.215
 20
266.200
  0
VERTEX
  6
CONTINUOUS
  8
1
 10
69.206
 20
266.230
  0
VERTEX
  6
CONTINUOUS
  8
1
 10
69.197
 20
266.261
  0
VERTEX
  6
CONTINUOUS
  8
1
 10
69.187
 20
266.292
  0
VERTEX
  6
CONTINUOUS
  8
1
 10
69.176
 20
266.322
  0
VERTEX
  6
CONTINUOUS
  8
1
 10
69.165
 20
266.352
  0
VERTEX
  6
CONTINUOUS
  8
1
 10
69.154
 20
266.381
  0
VERTEX
  6
CONTINUOUS
  8
1
 10
69.143
 20
266.411
  0
VERTEX
  6
CONTINUOUS
  8
1
 10
69.131
 20
266.441
  0
VERTEX
  6
CONTINUOUS
  8
1
 10
69.119
 20
266.469
  0
VERTEX
  6
CONTINUOUS
  8
1
 10
69.107
 20
266.498
  0
VERTEX
  6
CONTINUOUS
  8
1
 10
69.095
 20
266.525
  0
VERTEX
  6
CONTINUOUS
  8
1
 10
69.082
 20
266.553
  0
VERTEX
  6
CONTINUOUS
  8
1
 10
69.081
 20
266.556
  0
SEQEND
  0
LINE
  6
CONTINUOUS
  8
1
 10
67.822
 20
263.529
 11
72.300
 21
261.007
  0
POLYLINE
  6
CONTINUOUS
  8
1
 66
     1
 70
     2
  0
VERTEX
  6
CONTINUOUS
  8
1
 10
66.087
 20
267.388
  0
VERTEX
  6
CONTINUOUS
  8
1
 10
66.079
 20
267.388
  0
VERTEX
  6
CONTINUOUS
  8
1
 10
66.072
 20
267.388
  0
VERTEX
  6
CONTINUOUS
  8
1
 10
66.064
 20
267.387
  0
VERTEX
  6
CONTINUOUS
  8
1
 10
66.057
 20
267.387
  0
VERTEX
  6
CONTINUOUS
  8
1
 10
66.050
 20
267.386
  0
VERTEX
  6
CONTINUOUS
  8
1
 10
66.042
 20
267.384
  0
VERTEX
  6
CONTINUOUS
  8
1
 10
66.035
 20
267.383
  0
VERTEX
  6
CONTINUOUS
  8
1
 10
66.027
 20
267.381
  0
VERTEX
  6
CONTINUOUS
  8
1
 10
66.020
 20
267.380
  0
VERTEX
  6
CONTINUOUS
  8
1
 10
66.012
 20
267.378
  0
VERTEX
  6
CONTINUOUS
  8
1
 10
66.005
 20
267.377
  0
VERTEX
  6
CONTINUOUS
  8
1
 10
65.998
 20
267.375
  0
VERTEX
  6
CONTINUOUS
  8
1
 10
65.990
 20
267.372
  0
VERTEX
  6
CONTINUOUS
  8
1
 10
65.983
 20
267.370
  0
VERTEX
  6
CONTINUOUS
  8
1
 10
65.976
 20
267.368
  0
VERTEX
  6
CONTINUOUS
  8
1
 10
65.968
 20
267.364
  0
VERTEX
  6
CONTINUOUS
  8
1
 10
65.961
 20
267.361
  0
VERTEX
  6
CONTINUOUS
  8
1
 10
65.954
 20
267.358
  0
VERTEX
  6
CONTINUOUS
  8
1
 10
65.947
 20
267.355
  0
VERTEX
  6
CONTINUOUS
  8
1
 10
65.940
 20
267.352
  0
VERTEX
  6
CONTINUOUS
  8
1
 10
65.933
 20
267.348
  0
VERTEX
  6
CONTINUOUS
  8
1
 10
65.927
 20
267.344
  0
VERTEX
  6
CONTINUOUS
  8
1
 10
65.920
 20
267.341
  0
VERTEX
  6
CONTINUOUS
  8
1
 10
65.913
 20
267.337
  0
VERTEX
  6
CONTINUOUS
  8
1
 10
65.906
 20
267.333
  0
VERTEX
  6
CONTINUOUS
  8
1
 10
65.900
 20
267.328
  0
VERTEX
  6
CONTINUOUS
  8
1
 10
65.893
 20
267.324
  0
VERTEX
  6
CONTINUOUS
  8
1
 10
65.886
 20
267.318
  0
VERTEX
  6
CONTINUOUS
  8
1
 10
65.880
 20
267.314
  0
VERTEX
  6
CONTINUOUS
  8
1
 10
65.873
 20
267.309
  0
VERTEX
  6
CONTINUOUS
  8
1
 10
65.867
 20
267.304
  0
VERTEX
  6
CONTINUOUS
  8
1
 10
65.860
 20
267.298
  0
VERTEX
  6
CONTINUOUS
  8
1
 10
65.854
 20
267.293
  0
VERTEX
  6
CONTINUOUS
  8
1
 10
65.848
 20
267.288
  0
VERTEX
  6
CONTINUOUS
  8
1
 10
65.841
 20
267.282
  0
VERTEX
  6
CONTINUOUS
  8
1
 10
65.835
 20
267.276
  0
VERTEX
  6
CONTINUOUS
  8
1
 10
65.829
 20
267.270
  0
VERTEX
  6
CONTINUOUS
  8
1
 10
65.824
 20
267.264
  0
VERTEX
  6
CONTINUOUS
  8
1
 10
65.818
 20
267.258
  0
VERTEX
  6
CONTINUOUS
  8
1
 10
65.813
 20
267.252
  0
VERTEX
  6
CONTINUOUS
  8
1
 10
65.807
 20
267.245
  0
VERTEX
  6
CONTINUOUS
  8
1
 10
65.801
 20
267.238
  0
VERTEX
  6
CONTINUOUS
  8
1
 10
65.796
 20
267.231
  0
VERTEX
  6
CONTINUOUS
  8
1
 10
65.790
 20
267.224
  0
VERTEX
  6
CONTINUOUS
  8
1
 10
65.785
 20
267.217
  0
VERTEX
  6
CONTINUOUS
  8
1
 10
65.780
 20
267.210
  0
VERTEX
  6
CONTINUOUS
  8
1
 10
65.775
 20
267.203
  0
VERTEX
  6
CONTINUOUS
  8
1
 10
65.769
 20
267.195
  0
VERTEX
  6
CONTINUOUS
  8
1
 10
65.764
 20
267.188
  0
VERTEX
  6
CONTINUOUS
  8
1
 10
65.761
 20
267.180
  0
VERTEX
  6
CONTINUOUS
  8
1
 10
65.756
 20
267.173
  0
VERTEX
  6
CONTINUOUS
  8
1
 10
65.751
 20
267.165
  0
VERTEX
  6
CONTINUOUS
  8
1
 10
65.747
 20
267.157
  0
VERTEX
  6
CONTINUOUS
  8
1
 10
65.742
 20
267.149
  0
VERTEX
  6
CONTINUOUS
  8
1
 10
65.738
 20
267.141
  0
VERTEX
  6
CONTINUOUS
  8
1
 10
65.734
 20
267.133
  0
VERTEX
  6
CONTINUOUS
  8
1
 10
65.729
 20
267.124
  0
VERTEX
  6
CONTINUOUS
  8
1
 10
65.725
 20
267.115
  0
VERTEX
  6
CONTINUOUS
  8
1
 10
65.721
 20
267.107
  0
VERTEX
  6
CONTINUOUS
  8
1
 10
65.719
 20
267.098
  0
VERTEX
  6
CONTINUOUS
  8
1
 10
65.715
 20
267.089
  0
VERTEX
  6
CONTINUOUS
  8
1
 10
65.711
 20
267.081
  0
VERTEX
  6
CONTINUOUS
  8
1
 10
65.708
 20
267.072
  0
VERTEX
  6
CONTINUOUS
  8
1
 10
65.705
 20
267.063
  0
VERTEX
  6
CONTINUOUS
  8
1
 10
65.701
 20
267.054
  0
VERTEX
  6
CONTINUOUS
  8
1
 10
65.698
 20
267.045
  0
VERTEX
  6
CONTINUOUS
  8
1
 10
65.695
 20
267.036
  0
VERTEX
  6
CONTINUOUS
  8
1
 10
65.692
 20
267.027
  0
VERTEX
  6
CONTINUOUS
  8
1
 10
65.691
 20
267.017
  0
VERTEX
  6
CONTINUOUS
  8
1
 10
65.688
 20
267.008
  0
VERTEX
  6
CONTINUOUS
  8
1
 10
65.685
 20
266.999
  0
VERTEX
  6
CONTINUOUS
  8
1
 10
65.683
 20
266.989
  0
VERTEX
  6
CONTINUOUS
  8
1
 10
65.681
 20
266.980
  0
VERTEX
  6
CONTINUOUS
  8
1
 10
65.679
 20
266.970
  0
VERTEX
  6
CONTINUOUS
  8
1
 10
65.677
 20
266.961
  0
VERTEX
  6
CONTINUOUS
  8
1
 10
65.675
 20
266.951
  0
VERTEX
  6
CONTINUOUS
  8
1
 10
65.673
 20
266.941
  0
VERTEX
  6
CONTINUOUS
  8
1
 10
65.672
 20
266.932
  0
VERTEX
  6
CONTINUOUS
  8
1
 10
65.671
 20
266.922
  0
VERTEX
  6
CONTINUOUS
  8
1
 10
65.670
 20
266.912
  0
VERTEX
  6
CONTINUOUS
  8
1
 10
65.668
 20
266.902
  0
VERTEX
  6
CONTINUOUS
  8
1
 10
65.667
 20
266.892
  0
VERTEX
  6
CONTINUOUS
  8
1
 10
65.666
 20
266.882
  0
VERTEX
  6
CONTINUOUS
  8
1
 10
65.665
 20
266.873
  0
VERTEX
  6
CONTINUOUS
  8
1
 10
65.665
 20
266.863
  0
VERTEX
  6
CONTINUOUS
  8
1
 10
65.665
 20
266.853
  0
VERTEX
  6
CONTINUOUS
  8
1
 10
65.665
 20
266.843
  0
VERTEX
  6
CONTINUOUS
  8
1
 10
65.664
 20
266.833
  0
VERTEX
  6
CONTINUOUS
  8
1
 10
65.664
 20
266.823
  0
VERTEX
  6
CONTINUOUS
  8
1
 10
65.664
 20
266.813
  0
VERTEX
  6
CONTINUOUS
  8
1
 10
65.664
 20
266.803
  0
VERTEX
  6
CONTINUOUS
  8
1
 10
65.664
 20
266.793
  0
VERTEX
  6
CONTINUOUS
  8
1
 10
65.665
 20
266.783
  0
VERTEX
  6
CONTINUOUS
  8
1
 10
65.666
 20
266.773
  0
VERTEX
  6
CONTINUOUS
  8
1
 10
65.667
 20
266.763
  0
VERTEX
  6
CONTINUOUS
  8
1
 10
65.667
 20
266.753
  0
VERTEX
  6
CONTINUOUS
  8
1
 10
65.668
 20
266.744
  0
VERTEX
  6
CONTINUOUS
  8
1
 10
65.669
 20
266.734
  0
VERTEX
  6
CONTINUOUS
  8
1
 10
65.670
 20
266.724
  0
VERTEX
  6
CONTINUOUS
  8
1
 10
65.672
 20
266.714
  0
VERTEX
  6
CONTINUOUS
  8
1
 10
65.673
 20
266.704
  0
VERTEX
  6
CONTINUOUS
  8
1
 10
65.674
 20
266.694
  0
VERTEX
  6
CONTINUOUS
  8
1
 10
65.677
 20
266.685
  0
VERTEX
  6
CONTINUOUS
  8
1
 10
65.679
 20
266.675
  0
VERTEX
  6
CONTINUOUS
  8
1
 10
65.681
 20
266.665
  0
VERTEX
  6
CONTINUOUS
  8
1
 10
65.683
 20
266.656
  0
VERTEX
  6
CONTINUOUS
  8
1
 10
65.685
 20
266.646
  0
VERTEX
  6
CONTINUOUS
  8
1
 10
65.687
 20
266.637
  0
VERTEX
  6
CONTINUOUS
  8
1
 10
65.689
 20
266.627
  0
VERTEX
  6
CONTINUOUS
  8
1
 10
65.692
 20
266.618
  0
VERTEX
  6
CONTINUOUS
  8
1
 10
65.696
 20
266.609
  0
VERTEX
  6
CONTINUOUS
  8
1
 10
65.698
 20
266.599
  0
VERTEX
  6
CONTINUOUS
  8
1
 10
65.701
 20
266.590
  0
VERTEX
  6
CONTINUOUS
  8
1
 10
65.704
 20
266.581
  0
VERTEX
  6
CONTINUOUS
  8
1
 10
65.707
 20
266.572
  0
VERTEX
  6
CONTINUOUS
  8
1
 10
65.711
 20
266.563
  0
VERTEX
  6
CONTINUOUS
  8
1
 10
65.714
 20
266.554
  0
VERTEX
  6
CONTINUOUS
  8
1
 10
65.717
 20
266.545
  0
VERTEX
  6
CONTINUOUS
  8
1
 10
65.721
 20
266.537
  0
VERTEX
  6
CONTINUOUS
  8
1
 10
65.726
 20
266.528
  0
VERTEX
  6
CONTINUOUS
  8
1
 10
65.729
 20
266.519
  0
VERTEX
  6
CONTINUOUS
  8
1
 10
65.733
 20
266.512
  0
VERTEX
  6
CONTINUOUS
  8
1
 10
65.737
 20
266.504
  0
VERTEX
  6
CONTINUOUS
  8
1
 10
65.742
 20
266.495
  0
VERTEX
  6
CONTINUOUS
  8
1
 10
65.746
 20
266.487
  0
VERTEX
  6
CONTINUOUS
  8
1
 10
65.750
 20
266.479
  0
VERTEX
  6
CONTINUOUS
  8
1
 10
65.755
 20
266.471
  0
VERTEX
  6
CONTINUOUS
  8
1
 10
65.759
 20
266.463
  0
VERTEX
  6
CONTINUOUS
  8
1
 10
65.764
 20
266.455
  0
VERTEX
  6
CONTINUOUS
  8
1
 10
65.770
 20
266.448
  0
VERTEX
  6
CONTINUOUS
  8
1
 10
65.774
 20
266.440
  0
VERTEX
  6
CONTINUOUS
  8
1
 10
65.779
 20
266.433
  0
VERTEX
  6
CONTINUOUS
  8
1
 10
65.785
 20
266.425
  0
VERTEX
  6
CONTINUOUS
  8
1
 10
65.790
 20
266.418
  0
VERTEX
  6
CONTINUOUS
  8
1
 10
65.795
 20
266.411
  0
VERTEX
  6
CONTINUOUS
  8
1
 10
65.800
 20
266.404
  0
VERTEX
  6
CONTINUOUS
  8
1
 10
65.806
 20
266.397
  0
VERTEX
  6
CONTINUOUS
  8
1
 10
65.811
 20
266.390
  0
VERTEX
  6
CONTINUOUS
  8
1
 10
65.817
 20
266.385
  0
VERTEX
  6
CONTINUOUS
  8
1
 10
65.823
 20
266.378
  0
VERTEX
  6
CONTINUOUS
  8
1
 10
65.828
 20
266.372
  0
VERTEX
  6
CONTINUOUS
  8
1
 10
65.835
 20
266.366
  0
VERTEX
  6
CONTINUOUS
  8
1
 10
65.841
 20
266.360
  0
VERTEX
  6
CONTINUOUS
  8
1
 10
65.847
 20
266.354
  0
VERTEX
  6
CONTINUOUS
  8
1
 10
65.853
 20
266.348
  0
VERTEX
  6
CONTINUOUS
  8
1
 10
65.860
 20
266.342
  0
VERTEX
  6
CONTINUOUS
  8
1
 10
65.866
 20
266.337
  0
VERTEX
  6
CONTINUOUS
  8
1
 10
65.872
 20
266.332
  0
VERTEX
  6
CONTINUOUS
  8
1
 10
65.879
 20
266.326
  0
VERTEX
  6
CONTINUOUS
  8
1
 10
65.885
 20
266.321
  0
VERTEX
  6
CONTINUOUS
  8
1
 10
65.892
 20
266.316
  0
VERTEX
  6
CONTINUOUS
  8
1
 10
65.898
 20
266.313
  0
VERTEX
  6
CONTINUOUS
  8
1
 10
65.905
 20
266.308
  0
VERTEX
  6
CONTINUOUS
  8
1
 10
65.912
 20
266.304
  0
VERTEX
  6
CONTINUOUS
  8
1
 10
65.918
 20
266.299
  0
VERTEX
  6
CONTINUOUS
  8
1
 10
65.925
 20
266.295
  0
VERTEX
  6
CONTINUOUS
  8
1
 10
65.932
 20
266.291
  0
VERTEX
  6
CONTINUOUS
  8
1
 10
65.939
 20
266.288
  0
VERTEX
  6
CONTINUOUS
  8
1
 10
65.947
 20
266.284
  0
VERTEX
  6
CONTINUOUS
  8
1
 10
65.954
 20
266.280
  0
VERTEX
  6
CONTINUOUS
  8
1
 10
65.961
 20
266.277
  0
VERTEX
  6
CONTINUOUS
  8
1
 10
65.968
 20
266.274
  0
VERTEX
  6
CONTINUOUS
  8
1
 10
65.975
 20
266.271
  0
VERTEX
  6
CONTINUOUS
  8
1
 10
65.982
 20
266.269
  0
VERTEX
  6
CONTINUOUS
  8
1
 10
65.990
 20
266.266
  0
VERTEX
  6
CONTINUOUS
  8
1
 10
65.997
 20
266.264
  0
VERTEX
  6
CONTINUOUS
  8
1
 10
66.004
 20
266.262
  0
VERTEX
  6
CONTINUOUS
  8
1
 10
66.012
 20
266.259
  0
VERTEX
  6
CONTINUOUS
  8
1
 10
66.019
 20
266.257
  0
VERTEX
  6
CONTINUOUS
  8
1
 10
66.026
 20
266.256
  0
VERTEX
  6
CONTINUOUS
  8
1
 10
66.034
 20
266.254
  0
VERTEX
  6
CONTINUOUS
  8
1
 10
66.041
 20
266.253
  0
VERTEX
  6
CONTINUOUS
  8
1
 10
66.049
 20
266.251
  0
VERTEX
  6
CONTINUOUS
  8
1
 10
66.056
 20
266.250
  0
VERTEX
  6
CONTINUOUS
  8
1
 10
66.064
 20
266.250
  0
VERTEX
  6
CONTINUOUS
  8
1
 10
66.071
 20
266.249
  0
VERTEX
  6
CONTINUOUS
  8
1
 10
66.078
 20
266.249
  0
VERTEX
  6
CONTINUOUS
  8
1
 10
66.086
 20
266.248
  0
VERTEX
  6
CONTINUOUS
  8
1
 10
66.093
 20
266.248
  0
VERTEX
  6
CONTINUOUS
  8
1
 10
66.101
 20
266.248
  0
VERTEX
  6
CONTINUOUS
  8
1
 10
66.109
 20
266.248
  0
VERTEX
  6
CONTINUOUS
  8
1
 10
66.116
 20
266.248
  0
VERTEX
  6
CONTINUOUS
  8
1
 10
66.124
 20
266.249
  0
VERTEX
  6
CONTINUOUS
  8
1
 10
66.131
 20
266.249
  0
VERTEX
  6
CONTINUOUS
  8
1
 10
66.138
 20
266.250
  0
VERTEX
  6
CONTINUOUS
  8
1
 10
66.146
 20
266.252
  0
VERTEX
  6
CONTINUOUS
  8
1
 10
66.153
 20
266.253
  0
VERTEX
  6
CONTINUOUS
  8
1
 10
66.161
 20
266.255
  0
VERTEX
  6
CONTINUOUS
  8
1
 10
66.168
 20
266.256
  0
VERTEX
  6
CONTINUOUS
  8
1
 10
66.176
 20
266.258
  0
VERTEX
  6
CONTINUOUS
  8
1
 10
66.183
 20
266.259
  0
VERTEX
  6
CONTINUOUS
  8
1
 10
66.190
 20
266.261
  0
VERTEX
  6
CONTINUOUS
  8
1
 10
66.198
 20
266.264
  0
VERTEX
  6
CONTINUOUS
  8
1
 10
66.205
 20
266.266
  0
VERTEX
  6
CONTINUOUS
  8
1
 10
66.212
 20
266.268
  0
VERTEX
  6
CONTINUOUS
  8
1
 10
66.220
 20
266.272
  0
VERTEX
  6
CONTINUOUS
  8
1
 10
66.227
 20
266.275
  0
VERTEX
  6
CONTINUOUS
  8
1
 10
66.234
 20
266.278
  0
VERTEX
  6
CONTINUOUS
  8
1
 10
66.241
 20
266.281
  0
VERTEX
  6
CONTINUOUS
  8
1
 10
66.248
 20
266.284
  0
VERTEX
  6
CONTINUOUS
  8
1
 10
66.255
 20
266.288
  0
VERTEX
  6
CONTINUOUS
  8
1
 10
66.261
 20
266.292
  0
VERTEX
  6
CONTINUOUS
  8
1
 10
66.268
 20
266.295
  0
VERTEX
  6
CONTINUOUS
  8
1
 10
66.275
 20
266.299
  0
VERTEX
  6
CONTINUOUS
  8
1
 10
66.282
 20
266.303
  0
VERTEX
  6
CONTINUOUS
  8
1
 10
66.288
 20
266.308
  0
VERTEX
  6
CONTINUOUS
  8
1
 10
66.295
 20
266.312
  0
VERTEX
  6
CONTINUOUS
  8
1
 10
66.302
 20
266.318
  0
VERTEX
  6
CONTINUOUS
  8
1
 10
66.308
 20
266.322
  0
VERTEX
  6
CONTINUOUS
  8
1
 10
66.315
 20
266.327
  0
VERTEX
  6
CONTINUOUS
  8
1
 10
66.321
 20
266.332
  0
VERTEX
  6
CONTINUOUS
  8
1
 10
66.328
 20
266.338
  0
VERTEX
  6
CONTINUOUS
  8
1
 10
66.334
 20
266.343
  0
VERTEX
  6
CONTINUOUS
  8
1
 10
66.340
 20
266.348
  0
VERTEX
  6
CONTINUOUS
  8
1
 10
66.347
 20
266.354
  0
VERTEX
  6
CONTINUOUS
  8
1
 10
66.353
 20
266.360
  0
VERTEX
  6
CONTINUOUS
  8
1
 10
66.359
 20
266.366
  0
VERTEX
  6
CONTINUOUS
  8
1
 10
66.364
 20
266.372
  0
VERTEX
  6
CONTINUOUS
  8
1
 10
66.370
 20
266.378
  0
VERTEX
  6
CONTINUOUS
  8
1
 10
66.375
 20
266.384
  0
VERTEX
  6
CONTINUOUS
  8
1
 10
66.381
 20
266.391
  0
VERTEX
  6
CONTINUOUS
  8
1
 10
66.387
 20
266.398
  0
VERTEX
  6
CONTINUOUS
  8
1
 10
66.392
 20
266.405
  0
VERTEX
  6
CONTINUOUS
  8
1
 10
66.398
 20
266.412
  0
VERTEX
  6
CONTINUOUS
  8
1
 10
66.403
 20
266.419
  0
VERTEX
  6
CONTINUOUS
  8
1
 10
66.408
 20
266.426
  0
VERTEX
  6
CONTINUOUS
  8
1
 10
66.413
 20
266.433
  0
VERTEX
  6
CONTINUOUS
  8
1
 10
66.419
 20
266.441
  0
VERTEX
  6
CONTINUOUS
  8
1
 10
66.424
 20
266.448
  0
VERTEX
  6
CONTINUOUS
  8
1
 10
66.427
 20
266.456
  0
VERTEX
  6
CONTINUOUS
  8
1
 10
66.432
 20
266.463
  0
VERTEX
  6
CONTINUOUS
  8
1
 10
66.437
 20
266.471
  0
VERTEX
  6
CONTINUOUS
  8
1
 10
66.441
 20
266.479
  0
VERTEX
  6
CONTINUOUS
  8
1
 10
66.446
 20
266.487
  0
VERTEX
  6
CONTINUOUS
  8
1
 10
66.450
 20
266.495
  0
VERTEX
  6
CONTINUOUS
  8
1
 10
66.454
 20
266.503
  0
VERTEX
  6
CONTINUOUS
  8
1
 10
66.459
 20
266.512
  0
VERTEX
  6
CONTINUOUS
  8
1
 10
66.463
 20
266.521
  0
VERTEX
  6
CONTINUOUS
  8
1
 10
66.467
 20
266.529
  0
VERTEX
  6
CONTINUOUS
  8
1
 10
66.469
 20
266.538
  0
VERTEX
  6
CONTINUOUS
  8
1
 10
66.473
 20
266.547
  0
VERTEX
  6
CONTINUOUS
  8
1
 10
66.477
 20
266.555
  0
VERTEX
  6
CONTINUOUS
  8
1
 10
66.480
 20
266.564
  0
VERTEX
  6
CONTINUOUS
  8
1
 10
66.483
 20
266.573
  0
VERTEX
  6
CONTINUOUS
  8
1
 10
66.487
 20
266.582
  0
VERTEX
  6
CONTINUOUS
  8
1
 10
66.490
 20
266.591
  0
VERTEX
  6
CONTINUOUS
  8
1
 10
66.493
 20
266.600
  0
VERTEX
  6
CONTINUOUS
  8
1
 10
66.496
 20
266.609
  0
VERTEX
  6
CONTINUOUS
  8
1
 10
66.497
 20
266.619
  0
VERTEX
  6
CONTINUOUS
  8
1
 10
66.500
 20
266.628
  0
VERTEX
  6
CONTINUOUS
  8
1
 10
66.503
 20
266.637
  0
VERTEX
  6
CONTINUOUS
  8
1
 10
66.505
 20
266.647
  0
VERTEX
  6
CONTINUOUS
  8
1
 10
66.507
 20
266.656
  0
VERTEX
  6
CONTINUOUS
  8
1
 10
66.509
 20
266.666
  0
VERTEX
  6
CONTINUOUS
  8
1
 10
66.511
 20
266.675
  0
VERTEX
  6
CONTINUOUS
  8
1
 10
66.513
 20
266.685
  0
VERTEX
  6
CONTINUOUS
  8
1
 10
66.515
 20
266.695
  0
VERTEX
  6
CONTINUOUS
  8
1
 10
66.516
 20
266.704
  0
VERTEX
  6
CONTINUOUS
  8
1
 10
66.517
 20
266.714
  0
VERTEX
  6
CONTINUOUS
  8
1
 10
66.518
 20
266.724
  0
VERTEX
  6
CONTINUOUS
  8
1
 10
66.520
 20
266.734
  0
VERTEX
  6
CONTINUOUS
  8
1
 10
66.521
 20
266.744
  0
VERTEX
  6
CONTINUOUS
  8
1
 10
66.522
 20
266.754
  0
VERTEX
  6
CONTINUOUS
  8
1
 10
66.523
 20
266.763
  0
VERTEX
  6
CONTINUOUS
  8
1
 10
66.523
 20
266.773
  0
VERTEX
  6
CONTINUOUS
  8
1
 10
66.523
 20
266.783
  0
VERTEX
  6
CONTINUOUS
  8
1
 10
66.523
 20
266.793
  0
VERTEX
  6
CONTINUOUS
  8
1
 10
66.524
 20
266.803
  0
VERTEX
  6
CONTINUOUS
  8
1
 10
66.524
 20
266.813
  0
VERTEX
  6
CONTINUOUS
  8
1
 10
66.524
 20
266.823
  0
VERTEX
  6
CONTINUOUS
  8
1
 10
66.524
 20
266.833
  0
VERTEX
  6
CONTINUOUS
  8
1
 10
66.524
 20
266.843
  0
VERTEX
  6
CONTINUOUS
  8
1
 10
66.523
 20
266.853
  0
VERTEX
  6
CONTINUOUS
  8
1
 10
66.522
 20
266.863
  0
VERTEX
  6
CONTINUOUS
  8
1
 10
66.521
 20
266.873
  0
VERTEX
  6
CONTINUOUS
  8
1
 10
66.521
 20
266.883
  0
VERTEX
  6
CONTINUOUS
  8
1
 10
66.520
 20
266.892
  0
VERTEX
  6
CONTINUOUS
  8
1
 10
66.519
 20
266.902
  0
VERTEX
  6
CONTINUOUS
  8
1
 10
66.518
 20
266.912
  0
VERTEX
  6
CONTINUOUS
  8
1
 10
66.516
 20
266.922
  0
VERTEX
  6
CONTINUOUS
  8
1
 10
66.515
 20
266.932
  0
VERTEX
  6
CONTINUOUS
  8
1
 10
66.514
 20
266.942
  0
VERTEX
  6
CONTINUOUS
  8
1
 10
66.511
 20
266.951
  0
VERTEX
  6
CONTINUOUS
  8
1
 10
66.509
 20
266.961
  0
VERTEX
  6
CONTINUOUS
  8
1
 10
66.507
 20
266.971
  0
VERTEX
  6
CONTINUOUS
  8
1
 10
66.505
 20
266.980
  0
VERTEX
  6
CONTINUOUS
  8
1
 10
66.503
 20
266.990
  0
VERTEX
  6
CONTINUOUS
  8
1
 10
66.501
 20
266.999
  0
VERTEX
  6
CONTINUOUS
  8
1
 10
66.499
 20
267.009
  0
VERTEX
  6
CONTINUOUS
  8
1
 10
66.496
 20
267.018
  0
VERTEX
  6
CONTINUOUS
  8
1
 10
66.492
 20
267.027
  0
VERTEX
  6
CONTINUOUS
  8
1
 10
66.490
 20
267.037
  0
VERTEX
  6
CONTINUOUS
  8
1
 10
66.487
 20
267.046
  0
VERTEX
  6
CONTINUOUS
  8
1
 10
66.484
 20
267.055
  0
VERTEX
  6
CONTINUOUS
  8
1
 10
66.481
 20
267.064
  0
VERTEX
  6
CONTINUOUS
  8
1
 10
66.477
 20
267.073
  0
VERTEX
  6
CONTINUOUS
  8
1
 10
66.474
 20
267.082
  0
VERTEX
  6
CONTINUOUS
  8
1
 10
66.471
 20
267.091
  0
VERTEX
  6
CONTINUOUS
  8
1
 10
66.467
 20
267.099
  0
VERTEX
  6
CONTINUOUS
  8
1
 10
66.462
 20
267.108
  0
VERTEX
  6
CONTINUOUS
  8
1
 10
66.459
 20
267.117
  0
VERTEX
  6
CONTINUOUS
  8
1
 10
66.455
 20
267.124
  0
VERTEX
  6
CONTINUOUS
  8
1
 10
66.451
 20
267.132
  0
VERTEX
  6
CONTINUOUS
  8
1
 10
66.446
 20
267.141
  0
VERTEX
  6
CONTINUOUS
  8
1
 10
66.442
 20
267.149
  0
VERTEX
  6
CONTINUOUS
  8
1
 10
66.438
 20
267.157
  0
VERTEX
  6
CONTINUOUS
  8
1
 10
66.433
 20
267.165
  0
VERTEX
  6
CONTINUOUS
  8
1
 10
66.429
 20
267.173
  0
VERTEX
  6
CONTINUOUS
  8
1
 10
66.424
 20
267.181
  0
VERTEX
  6
CONTINUOUS
  8
1
 10
66.418
 20
267.188
  0
VERTEX
  6
CONTINUOUS
  8
1
 10
66.414
 20
267.196
  0
VERTEX
  6
CONTINUOUS
  8
1
 10
66.409
 20
267.203
  0
VERTEX
  6
CONTINUOUS
  8
1
 10
66.403
 20
267.211
  0
VERTEX
  6
CONTINUOUS
  8
1
 10
66.398
 20
267.218
  0
VERTEX
  6
CONTINUOUS
  8
1
 10
66.393
 20
267.225
  0
VERTEX
  6
CONTINUOUS
  8
1
 10
66.388
 20
267.232
  0
VERTEX
  6
CONTINUOUS
  8
1
 10
66.382
 20
267.239
  0
VERTEX
  6
CONTINUOUS
  8
1
 10
66.377
 20
267.246
  0
VERTEX
  6
CONTINUOUS
  8
1
 10
66.371
 20
267.251
  0
VERTEX
  6
CONTINUOUS
  8
1
 10
66.365
 20
267.258
  0
VERTEX
  6
CONTINUOUS
  8
1
 10
66.360
 20
267.264
  0
VERTEX
  6
CONTINUOUS
  8
1
 10
66.353
 20
267.270
  0
VERTEX
  6
CONTINUOUS
  8
1
 10
66.347
 20
267.276
  0
VERTEX
  6
CONTINUOUS
  8
1
 10
66.341
 20
267.282
  0
VERTEX
  6
CONTINUOUS
  8
1
 10
66.335
 20
267.288
  0
VERTEX
  6
CONTINUOUS
  8
1
 10
66.328
 20
267.294
  0
VERTEX
  6
CONTINUOUS
  8
1
 10
66.322
 20
267.299
  0
VERTEX
  6
CONTINUOUS
  8
1
 10
66.316
 20
267.304
  0
VERTEX
  6
CONTINUOUS
  8
1
 10
66.309
 20
267.310
  0
VERTEX
  6
CONTINUOUS
  8
1
 10
66.303
 20
267.315
  0
VERTEX
  6
CONTINUOUS
  8
1
 10
66.296
 20
267.320
  0
VERTEX
  6
CONTINUOUS
  8
1
 10
66.290
 20
267.323
  0
VERTEX
  6
CONTINUOUS
  8
1
 10
66.283
 20
267.328
  0
VERTEX
  6
CONTINUOUS
  8
1
 10
66.276
 20
267.332
  0
VERTEX
  6
CONTINUOUS
  8
1
 10
66.270
 20
267.337
  0
VERTEX
  6
CONTINUOUS
  8
1
 10
66.263
 20
267.341
  0
VERTEX
  6
CONTINUOUS
  8
1
 10
66.256
 20
267.345
  0
VERTEX
  6
CONTINUOUS
  8
1
 10
66.249
 20
267.348
  0
VERTEX
  6
CONTINUOUS
  8
1
 10
66.241
 20
267.352
  0
VERTEX
  6
CONTINUOUS
  8
1
 10
66.234
 20
267.356
  0
VERTEX
  6
CONTINUOUS
  8
1
 10
66.227
 20
267.359
  0
VERTEX
  6
CONTINUOUS
  8
1
 10
66.220
 20
267.362
  0
VERTEX
  6
CONTINUOUS
  8
1
 10
66.213
 20
267.365
  0
VERTEX
  6
CONTINUOUS
  8
1
 10
66.206
 20
267.367
  0
VERTEX
  6
CONTINUOUS
  8
1
 10
66.198
 20
267.370
  0
VERTEX
  6
CONTINUOUS
  8
1
 10
66.191
 20
267.372
  0
VERTEX
  6
CONTINUOUS
  8
1
 10
66.184
 20
267.374
  0
VERTEX
  6
CONTINUOUS
  8
1
 10
66.176
 20
267.377
  0
VERTEX
  6
CONTINUOUS
  8
1
 10
66.169
 20
267.379
  0
VERTEX
  6
CONTINUOUS
  8
1
 10
66.162
 20
267.380
  0
VERTEX
  6
CONTINUOUS
  8
1
 10
66.154
 20
267.382
  0
VERTEX
  6
CONTINUOUS
  8
1
 10
66.147
 20
267.383
  0
VERTEX
  6
CONTINUOUS
  8
1
 10
66.139
 20
267.385
  0
VERTEX
  6
CONTINUOUS
  8
1
 10
66.132
 20
267.386
  0
VERTEX
  6
CONTINUOUS
  8
1
 10
66.124
 20
267.386
  0
VERTEX
  6
CONTINUOUS
  8
1
 10
66.117
 20
267.387
  0
VERTEX
  6
CONTINUOUS
  8
1
 10
66.110
 20
267.387
  0
VERTEX
  6
CONTINUOUS
  8
1
 10
66.102
 20
267.388
  0
VERTEX
  6
CONTINUOUS
  8
1
 10
66.095
 20
267.388
  0
VERTEX
  6
CONTINUOUS
  8
1
 10
66.087
 20
267.388
  0
SEQEND
  0
LINE
  6
CONTINUOUS
  8
1
 10
65.907
 20
266.258
 11
67.004
 21
265.604
  0
LINE
  6
CONTINUOUS
  8
1
 10
66.257
 20
267.378
 11
67.243
 21
266.721
  0
LINE
  6
CONTINUOUS
  8
1
 10
102.789
 20
250.546
 11
99.429
 21
252.486
  0
LINE
  6
CONTINUOUS
  8
1
 10
99.429
 20
252.486
 11
88.389
 21
258.860
  0
LINE
  6
CONTINUOUS
  8
1
 10
88.389
 20
258.860
 11
76.540
 21
265.701
  0
LINE
  6
CONTINUOUS
  8
1
 10
72.446
 20
266.262
 11
72.446
 21
266.623
  0
LINE
  6
CONTINUOUS
  8
1
 10
72.446
 20
266.262
 11
74.007
 21
267.163
  0
LINE
  6
CONTINUOUS
  8
1
 10
72.446
 20
266.623
 11
74.007
 21
267.524
  0
LINE
  6
CONTINUOUS
  8
1
 10
74.007
 20
267.524
 11
74.007
 21
267.163
  0
LINE
  6
CONTINUOUS
  8
1
 10
74.007
 20
267.524
 11
69.102
 21
270.272
  0
LINE
  6
CONTINUOUS
  8
1
 10
72.446
 20
266.623
 11
67.245
 21
269.626
  0
LINE
  6
CONTINUOUS
  8
1
 10
64.431
 20
265.551
 11
64.783
 21
265.348
  0
LINE
  6
CONTINUOUS
  8
1
 10
64.783
 20
265.348
 11
64.783
 21
270.687
  0
LINE
  6
CONTINUOUS
  8
1
 10
64.783
 20
270.687
 11
67.542
 21
269.093
  0
LINE
  6
CONTINUOUS
  8
1
 10
64.431
 20
265.551
 11
64.431
 21
271.251
  0
LINE
  6
CONTINUOUS
  8
1
 10
64.431
 20
271.251
 11
67.245
 21
269.626
  0
LINE
  6
CONTINUOUS
  8
1
 10
64.449
 20
271.262
 11
65.918
 21
272.110
  0
LINE
  6
CONTINUOUS
  8
1
 10
76.540
 20
265.701
 11
74.007
 21
267.163
  0
LINE
  6
CONTINUOUS
  8
1
 10
65.918
 20
272.110
 11
69.102
 21
270.272
  0
LINE
  6
CONTINUOUS
  8
1
 10
65.918
 20
270.031
 11
65.919
 21
267.340
  0
LINE
  6
CONTINUOUS
  8
1
 10
65.918
 20
266.251
 11
65.918
 21
266.003
  0
LINE
  6
CONTINUOUS
  8
1
 10
65.918
 20
266.003
 11
64.783
 21
265.348
  0
ENDSEC
  0
EOF
