  0
SECTION
  2
HEADER
  9
$ACADVER
  1
AC1009
  9
$INSBASE
 10
0
 20
0
 30
0
  9
$EXTMIN
 10
0
 20
0
  9
$EXTMAX
 10
297.25
 20
210.25
  9
$LIMMIN
 10
0
 20
0
  9
$LIMMAX
 10
297.25
 20
210.25
  9
$LTSCALE
 40
0.25
  0
ENDSEC
  0
SECTION
  2
TABLES
  0
TABLE
  2
LTYPE
 70
     9
  0
LTYPE
  2
CONTINUOUS
 70
    64
  3
実線
 72
    65
 73
     0
 40
0.0
  0
LTYPE
  2
DASHED1
 70
    64
  3
--  --  --  --  --  --  --  --  
 72
    65
 73
     2
 40
2.5
 49
1.25
 49
-1.25
  0
LTYPE
  2
DASHED2
 70
    64
  3
----    ----    ----    ----    
 72
    65
 73
     2
 40
5.0
 49
2.5
 49
-2.5
  0
LTYPE
  2
DASHED3
 70
    64
  3
------  ------  ------  ------  
 72
    65
 73
     2
 40
5.0
 49
3.75
 49
-1.25
  0
LTYPE
  2
CENTER1
 70
    64
  3
----- - ----- - ----- - ----- - 
 72
    65
 73
     4
 40
10.0
 49
6.25
 49
-1.25
 49
1.25
 49
-1.25
  0
LTYPE
  2
CENTER2
 70
    64
  3
----------  --  ----------  --  
 72
    65
 73
     4
 40
20.0
 49
12.5
 49
-2.5
 49
2.5
 49
-2.5
  0
LTYPE
  2
PHANTOM1
 70
    64
  3
--- - - --- - - --- - - --- - - 
 72
    65
 73
     6
 40
10.0
 49
3.25
 49
-1.25
 49
1.25
 49
-1.25
 49
1.25
 49
-1.25
  0
LTYPE
  2
PHANTOM2
 70
    64
  3
--------  -  -  --------  -  -  
 72
    65
 73
     6
 40
20.0
 49
10.0
 49
-2.5
 49
1.25
 49
-2.5
 49
1.25
 49
-2.5
  0
LTYPE
  2
DOT
 70
    64
  3
-   -   -   -   -   -   -   -   
 72
    65
 73
     2
 40
2.5
 49
0.625
 49
-1.875
  0
LTYPE
  2
DUMMY
 70
    64
  3
ダミー
 72
    65
 73
     0
 40
0.0
  0
LTYPE
  2
RAND1
 70
    64
  3
ランダム線1
 72
    65
 73
     4
 40
10.0
 49
1.0
 49
-2.0
 49
3.0
 49
-4.0
  0
LTYPE
  2
RAND2
 70
    64
  3
ランダム線2
 72
    65
 73
     4
 40
14.0
 49
2.0
 49
-3.0
 49
4.0
 49
-5.0
  0
LTYPE
  2
RAND3
 70
    64
  3
ランダム線3
 72
    65
 73
     4
 40
18.0
 49
3.0
 49
-4.0
 49
5.0
 49
-6.0
  0
LTYPE
  2
RAND4
 70
    64
  3
ランダム線4
 72
    65
 73
     4
 40
22.0
 49
4.0
 49
-5.0
 49
6.0
 49
-7.0
  0
LTYPE
  2
RAND5
 70
    64
  3
ランダム線5
 72
    65
 73
     4
 40
26.0
 49
5.0
 49
-6.0
 49
7.0
 49
-8.0
  0
LTYPE
  2
LONG1
 70
    64
  3
----------  --  ----------  --  
 72
    65
 73
     4
 40
40.0
 49
32.5
 49
-2.5
 49
2.5
 49
-2.5
  0
LTYPE
  2
LONG2
 70
    64
  3
--------  -  -  --------  -  -  
 72
    65
 73
     6
 40
40.0
 49
30.0
 49
-2.5
 49
1.25
 49
-2.5
 49
1.25
 49
-2.5
  0
LTYPE
  2
LONG3
 70
    64
  3
+++++++++++++++..+++++++++++++++
 72
    65
 73
     2
 40
40.0
 49
37.5
 49
-2.5
  0
LTYPE
  2
LONG4
 70
    64
  3
+++++++++++++++..+++++++++++++++
 72
    65
 73
     2
 40
80.0
 49
75.0
 49
-5.0
  0
LTYPE
  2
LONG5
 70
    64
  3
----------  --  ----------  --  
 72
    65
 73
     4
 40
60.0
 49
37.5
 49
-7.5
 49
7.5
 49
-7.5
  0
LTYPE
  2
dashed
 70
   64
  3
-------   -------------   ------
 72
   65
 73
    2
 40
7.5
 49
6
 49
-1.5
  0
LTYPE
  2
dashed_spaced
 70
   64
  3
----        --------        ----
 72
   65
 73
    2
 40
12
 49
6
 49
-6
  0
LTYPE
  2
long_dashed_dotted
 70
   64
  3
------------- --- --------------
 72
   65
 73
    4
 40
15.25
 49
12
 49
-1.5
 49
0.25
 49
-1.5
  0
LTYPE
  2
long_dashed_double-dotted
 70
   64
  3
----------- --- --- ------------
 72
   65
 73
    6
 40
17
 49
12
 49
-1.5
 49
0.25
 49
-1.5
 49
0.25
 49
-1.5
  0
LTYPE
  2
long_dashed_triplicate-dotted
 70
   64
  3
--------- --- --- --- ----------
 72
   65
 73
    8
 40
18.75
 49
12
 49
-1.5
 49
0.25
 49
-1.5
 49
0.25
 49
-1.5
 49
0.25
 49
-1.5
  0
LTYPE
  2
dotted
 70
   64
  3
   -       -       -       -    
 72
   65
 73
    2
 40
1.75
 49
0.25
 49
-1.5
  0
LTYPE
  2
chain
 70
   64
  3
-------------- -- --------------
 72
   65
 73
    4
 40
18.5
 49
12
 49
-1.5
 49
3.5
 49
-1.5
  0
LTYPE
  2
chain_double_dash
 70
   64
  3
------------ -- -- -------------
 72
   65
 73
    6
 40
23.5
 49
12
 49
-1.5
 49
3.5
 49
-1.5
 49
3.5
 49
-1.5
  0
LTYPE
  2
dashed_dotted
 70
   64
  3
-----------     -     ----------
 72
   65
 73
    4
 40
9.25
 49
6
 49
-1.5
 49
0.25
 49
-1.5
  0
LTYPE
  2
double-dashed_dotted
 70
   64
  3
------   -----------   -   -----
 72
   65
 73
    6
 40
16.75
 49
6
 49
-1.5
 49
6
 49
-1.5
 49
0.25
 49
-1.5
  0
LTYPE
  2
dashed_double-dotted
 70
   64
  3
---------    -    -    ---------
 72
   65
 73
    6
 40
11
 49
6
 49
-1.5
 49
0.25
 49
-1.5
 49
0.25
 49
-1.5
  0
LTYPE
  2
double-dashed_double-dotted
 70
   64
  3
-----   ---------   -   -   ----
 72
   65
 73
    8
 40
18.5
 49
6
 49
-1.5
 49
6
 49
-1.5
 49
0.25
 49
-1.5
 49
0.25
 49
-1.5
  0
LTYPE
  2
dashed_triplicate-dotted
 70
   64
  3
-------    -    -    -    ------
 72
   65
 73
    8
 40
12.75
 49
6
 49
-1.5
 49
0.25
 49
-1.5
 49
0.25
 49
-1.5
 49
0.25
 49
-1.5
  0
LTYPE
  2
double-dashed_triplicate-dotted
 70
   64
  3
-----  ---------  -  -  -  -----
 72
   65
 73
   10
 40
20.25
 49
6
 49
-1.5
 49
6
 49
-1.5
 49
0.25
 49
-1.5
 49
0.25
 49
-1.5
 49
0.25
 49
-1.5
  0
LTYPE
  2
undefined
 70
   64
  3
--------------------------------
 72
   65
 73
    0
 40
0
  0
LTYPE
  2
DASHED
 70
   64
  3
-------   -------------   ------
 72
   65
 73
    2
 40
3.5000000000000031
 49
2.9166666666666701
 49
-0.583333333333333
  0
LTYPE
  2
DOT_18
 70
   64
  3
----        --------        ----
 72
   65
 73
    2
 40
0.5
 49
0.25
 49
-0.25
  0
LTYPE
  2
DASHDOT
 70
   64
  3
---------     -----     --------
 72
   65
 73
    4
 40
3.4999999999999942
 49
1.84210526315789
 49
-0.552631578947368
 49
0.552631578947368
 49
-0.552631578947368
  0
LTYPE
  2
DIVIDE
 70
   64
  3
------    ----    ----    ------
 72
   65
 73
    6
 40
3.4999999999999996
 49
1.3999999999999999
 49
-0.4199999999999999
 49
0.4199999999999999
 49
-0.4199999999999999
 49
0.4199999999999999
 49
-0.4199999999999999
  0
LTYPE
  2
HIDDEN
 70
   64
  3
----        --------        ----
 72
   65
 73
    2
 40
4
 49
2
 49
-2
  0
ENDTAB
  0
TABLE
  2
STYLE
  5
3
100
AcDbSymbolTable
 70
     1
  0
STYLE
  5
10
100
AcDbSymbolTableRecord
100
AcDbTextStyleTableRecord
  2
STANDARD
 70
     0
 40
0.0
 41
1.0
 50
0.0
 71
     0
 42
0.2
  3
txt
  4
bigfont.shx
  0
STYLE
  5
26
100
AcDbSymbolTableRecord
100
AcDbTextStyleTableRecord
  2
TATEGAKI
 70
    68
 40
0.0
 41
1.0
 50
0.0
 71
     0
 42
1.0
  3
txt
  4
bigfont.shx
  0
ENDTAB
  0
TABLE
  2
LAYER
 70
    5
  0
LAYER
  2
_0-0_画層0
 70
   64
 62
    7
  6
CONTINUOUS
  0
LAYER
  2
_0-4_画層4
 70
   64
 62
    7
  6
CONTINUOUS
  0
LAYER
  2
_0-5_画層5
 70
   64
 62
    7
  6
CONTINUOUS
  0
LAYER
  2
_0-f_画層15
 70
   64
 62
    7
  6
CONTINUOUS
  0
LAYER
  2
ADD_LINE
 70
   64
 62
    7
  6
CONTINUOUS
  0
ENDTAB
  0
ENDSEC
  0
SECTION
  2
BLOCKS
  0
ENDSEC
  0
SECTION
  2
ENTITIES
  0
CIRCLE
  8
_0-0_画層0
  6
CONTINUOUS
 62
    7
 10
425.12503353610396
 20
305.12459785677646
 40
175
  0
CIRCLE
  8
_0-5_画層5
  6
CONTINUOUS
 62
    7
 10
350.125
 20
350.125
 40
1.5011458510081199
  0
CIRCLE
  8
_0-5_画層5
  6
CONTINUOUS
 62
    7
 10
405.12526028322202
 20
350.125
 40
1.5011458510081199
  0
CIRCLE
  8
_0-5_画層5
  6
CONTINUOUS
 62
    7
 10
350.125
 20
260.125
 40
1.5011458510081199
  0
CIRCLE
  8
_0-5_画層5
  6
CONTINUOUS
 62
    7
 10
500.125
 20
260.125
 40
1.5011458510081199
  0
CIRCLE
  8
_0-5_画層5
  6
CONTINUOUS
 62
    7
 10
500.125
 20
350.125
 40
1.5011458510081199
  0
CIRCLE
  8
_0-5_画層5
  6
CONTINUOUS
 62
    7
 10
445.127762080683
 20
350.125
 40
1.5011458510081199
  0
CIRCLE
  8
_0-5_画層5
  6
CONTINUOUS
 62
    7
 10
350.125
 20
380.125
 40
1.5011458510081199
  0
CIRCLE
  8
_0-5_画層5
  6
CONTINUOUS
 62
    7
 10
500.125
 20
380.125
 40
1.5011458510081199
  0
CIRCLE
  8
_0-5_画層5
  6
CONTINUOUS
 62
    7
 10
500.125
 20
230.125
 40
1.5011458510081199
  0
CIRCLE
  8
_0-5_画層5
  6
CONTINUOUS
 62
    7
 10
350.125
 20
230.125
 40
1.5011458510081199
  0
CIRCLE
  8
_0-5_画層5
  6
CONTINUOUS
 62
    7
 10
377.62496176913402
 20
235.125
 40
1.5011458510081199
  0
CIRCLE
  8
_0-5_画層5
  6
CONTINUOUS
 62
    7
 10
472.62497631997502
 20
235.125
 40
1.5011458510081199
  0
CIRCLE
  8
_0-5_画層5
  6
CONTINUOUS
 62
    7
 10
517.63187161484302
 20
372.62160237096401
 40
1.5011458510081199
  0
CIRCLE
  8
_0-5_画層5
  6
CONTINUOUS
 62
    7
 10
547.62930134739304
 20
372.62160237096401
 40
1.5011458510081199
  0
CIRCLE
  8
_0-5_画層5
  6
CONTINUOUS
 62
    7
 10
562.63038405726002
 20
372.62160237096401
 40
1.5011458510081199
  0
CIRCLE
  8
_0-5_画層5
  6
CONTINUOUS
 62
    7
 10
517.63187161484302
 20
357.61864841989899
 40
1.5011458510081199
  0
CIRCLE
  8
_0-5_画層5
  6
CONTINUOUS
 62
    7
 10
547.62930134739304
 20
357.61864841989899
 40
1.5011458510081199
  0
CIRCLE
  8
_0-5_画層5
  6
CONTINUOUS
 62
    7
 10
562.63038405726002
 20
357.61864841989899
 40
1.5011458510081199
  0
CIRCLE
  8
_0-5_画層5
  6
CONTINUOUS
 62
    7
 10
547.62930134739304
 20
342.62226982756403
 40
1.5011458510081199
  0
CIRCLE
  8
_0-5_画層5
  6
CONTINUOUS
 62
    7
 10
592.62480957988896
 20
342.62226982756403
 40
1.5011458510081199
  0
CIRCLE
  8
_0-5_画層5
  6
CONTINUOUS
 62
    7
 10
592.62480957988896
 20
327.62502700563198
 40
1.5011458510081199
  0
CIRCLE
  8
_0-5_画層5
  6
CONTINUOUS
 62
    7
 10
547.62930134739304
 20
327.62502700563198
 40
1.5011458510081199
  0
CIRCLE
  8
_0-5_画層5
  6
CONTINUOUS
 62
    7
 10
592.62480957988896
 20
312.62097478310898
 40
1.5011458510081199
  0
CIRCLE
  8
_0-5_画層5
  6
CONTINUOUS
 62
    7
 10
562.63038405726002
 20
312.62097478310898
 40
1.5011458510081199
  0
CIRCLE
  8
_0-5_画層5
  6
CONTINUOUS
 62
    7
 10
547.62930134739304
 20
312.62097478310898
 40
1.5011458510081199
  0
CIRCLE
  8
_0-5_画層5
  6
CONTINUOUS
 62
    7
 10
592.62480957988896
 20
297.62519647109502
 40
1.5011458510081199
  0
CIRCLE
  8
_0-5_画層5
  6
CONTINUOUS
 62
    7
 10
562.63038405726002
 20
297.62519647109502
 40
1.5011458510081199
  0
CIRCLE
  8
_0-5_画層5
  6
CONTINUOUS
 62
    7
 10
547.62930134739304
 20
297.62519647109502
 40
1.5011458510081199
  0
CIRCLE
  8
_0-5_画層5
  6
CONTINUOUS
 62
    7
 10
592.62480957988896
 20
282.62967389078898
 40
1.5011458510081199
  0
CIRCLE
  8
_0-5_画層5
  6
CONTINUOUS
 62
    7
 10
547.62930134739304
 20
282.62967389078898
 40
1.5011458510081199
  0
CIRCLE
  8
_0-5_画層5
  6
CONTINUOUS
 62
    7
 10
592.62480957988896
 20
267.631580451589
 40
1.5011458510081199
  0
CIRCLE
  8
_0-5_画層5
  6
CONTINUOUS
 62
    7
 10
547.62930134739304
 20
267.631580451589
 40
1.5011458510081199
  0
CIRCLE
  8
_0-5_画層5
  6
CONTINUOUS
 62
    7
 10
562.63038405726002
 20
252.62993942567201
 40
1.5011458510081199
  0
CIRCLE
  8
_0-5_画層5
  6
CONTINUOUS
 62
    7
 10
547.62930134739304
 20
252.62993942567201
 40
1.5011458510081199
  0
CIRCLE
  8
_0-5_画層5
  6
CONTINUOUS
 62
    7
 10
517.63187161484302
 20
252.62993942567201
 40
1.5011458510081199
  0
CIRCLE
  8
_0-5_画層5
  6
CONTINUOUS
 62
    7
 10
562.63038405726002
 20
237.62716182460599
 40
1.5011458510081199
  0
CIRCLE
  8
_0-5_画層5
  6
CONTINUOUS
 62
    7
 10
547.62930134739304
 20
237.62716182460599
 40
1.5011458510081199
  0
CIRCLE
  8
_0-5_画層5
  6
CONTINUOUS
 62
    7
 10
517.63187161484302
 20
237.62716182460599
 40
1.5011458510081199
  0
CIRCLE
  8
_0-5_画層5
  6
CONTINUOUS
 62
    7
 10
287.62304366965901
 20
237.62716182460599
 40
1.5011458510081199
  0
CIRCLE
  8
_0-5_画層5
  6
CONTINUOUS
 62
    7
 10
302.62737801206998
 20
237.62716182460599
 40
1.5011458510081199
  0
CIRCLE
  8
_0-5_画層5
  6
CONTINUOUS
 62
    7
 10
332.62561648108499
 20
237.62716182460599
 40
1.5011458510081199
  0
CIRCLE
  8
_0-5_画層5
  6
CONTINUOUS
 62
    7
 10
287.62304366965901
 20
252.62993942567201
 40
1.5011458510081199
  0
CIRCLE
  8
_0-5_画層5
  6
CONTINUOUS
 62
    7
 10
302.62737801206998
 20
252.62993942567201
 40
1.5011458510081199
  0
CIRCLE
  8
_0-5_画層5
  6
CONTINUOUS
 62
    7
 10
332.62561648108499
 20
252.62993942567201
 40
1.5011458510081199
  0
CIRCLE
  8
_0-5_画層5
  6
CONTINUOUS
 62
    7
 10
257.62479105101499
 20
267.631580451589
 40
1.5011458510081199
  0
CIRCLE
  8
_0-5_画層5
  6
CONTINUOUS
 62
    7
 10
302.62737801206998
 20
267.631580451589
 40
1.5011458510081199
  0
CIRCLE
  8
_0-5_画層5
  6
CONTINUOUS
 62
    7
 10
257.62479105101499
 20
282.62967389078898
 40
1.5011458510081199
  0
CIRCLE
  8
_0-5_画層5
  6
CONTINUOUS
 62
    7
 10
302.62737801206998
 20
282.62967389078898
 40
1.5011458510081199
  0
CIRCLE
  8
_0-5_画層5
  6
CONTINUOUS
 62
    7
 10
257.62479105101499
 20
297.62519647109502
 40
1.5011458510081199
  0
CIRCLE
  8
_0-5_画層5
  6
CONTINUOUS
 62
    7
 10
287.62304366965901
 20
297.62519647109502
 40
1.5011458510081199
  0
CIRCLE
  8
_0-5_画層5
  6
CONTINUOUS
 62
    7
 10
302.62737801206998
 20
297.62519647109502
 40
1.5011458510081199
  0
CIRCLE
  8
_0-5_画層5
  6
CONTINUOUS
 62
    7
 10
257.62479105101499
 20
312.62097478310898
 40
1.5011458510081199
  0
CIRCLE
  8
_0-5_画層5
  6
CONTINUOUS
 62
    7
 10
287.62851154046302
 20
312.62097478310898
 40
1.5011458510081199
  0
CIRCLE
  8
_0-5_画層5
  6
CONTINUOUS
 62
    7
 10
302.62737801206998
 20
312.62097478310898
 40
1.5011458510081199
  0
CIRCLE
  8
_0-5_画層5
  6
CONTINUOUS
 62
    7
 10
257.62479105101499
 20
327.62502700563198
 40
1.5011458510081199
  0
CIRCLE
  8
_0-5_画層5
  6
CONTINUOUS
 62
    7
 10
302.62737801206998
 20
327.62502700563198
 40
1.5011458510081199
  0
CIRCLE
  8
_0-5_画層5
  6
CONTINUOUS
 62
    7
 10
257.62479105101499
 20
342.62226982756403
 40
1.5011458510081199
  0
CIRCLE
  8
_0-5_画層5
  6
CONTINUOUS
 62
    7
 10
302.62737801206998
 20
342.62226982756403
 40
1.5011458510081199
  0
CIRCLE
  8
_0-5_画層5
  6
CONTINUOUS
 62
    7
 10
287.62851154046302
 20
357.61864841989899
 40
1.5011458510081199
  0
CIRCLE
  8
_0-5_画層5
  6
CONTINUOUS
 62
    7
 10
302.62737801206998
 20
357.61864841989899
 40
1.5011458510081199
  0
CIRCLE
  8
_0-5_画層5
  6
CONTINUOUS
 62
    7
 10
332.62561648108499
 20
357.61864841989899
 40
1.5011458510081199
  0
CIRCLE
  8
_0-5_画層5
  6
CONTINUOUS
 62
    7
 10
287.62851154046302
 20
372.62160237096401
 40
1.5011458510081199
  0
CIRCLE
  8
_0-5_画層5
  6
CONTINUOUS
 62
    7
 10
302.62737801206998
 20
372.62160237096401
 40
1.5011458510081199
  0
CIRCLE
  8
_0-5_画層5
  6
CONTINUOUS
 62
    7
 10
332.62561648108499
 20
372.62160237096401
 40
1.5011458510081199
  0
CIRCLE
  8
_0-5_画層5
  6
CONTINUOUS
 62
    7
 10
417.624779734828
 20
137.62345787923601
 40
1.5011458510081199
  0
CIRCLE
  8
_0-5_画層5
  6
CONTINUOUS
 62
    7
 10
402.62014791780001
 20
137.62345787923601
 40
1.5011458510081199
  0
CIRCLE
  8
_0-5_画層5
  6
CONTINUOUS
 62
    7
 10
387.623948478035
 20
137.62345787923601
 40
1.5011458510081199
  0
CIRCLE
  8
_0-5_画層5
  6
CONTINUOUS
 62
    7
 10
417.624779734828
 20
167.62318426508199
 40
1.5011458510081199
  0
CIRCLE
  8
_0-5_画層5
  6
CONTINUOUS
 62
    7
 10
417.624779734828
 20
182.62541514902
 40
1.5011458510081199
  0
CIRCLE
  8
_0-5_画層5
  6
CONTINUOUS
 62
    7
 10
402.62014791780001
 20
182.62541514902
 40
1.5011458510081199
  0
CIRCLE
  8
_0-5_画層5
  6
CONTINUOUS
 62
    7
 10
387.623948478035
 20
182.62541514902
 40
1.5011458510081199
  0
CIRCLE
  8
_0-5_画層5
  6
CONTINUOUS
 62
    7
 10
372.62603413537698
 20
182.62541514902
 40
1.5011458510081199
  0
CIRCLE
  8
_0-5_画層5
  6
CONTINUOUS
 62
    7
 10
372.62603413537698
 20
167.62318426508199
 40
1.5011458510081199
  0
CIRCLE
  8
_0-5_画層5
  6
CONTINUOUS
 62
    7
 10
357.62951011054298
 20
167.62318426508199
 40
1.5011458510081199
  0
CIRCLE
  8
_0-5_画層5
  6
CONTINUOUS
 62
    7
 10
357.62951011054298
 20
182.62541514902
 40
1.5011458510081199
  0
CIRCLE
  8
_0-5_画層5
  6
CONTINUOUS
 62
    7
 10
357.62951011054298
 20
212.62586599015199
 40
1.5011458510081199
  0
CIRCLE
  8
_0-5_画層5
  6
CONTINUOUS
 62
    7
 10
372.62603413537698
 20
212.62586599015199
 40
1.5011458510081199
  0
CIRCLE
  8
_0-5_画層5
  6
CONTINUOUS
 62
    7
 10
432.62723290383002
 20
137.62345787923601
 40
1.5011458510081199
  0
CIRCLE
  8
_0-5_画層5
  6
CONTINUOUS
 62
    7
 10
432.62723290383002
 20
167.62318426508199
 40
1.5011458510081199
  0
CIRCLE
  8
_0-5_画層5
  6
CONTINUOUS
 62
    7
 10
432.62723290383002
 20
182.62541514902
 40
1.5011458510081199
  0
CIRCLE
  8
_0-5_画層5
  6
CONTINUOUS
 62
    7
 10
447.62628272307199
 20
182.62541514902
 40
1.5011458510081199
  0
CIRCLE
  8
_0-5_画層5
  6
CONTINUOUS
 62
    7
 10
447.62628272307199
 20
137.62345787923601
 40
1.5011458510081199
  0
CIRCLE
  8
_0-5_画層5
  6
CONTINUOUS
 62
    7
 10
462.62615320899698
 20
137.62345787923601
 40
1.5011458510081199
  0
CIRCLE
  8
_0-5_画層5
  6
CONTINUOUS
 62
    7
 10
462.62615320899698
 20
182.62541514902
 40
1.5011458510081199
  0
CIRCLE
  8
_0-5_画層5
  6
CONTINUOUS
 62
    7
 10
477.624206640811
 20
182.62541514902
 40
1.5011458510081199
  0
CIRCLE
  8
_0-5_画層5
  6
CONTINUOUS
 62
    7
 10
477.624206640811
 20
167.62318426508199
 40
1.5011458510081199
  0
CIRCLE
  8
_0-5_画層5
  6
CONTINUOUS
 62
    7
 10
492.626238775324
 20
167.62318426508199
 40
1.5011458510081199
  0
CIRCLE
  8
_0-5_画層5
  6
CONTINUOUS
 62
    7
 10
492.626238775324
 20
182.62541514902
 40
1.5011458510081199
  0
CIRCLE
  8
_0-5_画層5
  6
CONTINUOUS
 62
    7
 10
492.626238775324
 20
212.62586599015199
 40
1.5011458510081199
  0
CIRCLE
  8
_0-5_画層5
  6
CONTINUOUS
 62
    7
 10
477.624206640811
 20
212.62586599015199
 40
1.5011458510081199
  0
CIRCLE
  8
_0-5_画層5
  6
CONTINUOUS
 62
    7
 10
432.62723290383002
 20
472.621209866806
 40
1.5011458510081199
  0
CIRCLE
  8
_0-5_画層5
  6
CONTINUOUS
 62
    7
 10
447.62628272307199
 20
472.621209866806
 40
1.5011458510081199
  0
CIRCLE
  8
_0-5_画層5
  6
CONTINUOUS
 62
    7
 10
462.62615320899698
 20
472.621209866806
 40
1.5011458510081199
  0
CIRCLE
  8
_0-5_画層5
  6
CONTINUOUS
 62
    7
 10
432.62723290383002
 20
442.61767850455402
 40
1.5011458510081199
  0
CIRCLE
  8
_0-5_画層5
  6
CONTINUOUS
 62
    7
 10
477.624206640811
 20
442.61767850455402
 40
1.5011458510081199
  0
CIRCLE
  8
_0-5_画層5
  6
CONTINUOUS
 62
    7
 10
492.626238775324
 20
442.61767850455402
 40
1.5011458510081199
  0
CIRCLE
  8
_0-5_画層5
  6
CONTINUOUS
 62
    7
 10
432.62723290383002
 20
427.61686865554702
 40
1.5011458510081199
  0
CIRCLE
  8
_0-5_画層5
  6
CONTINUOUS
 62
    7
 10
447.62628272307199
 20
427.61686865554702
 40
1.5011458510081199
  0
CIRCLE
  8
_0-5_画層5
  6
CONTINUOUS
 62
    7
 10
462.62615320899698
 20
427.61686865554702
 40
1.5011458510081199
  0
CIRCLE
  8
_0-5_画層5
  6
CONTINUOUS
 62
    7
 10
477.624206640811
 20
427.61686865554702
 40
1.5011458510081199
  0
CIRCLE
  8
_0-5_画層5
  6
CONTINUOUS
 62
    7
 10
492.626238775324
 20
427.61686865554702
 40
1.5011458510081199
  0
CIRCLE
  8
_0-5_画層5
  6
CONTINUOUS
 62
    7
 10
417.624779734828
 20
472.621209866806
 40
1.5011458510081199
  0
CIRCLE
  8
_0-5_画層5
  6
CONTINUOUS
 62
    7
 10
402.62014791780001
 20
472.621209866806
 40
1.5011458510081199
  0
CIRCLE
  8
_0-5_画層5
  6
CONTINUOUS
 62
    7
 10
387.623948478035
 20
472.621209866806
 40
1.5011458510081199
  0
CIRCLE
  8
_0-5_画層5
  6
CONTINUOUS
 62
    7
 10
417.624779734828
 20
442.61767850455402
 40
1.5011458510081199
  0
CIRCLE
  8
_0-5_画層5
  6
CONTINUOUS
 62
    7
 10
372.62603413537698
 20
442.61767850455402
 40
1.5011458510081199
  0
CIRCLE
  8
_0-5_画層5
  6
CONTINUOUS
 62
    7
 10
357.62951011054298
 20
442.61767850455402
 40
1.5011458510081199
  0
CIRCLE
  8
_0-5_画層5
  6
CONTINUOUS
 62
    7
 10
357.62951011054298
 20
427.61686865554702
 40
1.5011458510081199
  0
CIRCLE
  8
_0-5_画層5
  6
CONTINUOUS
 62
    7
 10
372.62603413537698
 20
427.61686865554702
 40
1.5011458510081199
  0
CIRCLE
  8
_0-5_画層5
  6
CONTINUOUS
 62
    7
 10
387.623948478035
 20
427.61686865554702
 40
1.5011458510081199
  0
CIRCLE
  8
_0-5_画層5
  6
CONTINUOUS
 62
    7
 10
402.62014791780001
 20
427.61686865554702
 40
1.5011458510081199
  0
CIRCLE
  8
_0-5_画層5
  6
CONTINUOUS
 62
    7
 10
417.624779734828
 20
427.61686865554702
 40
1.5011458510081199
  0
CIRCLE
  8
_0-5_画層5
  6
CONTINUOUS
 62
    7
 10
477.624206640811
 20
397.61672814077701
 40
1.5011458510081199
  0
CIRCLE
  8
_0-5_画層5
  6
CONTINUOUS
 62
    7
 10
492.626238775324
 20
397.61672814077701
 40
1.5011458510081199
  0
CIRCLE
  8
_0-5_画層5
  6
CONTINUOUS
 62
    7
 10
357.62951011054298
 20
397.61672814077701
 40
1.5011458510081199
  0
CIRCLE
  8
_0-5_画層5
  6
CONTINUOUS
 62
    7
 10
372.62603413537698
 20
397.61672814077701
 40
1.5011458510081199
  0
CIRCLE
  8
_0-5_画層5
  6
CONTINUOUS
 62
    7
 10
507.62128172896701
 20
182.62541514902
 40
1.5011458510081199
  0
CIRCLE
  8
_0-5_画層5
  6
CONTINUOUS
 62
    7
 10
522.62285706358705
 20
182.62541514902
 40
1.5011458510081199
  0
CIRCLE
  8
_0-5_画層5
  6
CONTINUOUS
 62
    7
 10
537.624432398208
 20
212.62586599015199
 40
1.5011458510081199
  0
CIRCLE
  8
_0-5_画層5
  6
CONTINUOUS
 62
    7
 10
552.62243169406804
 20
212.62586599015199
 40
1.5011458510081199
  0
LINE
  8
_0-f_画層15
  6
CONTINUOUS
 62
    7
 10
540.125
 20
260.125
 11
510.125
 21
260.125
  0
LINE
  8
_0-f_画層15
  6
CONTINUOUS
 62
    7
 10
510.125
 20
260.125
 11
510.125
 21
350.125
  0
LINE
  8
_0-f_画層15
  6
CONTINUOUS
 62
    7
 10
510.125
 20
350.125
 11
540.125
 21
350.125
  0
LINE
  8
_0-f_画層15
  6
CONTINUOUS
 62
    7
 10
540.125
 20
350.125
 11
540.125
 21
260.125
  0
LINE
  8
_0-f_画層15
  6
CONTINUOUS
 62
    7
 10
470.125
 20
390.125
 11
470.125
 21
420.125
  0
LINE
  8
_0-f_画層15
  6
CONTINUOUS
 62
    7
 10
380.125
 20
420.125
 11
470.125
 21
420.125
  0
LINE
  8
_0-f_画層15
  6
CONTINUOUS
 62
    7
 10
380.125
 20
420.125
 11
380.125
 21
390.125
  0
LINE
  8
_0-f_画層15
  6
CONTINUOUS
 62
    7
 10
380.125
 20
390.125
 11
470.125
 21
390.125
  0
LINE
  8
_0-f_画層15
  6
CONTINUOUS
 62
    7
 10
340.125
 20
350.125
 11
310.125
 21
350.125
  0
LINE
  8
_0-f_画層15
  6
CONTINUOUS
 62
    7
 10
310.125
 20
350.125
 11
310.125
 21
260.125
  0
LINE
  8
_0-f_画層15
  6
CONTINUOUS
 62
    7
 10
310.125
 20
260.125
 11
340.125
 21
260.125
  0
LINE
  8
_0-f_画層15
  6
CONTINUOUS
 62
    7
 10
340.125
 20
260.125
 11
340.125
 21
350.125
  0
LINE
  8
_0-f_画層15
  6
CONTINUOUS
 62
    7
 10
380.125
 20
220.125
 11
380.125
 21
190.125
  0
LINE
  8
_0-f_画層15
  6
CONTINUOUS
 62
    7
 10
380.125
 20
190.125
 11
470.125
 21
190.125
  0
LINE
  8
_0-f_画層15
  6
CONTINUOUS
 62
    7
 10
470.125
 20
190.125
 11
470.125
 21
220.125
  0
LINE
  8
_0-f_画層15
  6
CONTINUOUS
 62
    7
 10
470.125
 20
220.125
 11
380.125
 21
220.125
  0
CIRCLE
  8
_0-5_画層5
  6
CONTINUOUS
 62
    7
 10
342.63246813796798
 20
182.62541514902
 40
1.5011458510081199
  0
CIRCLE
  8
_0-5_画層5
  6
CONTINUOUS
 62
    7
 10
327.63228396698503
 20
182.62541514902
 40
1.5011458510081199
  0
CIRCLE
  8
_0-5_画層5
  6
CONTINUOUS
 62
    7
 10
312.63209979600299
 20
212.62586599015199
 40
1.5011458510081199
  0
CIRCLE
  8
_0-5_画層5
  6
CONTINUOUS
 62
    7
 10
297.63159198250702
 20
212.62586599015199
 40
1.5011458510081199
  0
CIRCLE
  8
_0-5_画層5
  6
CONTINUOUS
 62
    7
 10
507.62128172896701
 20
427.61686865554702
 40
1.5011458510081199
  0
CIRCLE
  8
_0-5_画層5
  6
CONTINUOUS
 62
    7
 10
522.62285706358705
 20
427.61686865554702
 40
1.5011458510081199
  0
CIRCLE
  8
_0-5_画層5
  6
CONTINUOUS
 62
    7
 10
537.624432398208
 20
397.61672814077701
 40
1.5011458510081199
  0
CIRCLE
  8
_0-5_画層5
  6
CONTINUOUS
 62
    7
 10
552.62243169406804
 20
397.61672814077701
 40
1.5011458510081199
  0
CIRCLE
  8
_0-5_画層5
  6
CONTINUOUS
 62
    7
 10
342.63246813796798
 20
427.61686865554702
 40
1.5011458510081199
  0
CIRCLE
  8
_0-5_画層5
  6
CONTINUOUS
 62
    7
 10
312.63209979600299
 20
397.61672814077701
 40
1.5011458510081199
  0
CIRCLE
  8
_0-5_画層5
  6
CONTINUOUS
 62
    7
 10
297.63159198250702
 20
397.61672814077701
 40
1.5011458510081199
  0
CIRCLE
  8
_0-5_画層5
  6
CONTINUOUS
 62
    7
 10
537.624432398208
 20
197.62764603295699
 40
1.5011458510081199
  0
CIRCLE
  8
_0-5_画層5
  6
CONTINUOUS
 62
    7
 10
522.62285706358705
 20
197.62764603295699
 40
1.5011458510081199
  0
CIRCLE
  8
_0-5_画層5
  6
CONTINUOUS
 62
    7
 10
477.624206640811
 20
152.623321072159
 40
1.5011458510081199
  0
CIRCLE
  8
_0-5_画層5
  6
CONTINUOUS
 62
    7
 10
492.626238775324
 20
152.623321072159
 40
1.5011458510081199
  0
CIRCLE
  8
_0-5_画層5
  6
CONTINUOUS
 62
    7
 10
432.62723290383002
 20
152.623321072159
 40
1.5011458510081199
  0
CIRCLE
  8
_0-5_画層5
  6
CONTINUOUS
 62
    7
 10
417.624779734828
 20
152.623321072159
 40
1.5011458510081199
  0
CIRCLE
  8
_0-5_画層5
  6
CONTINUOUS
 62
    7
 10
372.62603413537698
 20
152.623321072159
 40
1.5011458510081199
  0
CIRCLE
  8
_0-5_画層5
  6
CONTINUOUS
 62
    7
 10
357.62951011054298
 20
152.623321072159
 40
1.5011458510081199
  0
CIRCLE
  8
_0-5_画層5
  6
CONTINUOUS
 62
    7
 10
327.63228396698503
 20
197.62764603295801
 40
1.5011458510081199
  0
CIRCLE
  8
_0-5_画層5
  6
CONTINUOUS
 62
    7
 10
312.63209979600299
 20
197.62764603295801
 40
1.5011458510081199
  0
CIRCLE
  8
_0-5_画層5
  6
CONTINUOUS
 62
    7
 10
577.62949681745602
 20
237.62716182460599
 40
1.5011458510081199
  0
CIRCLE
  8
_0-5_画層5
  6
CONTINUOUS
 62
    7
 10
577.62949681745602
 20
252.62993942567201
 40
1.5011458510081199
  0
CIRCLE
  8
_0-5_画層5
  6
CONTINUOUS
 62
    7
 10
577.62949681745602
 20
297.62519647109502
 40
1.5011458510081199
  0
CIRCLE
  8
_0-5_画層5
  6
CONTINUOUS
 62
    7
 10
577.62949681745602
 20
312.62097478310898
 40
1.5011458510081199
  0
CIRCLE
  8
_0-5_画層5
  6
CONTINUOUS
 62
    7
 10
577.62949681745602
 20
372.62160237096401
 40
1.5011458510081199
  0
CIRCLE
  8
_0-5_画層5
  6
CONTINUOUS
 62
    7
 10
577.62949681745602
 20
357.61864841989899
 40
1.5011458510081199
  0
CIRCLE
  8
_0-5_画層5
  6
CONTINUOUS
 62
    7
 10
272.62899466581899
 20
252.62993942567201
 40
1.5011458510081199
  0
CIRCLE
  8
_0-5_画層5
  6
CONTINUOUS
 62
    7
 10
272.62899466581899
 20
237.62716182460599
 40
1.5011458510081199
  0
CIRCLE
  8
_0-5_画層5
  6
CONTINUOUS
 62
    7
 10
272.62899466581899
 20
297.62519647109502
 40
1.5011458510081199
  0
CIRCLE
  8
_0-5_画層5
  6
CONTINUOUS
 62
    7
 10
272.62899466581899
 20
312.62097478310898
 40
1.5011458510081199
  0
CIRCLE
  8
_0-5_画層5
  6
CONTINUOUS
 62
    7
 10
272.62899466581899
 20
372.62160237096401
 40
1.5011458510081199
  0
CIRCLE
  8
_0-5_画層5
  6
CONTINUOUS
 62
    7
 10
272.62899466581899
 20
357.61864841989899
 40
1.5011458510081199
  0
CIRCLE
  8
_0-5_画層5
  6
CONTINUOUS
 62
    7
 10
537.624432398208
 20
412.61605880654002
 40
1.5011458510081199
  0
CIRCLE
  8
_0-5_画層5
  6
CONTINUOUS
 62
    7
 10
522.62285706358705
 20
412.61605880654002
 40
1.5011458510081199
  0
CIRCLE
  8
_0-5_画層5
  6
CONTINUOUS
 62
    7
 10
492.626238775324
 20
457.61944418567998
 40
1.5011458510081199
  0
CIRCLE
  8
_0-5_画層5
  6
CONTINUOUS
 62
    7
 10
477.624206640811
 20
457.61944418567998
 40
1.5011458510081199
  0
CIRCLE
  8
_0-5_画層5
  6
CONTINUOUS
 62
    7
 10
432.62723290383002
 20
457.61944418567998
 40
1.5011458510081199
  0
CIRCLE
  8
_0-5_画層5
  6
CONTINUOUS
 62
    7
 10
417.624779734828
 20
457.61944418567998
 40
1.5011458510081199
  0
CIRCLE
  8
_0-5_画層5
  6
CONTINUOUS
 62
    7
 10
372.62603413537698
 20
457.61944418567998
 40
1.5011458510081199
  0
CIRCLE
  8
_0-5_画層5
  6
CONTINUOUS
 62
    7
 10
357.62951011054298
 20
457.61944418567998
 40
1.5011458510081199
  0
CIRCLE
  8
_0-5_画層5
  6
CONTINUOUS
 62
    7
 10
312.63209979600299
 20
412.61605880654002
 40
1.5011458510081199
  0
LINE
  8
_0-f_画層15
  6
CONTINUOUS
 62
    7
 10
425.125
 20
235.125
 11
415.12159150875902
 21
235.125
  0
LINE
  8
_0-f_画層15
  6
CONTINUOUS
 62
    7
 10
425.125
 20
235.125
 11
435.12041354950702
 21
235.125
  0
LINE
  8
_0-f_画層15
  6
CONTINUOUS
 62
    7
 10
415.12159150875902
 20
375.125
 11
435.12041354950702
 21
375.125
  0
LINE
  8
_0-f_画層15
  6
CONTINUOUS
 62
    7
 10
415.12159150875902
 20
310.125
 11
435.12041354950702
 21
310.125
  0
LINE
  8
_0-f_画層15
  6
CONTINUOUS
 62
    7
 10
415.12159150875902
 20
300.125
 11
435.12041354950702
 21
300.125
  0
LINE
  8
_0-f_画層15
  6
CONTINUOUS
 62
    7
 10
415.12159150875902
 20
375.125
 11
415.12159150875902
 21
310.125
  0
LINE
  8
_0-f_画層15
  6
CONTINUOUS
 62
    7
 10
435.12041354950702
 20
375.125
 11
435.12041354950702
 21
310.125
  0
LINE
  8
_0-f_画層15
  6
CONTINUOUS
 62
    7
 10
415.12159150875902
 20
300.125
 11
415.12159150875902
 21
235.125
  0
LINE
  8
_0-f_画層15
  6
CONTINUOUS
 62
    7
 10
435.12041354950702
 20
300.125
 11
435.12041354950702
 21
235.125
  0
CIRCLE
  8
_0-5_画層5
  6
CONTINUOUS
 62
    7
 10
377.624549120604
 20
342.62226982756403
 40
1.5011458510081199
  0
CIRCLE
  8
_0-5_画層5
  6
CONTINUOUS
 62
    7
 10
472.63440485566503
 20
342.62226982756403
 40
1.5011458510081199
  0
CIRCLE
  8
_0-5_画層5
  6
CONTINUOUS
 62
    7
 10
472.63440485566503
 20
267.631580451589
 40
1.5011458510081199
  0
CIRCLE
  8
_0-5_画層5
  6
CONTINUOUS
 62
    7
 10
377.624549120604
 20
267.631580451589
 40
1.5011458510081199
  0
CIRCLE
  8
_0-5_画層5
  6
CONTINUOUS
 62
    7
 10
465.10332400246301
 20
245.07404684707001
 40
1.5011458510081199
  0
CIRCLE
  8
_0-5_画層5
  6
CONTINUOUS
 62
    7
 10
445.12495263994998
 20
260.125
 40
1.5011458510081199
  0
CIRCLE
  8
_0-5_画層5
  6
CONTINUOUS
 62
    7
 10
405.124923538269
 20
260.125
 40
1.5011458510081199
  0
CIRCLE
  8
_0-5_画層5
  6
CONTINUOUS
 62
    7
 10
462.56755042721898
 20
330.90505415436098
 40
1.5011458510081199
  0
CIRCLE
  8
_0-5_画層5
  6
CONTINUOUS
 62
    7
 10
388.95625453739802
 20
330.89631532250502
 40
1.5011458510081199
  0
CIRCLE
  8
_0-5_画層5
  6
CONTINUOUS
 62
    7
 10
385.14300394750001
 20
245.07126780496799
 40
1.5011458510081199
  0
CIRCLE
  8
_0-4_画層4
  6
CONTINUOUS
 62
    7
 10
522.62285706358705
 20
397.61672814077701
 40
2.7518839092354002
  0
CIRCLE
  8
_0-4_画層4
  6
CONTINUOUS
 62
    7
 10
522.62285706358705
 20
212.62586599015199
 40
2.7518839092354002
  0
CIRCLE
  8
_0-4_画層4
  6
CONTINUOUS
 62
    7
 10
327.63228396698503
 20
212.62586599015199
 40
2.7518839092354002
  0
CIRCLE
  8
_0-5_画層5
  6
CONTINUOUS
 62
    7
 10
327.63228396698503
 20
427.61686865554702
 40
1.5011458510081199
  0
CIRCLE
  8
_0-5_画層5
  6
CONTINUOUS
 62
    7
 10
327.63228396698503
 20
412.61605880654002
 40
1.5011458510081199
  0
CIRCLE
  8
_0-4_画層4
  6
CONTINUOUS
 62
    7
 10
327.63228396698503
 20
397.61672814077701
 40
2.7518839092354002
  0
ENDSEC
  0
EOF
