  0
SECTION
  2
HEADER
  0
ENDSEC
  0
SECTION
  2
TABLES
  0
TABLE
  2
LTYPE
 70
     9
  0
LTYPE
  2
CONTINUOUS
 70
    64
  3
SOLID
 72
    65
 73
     0
 40
0.0
  0
LTYPE
  2
HIDDEN
 70
    64
  3
_ _ _ _ _ _ _ _ _ _ _ _ _ _ _ _ _ _ _ _ _ _ _
 72
    65
 73
     2
 40
1.5
 49
1.0
 49
-0.5
  0
LTYPE
  2
DOT
 70
    64
  3
...............................................
 72
    65
 73
     6
 40
1.0
 49
0.0
 49
-1.0
  0
LTYPE
  2
DASHDOT
 70
    64
  3
____ _ ____ _ ____ _ ____ _ ____ _ ____ _ ____
 72
    65
 73
     4
 40
8.0
 49
5.0
 49
-1.0
 49
1.0
 49
-1.0
  0
LTYPE
  2
DIVIDE
 70
    64
  3
_____ _ _ _____ _ _ _____ _ _ _____ _ _ ____
 72
    65
 73
     6
 40
10.0
 49
5.0
 49
-1.0
 49
1.0
 49
-1.0
 49
1.0
 49
-1.0
  0
ENDTAB
  0
TABLE
  2
LAYER
 70
     2
  0
LAYER
  2
NT4WORP000
 70
    64
 62
     7
  6
CONTINUOUS
  0
LAYER
  2
NT4WORP001
 70
    64
 62
     7
  6
CONTINUOUS
  0
LAYER
  2
NT4WORP002
 70
    64
 62
     7
  6
CONTINUOUS
  0
LAYER
  2
NT4WORP003
 70
    64
 62
     7
  6
CONTINUOUS
  0
ENDTAB
  0
ENDSEC
  0
SECTION
  2
ENTITIES
  0
LINE
  8
NT4WORP000
  6
CONTINUOUS
 10
40.000000000000
 20
40.000000000000
 11
40.000000000000
 21
146.000000000000
  0
LINE
  8
NT4WORP000
  6
CONTINUOUS
 10
110.000000000000
 20
40.000000000000
 11
110.000000000000
 21
146.000000000000
  0
LINE
  8
NT4WORP000
  6
CONTINUOUS
 10
40.000000000000
 20
146.000000000000
 11
110.000000000000
 21
146.000000000000
  0
LINE
  8
NT4WORP000
  6
CONTINUOUS
 10
40.000000000000
 20
40.000000000000
 11
110.000000000000
 21
40.000000000000
  0
LINE
  8
NT4WORP000
  6
CONTINUOUS
 10
39.000000000000
 20
40.000000000000
 11
12.000000000000
 21
40.000000000000
  0
LINE
  8
NT4WORP000
  6
CONTINUOUS
 10
39.000000000000
 20
146.000000000000
 11
12.000000000000
 21
146.000000000000
  0
LINE
  8
NT4WORP000
  6
CONTINUOUS
 10
15.000000000000
 20
146.000000000000
 11
15.000000000000
 21
40.000000000000
  0
LINE
  8
NT4WORP000
  6
CONTINUOUS
 10
15.500000000000
 20
143.500000000000
 11
15.000000000000
 21
146.000000000000
  0
LINE
  8
NT4WORP000
  6
CONTINUOUS
 10
15.000000000000
 20
146.000000000000
 11
14.500000000000
 21
143.500000000000
  0
LINE
  8
NT4WORP000
  6
CONTINUOUS
 10
15.500000000000
 20
42.500000000000
 11
15.000000000000
 21
40.000000000000
  0
LINE
  8
NT4WORP000
  6
CONTINUOUS
 10
15.000000000000
 20
40.000000000000
 11
14.500000000000
 21
42.500000000000
  0
TEXT
  8
NT4WORP000
 10
14.000000000000
 20
101.000000000000
 40
3.200000000000
 50
90.000000000000
  1
106
  0
LINE
  8
NT4WORP000
  6
CONTINUOUS
 10
40.000000000000
 20
147.000000000000
 11
40.000000000000
 21
167.000000000000
  0
LINE
  8
NT4WORP000
  6
CONTINUOUS
 10
110.000000000000
 20
147.000000000000
 11
110.000000000000
 21
167.000000000000
  0
LINE
  8
NT4WORP000
  6
CONTINUOUS
 10
40.000000000000
 20
164.000000000000
 11
110.000000000000
 21
164.000000000000
  0
LINE
  8
NT4WORP000
  6
CONTINUOUS
 10
42.500000000000
 20
164.500000000000
 11
40.000000000000
 21
164.000000000000
  0
LINE
  8
NT4WORP000
  6
CONTINUOUS
 10
40.000000000000
 20
164.000000000000
 11
42.500000000000
 21
163.500000000000
  0
LINE
  8
NT4WORP000
  6
CONTINUOUS
 10
107.500000000000
 20
164.500000000000
 11
110.000000000000
 21
164.000000000000
  0
LINE
  8
NT4WORP000
  6
CONTINUOUS
 10
110.000000000000
 20
164.000000000000
 11
107.500000000000
 21
163.500000000000
  0
TEXT
  8
NT4WORP000
 10
71.000000000000
 20
165.000000000000
 40
3.200000000000
 50
0.000000000000
  1
70
  0
POINT
  8
NT4WORP001
 10
44.000000000000
 20
142.000000000000
  0
CIRCLE
  8
NT4WORP001
  6
CONTINUOUS
 10
44.000000000000
 20
142.000000000000
 40
1.500000000000
  0
POINT
  8
NT4WORP001
 10
44.000000000000
 20
44.000000000000
  0
CIRCLE
  8
NT4WORP001
  6
CONTINUOUS
 10
44.000000000000
 20
44.000000000000
 40
1.500000000000
  0
LINE
  8
NT4WORP001
  6
CONTINUOUS
 10
43.000000000000
 20
142.000000000000
 11
18.000000000000
 21
142.000000000000
  0
LINE
  8
NT4WORP001
  6
CONTINUOUS
 10
43.000000000000
 20
44.000000000000
 11
18.000000000000
 21
44.000000000000
  0
LINE
  8
NT4WORP001
  6
CONTINUOUS
 10
21.000000000000
 20
142.000000000000
 11
21.000000000000
 21
44.000000000000
  0
LINE
  8
NT4WORP001
  6
CONTINUOUS
 10
21.500000000000
 20
139.500000000000
 11
21.000000000000
 21
142.000000000000
  0
LINE
  8
NT4WORP001
  6
CONTINUOUS
 10
21.000000000000
 20
142.000000000000
 11
20.500000000000
 21
139.500000000000
  0
LINE
  8
NT4WORP001
  6
CONTINUOUS
 10
21.500000000000
 20
46.500000000000
 11
21.000000000000
 21
44.000000000000
  0
LINE
  8
NT4WORP001
  6
CONTINUOUS
 10
21.000000000000
 20
44.000000000000
 11
20.500000000000
 21
46.500000000000
  0
TEXT
  8
NT4WORP001
 10
20.000000000000
 20
104.000000000000
 40
3.200000000000
 50
90.000000000000
  1
98
  0
LINE
  8
NT4WORP001
  6
CONTINUOUS
 10
44.000000000000
 20
143.000000000000
 11
44.000000000000
 21
153.000000000000
  0
LINE
  8
NT4WORP001
  6
CONTINUOUS
 10
40.000000000000
 20
147.000000000000
 11
40.000000000000
 21
153.000000000000
  0
LINE
  8
NT4WORP001
  6
CONTINUOUS
 10
53.200000000000
 20
150.000000000000
 11
35.000000000000
 21
150.000000000000
  0
LINE
  8
NT4WORP001
  6
CONTINUOUS
 10
46.500000000000
 20
149.500000000000
 11
44.000000000000
 21
150.000000000000
  0
LINE
  8
NT4WORP001
  6
CONTINUOUS
 10
44.000000000000
 20
150.000000000000
 11
46.500000000000
 21
150.500000000000
  0
LINE
  8
NT4WORP001
  6
CONTINUOUS
 10
37.500000000000
 20
149.500000000000
 11
40.000000000000
 21
150.000000000000
  0
LINE
  8
NT4WORP001
  6
CONTINUOUS
 10
40.000000000000
 20
150.000000000000
 11
37.500000000000
 21
150.500000000000
  0
TEXT
  8
NT4WORP001
 10
50.000000000000
 20
151.000000000000
 40
3.200000000000
 50
0.000000000000
  1
4
  0
LINE
  8
NT4WORP001
  6
CONTINUOUS
 10
43.000000000000
 20
142.000000000000
 11
33.000000000000
 21
142.000000000000
  0
LINE
  8
NT4WORP001
  6
CONTINUOUS
 10
39.000000000000
 20
146.000000000000
 11
33.000000000000
 21
146.000000000000
  0
LINE
  8
NT4WORP001
  6
CONTINUOUS
 10
36.000000000000
 20
134.000000000000
 11
36.000000000000
 21
151.000000000000
  0
LINE
  8
NT4WORP001
  6
CONTINUOUS
 10
35.500000000000
 20
139.500000000000
 11
36.000000000000
 21
142.000000000000
  0
LINE
  8
NT4WORP001
  6
CONTINUOUS
 10
36.000000000000
 20
142.000000000000
 11
36.500000000000
 21
139.500000000000
  0
LINE
  8
NT4WORP001
  6
CONTINUOUS
 10
35.500000000000
 20
148.500000000000
 11
36.000000000000
 21
146.000000000000
  0
LINE
  8
NT4WORP001
  6
CONTINUOUS
 10
36.000000000000
 20
146.000000000000
 11
36.500000000000
 21
148.500000000000
  0
TEXT
  8
NT4WORP001
 10
35.000000000000
 20
134.000000000000
 40
3.200000000000
 50
90.000000000000
  1
4
  0
LINE
  8
NT4WORP001
  6
CONTINUOUS
 10
43.000000000000
 20
44.000000000000
 11
33.000000000000
 21
44.000000000000
  0
LINE
  8
NT4WORP001
  6
CONTINUOUS
 10
39.000000000000
 20
40.000000000000
 11
33.000000000000
 21
40.000000000000
  0
LINE
  8
NT4WORP001
  6
CONTINUOUS
 10
36.000000000000
 20
58.600000000000
 11
36.000000000000
 21
35.000000000000
  0
LINE
  8
NT4WORP001
  6
CONTINUOUS
 10
36.500000000000
 20
46.500000000000
 11
36.000000000000
 21
44.000000000000
  0
LINE
  8
NT4WORP001
  6
CONTINUOUS
 10
36.000000000000
 20
44.000000000000
 11
35.500000000000
 21
46.500000000000
  0
LINE
  8
NT4WORP001
  6
CONTINUOUS
 10
36.500000000000
 20
37.500000000000
 11
36.000000000000
 21
40.000000000000
  0
LINE
  8
NT4WORP001
  6
CONTINUOUS
 10
36.000000000000
 20
40.000000000000
 11
35.500000000000
 21
37.500000000000
  0
TEXT
  8
NT4WORP001
 10
35.000000000000
 20
49.000000000000
 40
3.200000000000
 50
90.000000000000
  1
(4)
  0
LINE
  8
NT4WORP001
  6
CONTINUOUS
 10
44.000000000000
 20
45.000000000000
 11
45.900000000000
 21
46.700000000000
  0
LINE
  8
NT4WORP001
  6
CONTINUOUS
 10
44.000000000000
 20
45.000000000000
 11
45.100000000000
 21
47.300000000000
  0
LINE
  8
NT4WORP001
  6
CONTINUOUS
 10
47.000000000000
 20
49.000000000000
 11
44.000000000000
 21
45.000000000000
  0
LINE
  8
NT4WORP001
  6
CONTINUOUS
 10
47.000000000000
 20
49.000000000000
 11
63.000000000000
 21
49.000000000000
  0
TEXT
  8
NT4WORP001
 10
47.000000000000
 20
50.000000000000
 40
3.200000000000
 50
0.000000000000
  1
２－３キリ
  0
LINE
  8
NT4WORP001
  6
DASHDOT
 10
41.000000000000
 20
142.000000000000
 11
47.000000000000
 21
142.000000000000
  0
LINE
  8
NT4WORP001
  6
DASHDOT
 10
44.000000000000
 20
145.000000000000
 11
44.000000000000
 21
139.000000000000
  0
LINE
  8
NT4WORP001
  6
DASHDOT
 10
41.000000000000
 20
44.000000000000
 11
47.000000000000
 21
44.000000000000
  0
LINE
  8
NT4WORP001
  6
DASHDOT
 10
44.000000000000
 20
47.000000000000
 11
44.000000000000
 21
41.000000000000
  0
POINT
  8
NT4WORP002
 10
54.000000000000
 20
119.000000000000
  0
POINT
  8
NT4WORP003
 10
54.000000000000
 20
119.000000000000
  0
POINT
  8
NT4WORP003
 10
54.000000000000
 20
67.000000000000
  0
LINE
  8
NT4WORP003
  6
CONTINUOUS
 10
53.000000000000
 20
119.000000000000
 11
34.000000000000
 21
119.000000000000
  0
LINE
  8
NT4WORP003
  6
CONTINUOUS
 10
53.000000000000
 20
67.000000000000
 11
34.000000000000
 21
67.000000000000
  0
LINE
  8
NT4WORP003
  6
CONTINUOUS
 10
37.000000000000
 20
67.000000000000
 11
37.000000000000
 21
119.000000000000
  0
LINE
  8
NT4WORP003
  6
CONTINUOUS
 10
36.500000000000
 20
69.500000000000
 11
37.000000000000
 21
67.000000000000
  0
LINE
  8
NT4WORP003
  6
CONTINUOUS
 10
37.000000000000
 20
67.000000000000
 11
37.500000000000
 21
69.500000000000
  0
LINE
  8
NT4WORP003
  6
CONTINUOUS
 10
36.500000000000
 20
116.500000000000
 11
37.000000000000
 21
119.000000000000
  0
LINE
  8
NT4WORP003
  6
CONTINUOUS
 10
37.000000000000
 20
119.000000000000
 11
37.500000000000
 21
116.500000000000
  0
TEXT
  8
NT4WORP003
 10
36.000000000000
 20
90.000000000000
 40
3.200000000000
 50
90.000000000000
  1
52
  0
CIRCLE
  8
NT4WORP003
  6
CONTINUOUS
 10
54.000000000000
 20
119.000000000000
 40
1.500000000000
  0
CIRCLE
  8
NT4WORP003
  6
CONTINUOUS
 10
54.000000000000
 20
67.000000000000
 40
1.500000000000
  0
LINE
  8
NT4WORP003
  6
CONTINUOUS
 10
53.000000000000
 20
119.000000000000
 11
26.000000000000
 21
119.000000000000
  0
LINE
  8
NT4WORP003
  6
CONTINUOUS
 10
39.000000000000
 20
146.000000000000
 11
26.000000000000
 21
146.000000000000
  0
LINE
  8
NT4WORP003
  6
CONTINUOUS
 10
29.000000000000
 20
119.000000000000
 11
29.000000000000
 21
146.000000000000
  0
LINE
  8
NT4WORP003
  6
CONTINUOUS
 10
28.500000000000
 20
121.500000000000
 11
29.000000000000
 21
119.000000000000
  0
LINE
  8
NT4WORP003
  6
CONTINUOUS
 10
29.000000000000
 20
119.000000000000
 11
29.500000000000
 21
121.500000000000
  0
LINE
  8
NT4WORP003
  6
CONTINUOUS
 10
28.500000000000
 20
143.500000000000
 11
29.000000000000
 21
146.000000000000
  0
LINE
  8
NT4WORP003
  6
CONTINUOUS
 10
29.000000000000
 20
146.000000000000
 11
29.500000000000
 21
143.500000000000
  0
TEXT
  8
NT4WORP003
 10
28.000000000000
 20
128.000000000000
 40
3.200000000000
 50
90.000000000000
  1
27
  0
LINE
  8
NT4WORP003
  6
CONTINUOUS
 10
54.000000000000
 20
120.000000000000
 11
54.000000000000
 21
160.000000000000
  0
LINE
  8
NT4WORP003
  6
CONTINUOUS
 10
40.000000000000
 20
147.000000000000
 11
40.000000000000
 21
160.000000000000
  0
LINE
  8
NT4WORP003
  6
CONTINUOUS
 10
61.400000000000
 20
157.000000000000
 11
35.000000000000
 21
157.000000000000
  0
LINE
  8
NT4WORP003
  6
CONTINUOUS
 10
56.500000000000
 20
156.500000000000
 11
54.000000000000
 21
157.000000000000
  0
LINE
  8
NT4WORP003
  6
CONTINUOUS
 10
54.000000000000
 20
157.000000000000
 11
56.500000000000
 21
157.500000000000
  0
LINE
  8
NT4WORP003
  6
CONTINUOUS
 10
37.500000000000
 20
156.500000000000
 11
40.000000000000
 21
157.000000000000
  0
LINE
  8
NT4WORP003
  6
CONTINUOUS
 10
40.000000000000
 20
157.000000000000
 11
37.500000000000
 21
157.500000000000
  0
TEXT
  8
NT4WORP003
 10
55.000000000000
 20
158.000000000000
 40
3.200000000000
 50
0.000000000000
  1
14
  0
LINE
  8
NT4WORP003
  6
CONTINUOUS
 10
111.000000000000
 20
146.000000000000
 11
112.952172023608
 21
147.639824499830
  0
LINE
  8
NT4WORP003
  6
CONTINUOUS
 10
111.000000000000
 20
146.000000000000
 11
112.171303214165
 21
148.264519547385
  0
LINE
  8
NT4WORP003
  6
CONTINUOUS
 10
119.000000000000
 20
156.000000000000
 11
111.000000000000
 21
146.000000000000
  0
LINE
  8
NT4WORP003
  6
CONTINUOUS
 10
119.000000000000
 20
156.000000000000
 11
141.400000000000
 21
156.000000000000
  0
TEXT
  8
NT4WORP003
 10
119.000000000000
 20
157.000000000000
 40
3.200000000000
 50
0.000000000000
  1
t2アクリル版
  0
CIRCLE
  8
NT4WORP003
  6
CONTINUOUS
 10
96.000000000000
 20
119.000000000000
 40
1.500000000000
  0
CIRCLE
  8
NT4WORP003
  6
CONTINUOUS
 10
96.000000000000
 20
67.000000000000
 40
1.500000000000
  0
POINT
  8
NT4WORP003
 10
96.000000000000
 20
119.000000000000
  0
POINT
  8
NT4WORP003
 10
96.000000000000
 20
67.000000000000
  0
LINE
  8
NT4WORP003
  6
CONTINUOUS
 10
54.000000000000
 20
120.000000000000
 11
54.000000000000
 21
153.000000000000
  0
LINE
  8
NT4WORP003
  6
CONTINUOUS
 10
96.000000000000
 20
120.000000000000
 11
96.000000000000
 21
153.000000000000
  0
LINE
  8
NT4WORP003
  6
CONTINUOUS
 10
54.000000000000
 20
150.000000000000
 11
96.000000000000
 21
150.000000000000
  0
LINE
  8
NT4WORP003
  6
CONTINUOUS
 10
56.500000000000
 20
150.500000000000
 11
54.000000000000
 21
150.000000000000
  0
LINE
  8
NT4WORP003
  6
CONTINUOUS
 10
54.000000000000
 20
150.000000000000
 11
56.500000000000
 21
149.500000000000
  0
LINE
  8
NT4WORP003
  6
CONTINUOUS
 10
93.500000000000
 20
150.500000000000
 11
96.000000000000
 21
150.000000000000
  0
LINE
  8
NT4WORP003
  6
CONTINUOUS
 10
96.000000000000
 20
150.000000000000
 11
93.500000000000
 21
149.500000000000
  0
TEXT
  8
NT4WORP003
 10
73.000000000000
 20
151.000000000000
 40
3.200000000000
 50
0.000000000000
  1
42
  0
LINE
  8
NT4WORP003
  6
CONTINUOUS
 10
54.000000000000
 20
120.000000000000
 11
55.952172023608
 21
121.639824499830
  0
LINE
  8
NT4WORP003
  6
CONTINUOUS
 10
54.000000000000
 20
120.000000000000
 11
55.171303214165
 21
122.264519547385
  0
LINE
  8
NT4WORP003
  6
CONTINUOUS
 10
58.000000000000
 20
125.000000000000
 11
54.000000000000
 21
120.000000000000
  0
LINE
  8
NT4WORP003
  6
CONTINUOUS
 10
58.000000000000
 20
125.000000000000
 11
74.000000000000
 21
125.000000000000
  0
TEXT
  8
NT4WORP003
 10
58.000000000000
 20
126.000000000000
 40
3.200000000000
 50
0.000000000000
  1
４－３キリ
  0
LINE
  8
NT4WORP003
  6
DASHDOT
 10
51.000000000000
 20
67.000000000000
 11
57.000000000000
 21
67.000000000000
  0
LINE
  8
NT4WORP003
  6
DASHDOT
 10
54.000000000000
 20
70.000000000000
 11
54.000000000000
 21
64.000000000000
  0
LINE
  8
NT4WORP003
  6
DASHDOT
 10
93.000000000000
 20
67.000000000000
 11
99.000000000000
 21
67.000000000000
  0
LINE
  8
NT4WORP003
  6
DASHDOT
 10
96.000000000000
 20
70.000000000000
 11
96.000000000000
 21
64.000000000000
  0
LINE
  8
NT4WORP003
  6
DASHDOT
 10
51.000000000000
 20
119.000000000000
 11
57.000000000000
 21
119.000000000000
  0
LINE
  8
NT4WORP003
  6
DASHDOT
 10
54.000000000000
 20
122.000000000000
 11
54.000000000000
 21
116.000000000000
  0
LINE
  8
NT4WORP003
  6
DASHDOT
 10
93.000000000000
 20
119.000000000000
 11
99.000000000000
 21
119.000000000000
  0
LINE
  8
NT4WORP003
  6
DASHDOT
 10
96.000000000000
 20
122.000000000000
 11
96.000000000000
 21
116.000000000000
  0
ENDSEC
  0
EOF
