999
Outputted By AR_CAD Ver.1.4.0
  0
SECTION
  2
HEADER
  9
$ACADVER
  1
AC1009
  9
$DWGCODEPAGE
  3
DOS932
  9
$EXTMIN
 10
0
 20
0
  9
$EXTMAX
 10
297
 20
210
  9
$INSBASE
 10
0.0
 20
0.0
 30
0.0
  9
$HANDLING
 70
     1
  9
$LTSCALE
 40
1
  0
ENDSEC
  0
SECTION
  2
TABLES
  0
TABLE
  2
LTYPE
 70
     7
  0
LTYPE
  2
BYBLOCK
 70
    64
 3

 72
    65
 73
    0
 40
    0
  0
LTYPE
  2
BYLAYER
 70
    64
 3

 72
    65
 73
    0
 40
    0
  0
LTYPE
  2
CONTINUOUS
 70
    64
 3
CONTINUOUS
 72
    65
 73
    0
 40
    0
  0
LTYPE
  2
DASHED
 70
    64
 3

 72
    65
 73
    2
 40
    3.5
 49
    2.91666666666667
 49
    -0.583333333333333
  0
LTYPE
  2
DOT
 70
    64
 3

 72
    65
 73
    2
 40
    0.5
 49
    0.25
 49
    -0.25
  0
LTYPE
  2
DASHDOT
 70
    64
 3

 72
    65
 73
    4
 40
    3.5
 49
    1.84210526315789
 49
    -0.552631578947368
 49
    0.552631578947368
 49
    -0.552631578947368
  0
LTYPE
  2
DIVIDE
 70
    64
 3

 72
    65
 73
    6
 40
    3.5
 49
    1.4
 49
    -0.42
 49
    0.42
 49
    -0.42
 49
    0.42
 49
    -0.42
  0
LTYPE
  2
HIDDEN
 70
    64
 3

 72
    65
 73
    2
 40
    4
 49
    2
 49
    -2
  0
ENDTAB
  0
TABLE
  2
LAYER
 70
   257
  0
LAYER
  2
画層0
 70
    4
 62
7
  6
CONTINUOUS
  0
LAYER
  2
画層1
 70
    0
 62
-150
  6
CONTINUOUS
  0
LAYER
  2
画層2
 70
    4
 62
7
  6
CONTINUOUS
  0
LAYER
  2
画層3
 70
    4
 62
7
  6
CONTINUOUS
  0
LAYER
  2
画層4
 70
    4
 62
7
  6
CONTINUOUS
  0
LAYER
  2
画層5
 70
    0
 62
-1
  6
CONTINUOUS
  0
LAYER
  2
画層6
 70
    0
 62
-7
  6
CONTINUOUS
  0
LAYER
  2
画層7
 70
    0
 62
-51
  6
CONTINUOUS
  0
LAYER
  2
画層8
 70
    0
 62
-61
  6
CONTINUOUS
  0
LAYER
  2
画層9
 70
    0
 62
-111
  6
CONTINUOUS
  0
LAYER
  2
画層10
 70
    0
 62
-91
  6
CONTINUOUS
  0
LAYER
  2
画層11
 70
    0
 62
-131
  6
CONTINUOUS
  0
LAYER
  2
画層12
 70
    0
 62
-161
  6
CONTINUOUS
  0
LAYER
  2
画層13
 70
    0
 62
-5
  6
CONTINUOUS
  0
LAYER
  2
画層14
 70
    0
 62
-7
  6
CONTINUOUS
  0
LAYER
  2
画層15
 70
    0
 62
-11
  6
CONTINUOUS
  0
LAYER
  2
画層16
 70
    0
 62
7
  6
CONTINUOUS
  0
LAYER
  2
画層17
 70
    0
 62
70
  6
CONTINUOUS
  0
LAYER
  2
画層18
 70
    0
 62
211
  6
CONTINUOUS
  0
LAYER
  2
画層19
 70
    0
 62
137
  6
CONTINUOUS
  0
LAYER
  2
画層20
 70
    0
 62
4
  6
CONTINUOUS
  0
LAYER
  2
画層21
 70
    0
 62
131
  6
CONTINUOUS
  0
LAYER
  2
画層22
 70
    0
 62
4
  6
CONTINUOUS
  0
LAYER
  2
画層23
 70
    0
 62
4
  6
CONTINUOUS
  0
LAYER
  2
画層24
 70
    0
 62
7
  6
CONTINUOUS
  0
LAYER
  2
画層25
 70
    0
 62
7
  6
CONTINUOUS
  0
LAYER
  2
画層26
 70
    0
 62
7
  6
CONTINUOUS
  0
LAYER
  2
画層27
 70
    0
 62
7
  6
CONTINUOUS
  0
LAYER
  2
画層28
 70
    0
 62
7
  6
CONTINUOUS
  0
LAYER
  2
画層29
 70
    0
 62
7
  6
CONTINUOUS
  0
LAYER
  2
画層30
 70
    0
 62
7
  6
CONTINUOUS
  0
LAYER
  2
画層31
 70
    0
 62
7
  6
CONTINUOUS
  0
LAYER
  2
画層32
 70
    0
 62
7
  6
CONTINUOUS
  0
LAYER
  2
画層33
 70
    0
 62
7
  6
CONTINUOUS
  0
LAYER
  2
画層34
 70
    0
 62
7
  6
CONTINUOUS
  0
LAYER
  2
画層35
 70
    0
 62
7
  6
CONTINUOUS
  0
LAYER
  2
画層36
 70
    0
 62
7
  6
CONTINUOUS
  0
LAYER
  2
画層37
 70
    0
 62
7
  6
CONTINUOUS
  0
LAYER
  2
画層38
 70
    0
 62
7
  6
CONTINUOUS
  0
LAYER
  2
画層39
 70
    0
 62
7
  6
CONTINUOUS
  0
LAYER
  2
画層40
 70
    0
 62
7
  6
CONTINUOUS
  0
LAYER
  2
画層41
 70
    0
 62
7
  6
CONTINUOUS
  0
LAYER
  2
画層42
 70
    0
 62
7
  6
CONTINUOUS
  0
LAYER
  2
画層43
 70
    0
 62
7
  6
CONTINUOUS
  0
LAYER
  2
画層44
 70
    0
 62
7
  6
CONTINUOUS
  0
LAYER
  2
画層45
 70
    0
 62
7
  6
CONTINUOUS
  0
LAYER
  2
画層46
 70
    0
 62
7
  6
CONTINUOUS
  0
LAYER
  2
画層47
 70
    0
 62
7
  6
CONTINUOUS
  0
LAYER
  2
画層48
 70
    0
 62
7
  6
CONTINUOUS
  0
LAYER
  2
画層49
 70
    0
 62
7
  6
CONTINUOUS
  0
LAYER
  2
画層50
 70
    0
 62
7
  6
CONTINUOUS
  0
LAYER
  2
画層51
 70
    0
 62
7
  6
CONTINUOUS
  0
LAYER
  2
画層52
 70
    0
 62
7
  6
CONTINUOUS
  0
LAYER
  2
画層53
 70
    0
 62
7
  6
CONTINUOUS
  0
LAYER
  2
画層54
 70
    0
 62
7
  6
CONTINUOUS
  0
LAYER
  2
画層55
 70
    0
 62
7
  6
CONTINUOUS
  0
LAYER
  2
画層56
 70
    0
 62
7
  6
CONTINUOUS
  0
LAYER
  2
画層57
 70
    0
 62
7
  6
CONTINUOUS
  0
LAYER
  2
画層58
 70
    0
 62
7
  6
CONTINUOUS
  0
LAYER
  2
画層59
 70
    0
 62
7
  6
CONTINUOUS
  0
LAYER
  2
画層60
 70
    0
 62
7
  6
CONTINUOUS
  0
LAYER
  2
画層61
 70
    0
 62
7
  6
CONTINUOUS
  0
LAYER
  2
画層62
 70
    0
 62
7
  6
CONTINUOUS
  0
LAYER
  2
画層63
 70
    0
 62
7
  6
CONTINUOUS
  0
LAYER
  2
画層64
 70
    0
 62
7
  6
CONTINUOUS
  0
LAYER
  2
画層65
 70
    0
 62
7
  6
CONTINUOUS
  0
LAYER
  2
画層66
 70
    0
 62
7
  6
CONTINUOUS
  0
LAYER
  2
画層67
 70
    0
 62
7
  6
CONTINUOUS
  0
LAYER
  2
画層68
 70
    0
 62
7
  6
CONTINUOUS
  0
LAYER
  2
画層69
 70
    0
 62
7
  6
CONTINUOUS
  0
LAYER
  2
画層70
 70
    0
 62
7
  6
CONTINUOUS
  0
LAYER
  2
画層71
 70
    0
 62
7
  6
CONTINUOUS
  0
LAYER
  2
画層72
 70
    0
 62
7
  6
CONTINUOUS
  0
LAYER
  2
画層73
 70
    0
 62
7
  6
CONTINUOUS
  0
LAYER
  2
画層74
 70
    0
 62
7
  6
CONTINUOUS
  0
LAYER
  2
画層75
 70
    0
 62
7
  6
CONTINUOUS
  0
LAYER
  2
画層76
 70
    0
 62
7
  6
CONTINUOUS
  0
LAYER
  2
画層77
 70
    0
 62
7
  6
CONTINUOUS
  0
LAYER
  2
画層78
 70
    0
 62
7
  6
CONTINUOUS
  0
LAYER
  2
画層79
 70
    0
 62
7
  6
CONTINUOUS
  0
LAYER
  2
画層80
 70
    0
 62
7
  6
CONTINUOUS
  0
LAYER
  2
画層81
 70
    0
 62
7
  6
CONTINUOUS
  0
LAYER
  2
画層82
 70
    0
 62
7
  6
CONTINUOUS
  0
LAYER
  2
画層83
 70
    0
 62
7
  6
CONTINUOUS
  0
LAYER
  2
画層84
 70
    0
 62
7
  6
CONTINUOUS
  0
LAYER
  2
画層85
 70
    0
 62
7
  6
CONTINUOUS
  0
LAYER
  2
画層86
 70
    0
 62
7
  6
CONTINUOUS
  0
LAYER
  2
画層87
 70
    0
 62
7
  6
CONTINUOUS
  0
LAYER
  2
画層88
 70
    0
 62
7
  6
CONTINUOUS
  0
LAYER
  2
画層89
 70
    0
 62
7
  6
CONTINUOUS
  0
LAYER
  2
画層90
 70
    0
 62
7
  6
CONTINUOUS
  0
LAYER
  2
画層91
 70
    0
 62
7
  6
CONTINUOUS
  0
LAYER
  2
画層92
 70
    0
 62
7
  6
CONTINUOUS
  0
LAYER
  2
画層93
 70
    0
 62
7
  6
CONTINUOUS
  0
LAYER
  2
画層94
 70
    0
 62
7
  6
CONTINUOUS
  0
LAYER
  2
画層95
 70
    0
 62
7
  6
CONTINUOUS
  0
LAYER
  2
画層96
 70
    0
 62
7
  6
CONTINUOUS
  0
LAYER
  2
画層97
 70
    0
 62
7
  6
CONTINUOUS
  0
LAYER
  2
画層98
 70
    0
 62
7
  6
CONTINUOUS
  0
LAYER
  2
画層99
 70
    0
 62
7
  6
CONTINUOUS
  0
LAYER
  2
画層100
 70
    0
 62
7
  6
CONTINUOUS
  0
LAYER
  2
画層101
 70
    0
 62
7
  6
CONTINUOUS
  0
LAYER
  2
画層102
 70
    0
 62
7
  6
CONTINUOUS
  0
LAYER
  2
画層103
 70
    0
 62
7
  6
CONTINUOUS
  0
LAYER
  2
画層104
 70
    0
 62
7
  6
CONTINUOUS
  0
LAYER
  2
画層105
 70
    0
 62
7
  6
CONTINUOUS
  0
LAYER
  2
画層106
 70
    0
 62
7
  6
CONTINUOUS
  0
LAYER
  2
画層107
 70
    0
 62
7
  6
CONTINUOUS
  0
LAYER
  2
画層108
 70
    0
 62
7
  6
CONTINUOUS
  0
LAYER
  2
画層109
 70
    0
 62
7
  6
CONTINUOUS
  0
LAYER
  2
画層110
 70
    0
 62
7
  6
CONTINUOUS
  0
LAYER
  2
画層111
 70
    0
 62
7
  6
CONTINUOUS
  0
LAYER
  2
画層112
 70
    0
 62
7
  6
CONTINUOUS
  0
LAYER
  2
画層113
 70
    0
 62
7
  6
CONTINUOUS
  0
LAYER
  2
画層114
 70
    0
 62
7
  6
CONTINUOUS
  0
LAYER
  2
画層115
 70
    0
 62
7
  6
CONTINUOUS
  0
LAYER
  2
画層116
 70
    0
 62
7
  6
CONTINUOUS
  0
LAYER
  2
画層117
 70
    0
 62
7
  6
CONTINUOUS
  0
LAYER
  2
画層118
 70
    0
 62
7
  6
CONTINUOUS
  0
LAYER
  2
画層119
 70
    0
 62
7
  6
CONTINUOUS
  0
LAYER
  2
画層120
 70
    0
 62
7
  6
CONTINUOUS
  0
LAYER
  2
画層121
 70
    0
 62
7
  6
CONTINUOUS
  0
LAYER
  2
画層122
 70
    0
 62
7
  6
CONTINUOUS
  0
LAYER
  2
画層123
 70
    0
 62
7
  6
CONTINUOUS
  0
LAYER
  2
画層124
 70
    0
 62
7
  6
CONTINUOUS
  0
LAYER
  2
画層125
 70
    0
 62
7
  6
CONTINUOUS
  0
LAYER
  2
画層126
 70
    0
 62
7
  6
CONTINUOUS
  0
LAYER
  2
画層127
 70
    0
 62
7
  6
CONTINUOUS
  0
LAYER
  2
画層128
 70
    0
 62
7
  6
CONTINUOUS
  0
LAYER
  2
画層129
 70
    0
 62
7
  6
CONTINUOUS
  0
LAYER
  2
画層130
 70
    0
 62
7
  6
CONTINUOUS
  0
LAYER
  2
画層131
 70
    0
 62
7
  6
CONTINUOUS
  0
LAYER
  2
画層132
 70
    0
 62
7
  6
CONTINUOUS
  0
LAYER
  2
画層133
 70
    0
 62
7
  6
CONTINUOUS
  0
LAYER
  2
画層134
 70
    0
 62
7
  6
CONTINUOUS
  0
LAYER
  2
画層135
 70
    0
 62
7
  6
CONTINUOUS
  0
LAYER
  2
画層136
 70
    0
 62
7
  6
CONTINUOUS
  0
LAYER
  2
画層137
 70
    0
 62
7
  6
CONTINUOUS
  0
LAYER
  2
画層138
 70
    0
 62
7
  6
CONTINUOUS
  0
LAYER
  2
画層139
 70
    0
 62
7
  6
CONTINUOUS
  0
LAYER
  2
画層140
 70
    0
 62
7
  6
CONTINUOUS
  0
LAYER
  2
画層141
 70
    0
 62
7
  6
CONTINUOUS
  0
LAYER
  2
画層142
 70
    0
 62
7
  6
CONTINUOUS
  0
LAYER
  2
画層143
 70
    0
 62
7
  6
CONTINUOUS
  0
LAYER
  2
画層144
 70
    0
 62
7
  6
CONTINUOUS
  0
LAYER
  2
画層145
 70
    0
 62
7
  6
CONTINUOUS
  0
LAYER
  2
画層146
 70
    0
 62
7
  6
CONTINUOUS
  0
LAYER
  2
画層147
 70
    0
 62
7
  6
CONTINUOUS
  0
LAYER
  2
画層148
 70
    0
 62
7
  6
CONTINUOUS
  0
LAYER
  2
画層149
 70
    0
 62
7
  6
CONTINUOUS
  0
LAYER
  2
画層150
 70
    0
 62
7
  6
CONTINUOUS
  0
LAYER
  2
画層151
 70
    0
 62
7
  6
CONTINUOUS
  0
LAYER
  2
画層152
 70
    0
 62
7
  6
CONTINUOUS
  0
LAYER
  2
画層153
 70
    0
 62
7
  6
CONTINUOUS
  0
LAYER
  2
画層154
 70
    0
 62
7
  6
CONTINUOUS
  0
LAYER
  2
画層155
 70
    0
 62
7
  6
CONTINUOUS
  0
LAYER
  2
画層156
 70
    0
 62
7
  6
CONTINUOUS
  0
LAYER
  2
画層157
 70
    0
 62
7
  6
CONTINUOUS
  0
LAYER
  2
画層158
 70
    0
 62
7
  6
CONTINUOUS
  0
LAYER
  2
画層159
 70
    0
 62
7
  6
CONTINUOUS
  0
LAYER
  2
画層160
 70
    0
 62
7
  6
CONTINUOUS
  0
LAYER
  2
画層161
 70
    0
 62
7
  6
CONTINUOUS
  0
LAYER
  2
画層162
 70
    0
 62
7
  6
CONTINUOUS
  0
LAYER
  2
画層163
 70
    0
 62
7
  6
CONTINUOUS
  0
LAYER
  2
画層164
 70
    0
 62
7
  6
CONTINUOUS
  0
LAYER
  2
画層165
 70
    0
 62
7
  6
CONTINUOUS
  0
LAYER
  2
画層166
 70
    0
 62
7
  6
CONTINUOUS
  0
LAYER
  2
画層167
 70
    0
 62
7
  6
CONTINUOUS
  0
LAYER
  2
画層168
 70
    0
 62
7
  6
CONTINUOUS
  0
LAYER
  2
画層169
 70
    0
 62
7
  6
CONTINUOUS
  0
LAYER
  2
画層170
 70
    0
 62
7
  6
CONTINUOUS
  0
LAYER
  2
画層171
 70
    0
 62
7
  6
CONTINUOUS
  0
LAYER
  2
画層172
 70
    0
 62
7
  6
CONTINUOUS
  0
LAYER
  2
画層173
 70
    0
 62
7
  6
CONTINUOUS
  0
LAYER
  2
画層174
 70
    0
 62
7
  6
CONTINUOUS
  0
LAYER
  2
画層175
 70
    0
 62
7
  6
CONTINUOUS
  0
LAYER
  2
画層176
 70
    0
 62
7
  6
CONTINUOUS
  0
LAYER
  2
画層177
 70
    0
 62
7
  6
CONTINUOUS
  0
LAYER
  2
画層178
 70
    0
 62
7
  6
CONTINUOUS
  0
LAYER
  2
画層179
 70
    0
 62
7
  6
CONTINUOUS
  0
LAYER
  2
画層180
 70
    0
 62
7
  6
CONTINUOUS
  0
LAYER
  2
画層181
 70
    0
 62
7
  6
CONTINUOUS
  0
LAYER
  2
画層182
 70
    0
 62
7
  6
CONTINUOUS
  0
LAYER
  2
画層183
 70
    0
 62
7
  6
CONTINUOUS
  0
LAYER
  2
画層184
 70
    0
 62
7
  6
CONTINUOUS
  0
LAYER
  2
画層185
 70
    0
 62
7
  6
CONTINUOUS
  0
LAYER
  2
画層186
 70
    0
 62
7
  6
CONTINUOUS
  0
LAYER
  2
画層187
 70
    0
 62
7
  6
CONTINUOUS
  0
LAYER
  2
画層188
 70
    0
 62
7
  6
CONTINUOUS
  0
LAYER
  2
画層189
 70
    0
 62
7
  6
CONTINUOUS
  0
LAYER
  2
画層190
 70
    0
 62
7
  6
CONTINUOUS
  0
LAYER
  2
画層191
 70
    0
 62
7
  6
CONTINUOUS
  0
LAYER
  2
画層192
 70
    0
 62
7
  6
CONTINUOUS
  0
LAYER
  2
画層193
 70
    0
 62
7
  6
CONTINUOUS
  0
LAYER
  2
画層194
 70
    0
 62
7
  6
CONTINUOUS
  0
LAYER
  2
画層195
 70
    0
 62
7
  6
CONTINUOUS
  0
LAYER
  2
画層196
 70
    0
 62
7
  6
CONTINUOUS
  0
LAYER
  2
画層197
 70
    0
 62
7
  6
CONTINUOUS
  0
LAYER
  2
画層198
 70
    0
 62
7
  6
CONTINUOUS
  0
LAYER
  2
画層199
 70
    0
 62
7
  6
CONTINUOUS
  0
LAYER
  2
画層200
 70
    0
 62
7
  6
CONTINUOUS
  0
LAYER
  2
画層201
 70
    0
 62
7
  6
CONTINUOUS
  0
LAYER
  2
画層202
 70
    0
 62
7
  6
CONTINUOUS
  0
LAYER
  2
画層203
 70
    0
 62
7
  6
CONTINUOUS
  0
LAYER
  2
画層204
 70
    0
 62
7
  6
CONTINUOUS
  0
LAYER
  2
画層205
 70
    0
 62
7
  6
CONTINUOUS
  0
LAYER
  2
画層206
 70
    0
 62
7
  6
CONTINUOUS
  0
LAYER
  2
画層207
 70
    0
 62
7
  6
CONTINUOUS
  0
LAYER
  2
画層208
 70
    0
 62
7
  6
CONTINUOUS
  0
LAYER
  2
画層209
 70
    0
 62
7
  6
CONTINUOUS
  0
LAYER
  2
画層210
 70
    0
 62
7
  6
CONTINUOUS
  0
LAYER
  2
画層211
 70
    0
 62
7
  6
CONTINUOUS
  0
LAYER
  2
画層212
 70
    0
 62
7
  6
CONTINUOUS
  0
LAYER
  2
画層213
 70
    0
 62
7
  6
CONTINUOUS
  0
LAYER
  2
画層214
 70
    0
 62
7
  6
CONTINUOUS
  0
LAYER
  2
画層215
 70
    0
 62
7
  6
CONTINUOUS
  0
LAYER
  2
画層216
 70
    0
 62
7
  6
CONTINUOUS
  0
LAYER
  2
画層217
 70
    0
 62
7
  6
CONTINUOUS
  0
LAYER
  2
画層218
 70
    0
 62
7
  6
CONTINUOUS
  0
LAYER
  2
画層219
 70
    0
 62
7
  6
CONTINUOUS
  0
LAYER
  2
画層220
 70
    0
 62
7
  6
CONTINUOUS
  0
LAYER
  2
画層221
 70
    0
 62
7
  6
CONTINUOUS
  0
LAYER
  2
画層222
 70
    0
 62
7
  6
CONTINUOUS
  0
LAYER
  2
画層223
 70
    0
 62
7
  6
CONTINUOUS
  0
LAYER
  2
画層224
 70
    0
 62
7
  6
CONTINUOUS
  0
LAYER
  2
画層225
 70
    0
 62
7
  6
CONTINUOUS
  0
LAYER
  2
画層226
 70
    0
 62
7
  6
CONTINUOUS
  0
LAYER
  2
画層227
 70
    0
 62
7
  6
CONTINUOUS
  0
LAYER
  2
画層228
 70
    0
 62
7
  6
CONTINUOUS
  0
LAYER
  2
画層229
 70
    0
 62
7
  6
CONTINUOUS
  0
LAYER
  2
画層230
 70
    0
 62
7
  6
CONTINUOUS
  0
LAYER
  2
画層231
 70
    0
 62
7
  6
CONTINUOUS
  0
LAYER
  2
画層232
 70
    0
 62
7
  6
CONTINUOUS
  0
LAYER
  2
画層233
 70
    0
 62
7
  6
CONTINUOUS
  0
LAYER
  2
画層234
 70
    0
 62
7
  6
CONTINUOUS
  0
LAYER
  2
画層235
 70
    0
 62
7
  6
CONTINUOUS
  0
LAYER
  2
画層236
 70
    0
 62
7
  6
CONTINUOUS
  0
LAYER
  2
画層237
 70
    0
 62
7
  6
CONTINUOUS
  0
LAYER
  2
画層238
 70
    0
 62
7
  6
CONTINUOUS
  0
LAYER
  2
画層239
 70
    0
 62
7
  6
CONTINUOUS
  0
LAYER
  2
画層240
 70
    0
 62
7
  6
CONTINUOUS
  0
LAYER
  2
画層241
 70
    0
 62
7
  6
CONTINUOUS
  0
LAYER
  2
画層242
 70
    0
 62
7
  6
CONTINUOUS
  0
LAYER
  2
画層243
 70
    0
 62
7
  6
CONTINUOUS
  0
LAYER
  2
画層244
 70
    0
 62
7
  6
CONTINUOUS
  0
LAYER
  2
画層245
 70
    0
 62
7
  6
CONTINUOUS
  0
LAYER
  2
画層246
 70
    0
 62
7
  6
CONTINUOUS
  0
LAYER
  2
画層247
 70
    0
 62
7
  6
CONTINUOUS
  0
LAYER
  2
画層248
 70
    0
 62
7
  6
CONTINUOUS
  0
LAYER
  2
画層249
 70
    0
 62
7
  6
CONTINUOUS
  0
LAYER
  2
画層250
 70
    0
 62
7
  6
CONTINUOUS
  0
LAYER
  2
画層251
 70
    0
 62
7
  6
CONTINUOUS
  0
LAYER
  2
画層252
 70
    0
 62
7
  6
CONTINUOUS
  0
LAYER
  2
画層253
 70
    0
 62
7
  6
CONTINUOUS
  0
LAYER
  2
画層254
 70
    0
 62
7
  6
CONTINUOUS
  0
LAYER
  2
画層255
 70
    0
 62
7
  6
CONTINUOUS
  0
LAYER
  2
0
 70
   64
 62
    7
  6
CONTINUOUS
  0
ENDTAB
  0
TABLE
  2
STYLE
 70
     1
  0
STYLE
  2
Standard
 70
     0
 40
0.0
 41
1.0
 50
0.0
 71
     0
 42
3.2
  3
TXT
  4
BIGFONT
  0
STYLE
  2
Font_0
 70
     0
 40
0.0
 41
1.0
 50
0.0
 71
     0
 42
3.2
  3
txt
  4
BIGFONT
  0
ENDTAB
  0
ENDSEC
  0
SECTION
  2
ENTITIES
  0
LINE
  8
画層0
  6
CONTINUOUS
 10
60
 20
60
 11
60
 21
90
  0
LINE
  8
画層0
  6
CONTINUOUS
 10
85
 20
60
 11
60
 21
60
  0
LINE
  8
画層0
  6
CONTINUOUS
 10
85
 20
90
 11
85
 21
60
  0
LINE
  8
画層0
  6
CONTINUOUS
 10
85
 20
90
 11
60
 21
90
  0
LINE
  8
画層3
  6
DOT
 10
60
 20
62.0006397935702
 11
85
 21
62.0006397935702
  0
LINE
  8
画層0
  6
CONTINUOUS
 10
120
 20
90
 11
120
 21
60
  0
LINE
  8
画層0
  6
CONTINUOUS
 10
120
 20
60
 11
150
 21
60
  0
LINE
  8
画層0
  6
CONTINUOUS
 10
150
 20
60
 11
150
 21
61.9951334570897
  0
LINE
  8
画層0
  6
CONTINUOUS
 10
120
 20
90
 11
122.004538357332
 21
90
  0
LINE
  8
画層0
  6
CONTINUOUS
 10
122.004538357332
 20
90
 11
122.004538357332
 21
61.9951334570897
  0
LINE
  8
画層0
  6
CONTINUOUS
 10
122.004538357332
 20
61.9951334570897
 11
150
 21
61.9951334570897
  0
LINE
  8
画層0
  6
CONTINUOUS
 10
60
 20
120
 11
60
 21
150
  0
LINE
  8
画層0
  6
CONTINUOUS
 10
85
 20
120
 11
60
 21
120
  0
LINE
  8
画層0
  6
CONTINUOUS
 10
85
 20
150
 11
60
 21
150
  0
LINE
  8
画層0
  6
CONTINUOUS
 10
85
 20
120
 11
85
 21
150
  0
LINE
  8
画層0
  6
CONTINUOUS
 10
60
 20
121.996095402044
 11
85
 21
121.996095402044
  0
CIRCLE
  8
画層0
  6
CONTINUOUS
 10
72.5
 20
137.500941669243
 40
1.5023506157839
  0
LINE
  8
画層2
  6
DASHDOT
 10
72.5
 20
173.267332919067
 11
72.5
 21
36.0493933416724
  0
LINE
  8
画層3
  6
DOT
 10
74.0023506157839
 20
62.0006397935702
 11
74.0023506157839
 21
60
  0
LINE
  8
画層3
  6
DOT
 10
70.9976493842161
 20
62.0006397935702
 11
70.9976493842161
 21
60
  0
LINE
  8
画層3
  6
DOT
 10
81.5014103235638
 20
120
 11
81.5014103235638
 21
121.996095402044
  0
LINE
  8
画層3
  6
DOT
 10
78.496709091996
 20
120
 11
78.496709091996
 21
121.996095402044
  0
LINE
  8
画層3
  6
DOT
 10
66.5048021747176
 20
120
 11
66.5048021747176
 21
121.996095402044
  0
LINE
  8
画層3
  6
DOT
 10
63.5001009431498
 20
120
 11
63.5001009431498
 21
121.996095402044
  0
LINE
  8
画層4
  6
CONTINUOUS
 10
71.5
 20
137.500941669243
 11
47
 21
137.500941669243
  0
LINE
  8
画層4
  6
CONTINUOUS
 10
50
 20
137.500941669243
 11
50
 21
150
  0
POLYLINE
  8
画層4
  6
CONTINUOUS
 10
0.0
 20
0.0
 30
0.0
 66
1
 70
     1
  0
VERTEX
  8
画層4
 10
50
  20
137.500941669243
  0
VERTEX
  8
画層4
 10
49.6117714323462
  20
138.949830408677
  0
VERTEX
  8
画層4
 10
50.3882285676538
  20
138.949830408677
  0
SEQEND
100
AcDbEntity
  8
画層4
  0
POLYLINE
  8
画層4
  6
CONTINUOUS
 10
0.0
 20
0.0
 30
0.0
 66
1
 70
     1
  0
VERTEX
  8
画層4
 10
50
  20
150
  0
VERTEX
  8
画層4
 10
50.3882285676538
  20
148.551111260566
  0
VERTEX
  8
画層4
 10
49.6117714323462
  20
148.551111260566
  0
SEQEND
100
AcDbEntity
  8
画層4
  0
TEXT
  8
画層4
 62
7
  6
CONTINUOUS
 62
7
 10
49.75
 20
133.250470834621
 40
9
  1
12.5
  7
Font_0
 50
89.9999999999999
 72
1
 11
40.75
 21
143.750470834621
 73
3
  0
LINE
  8
画層4
  6
CONTINUOUS
 10
71.5
 20
150
 11
47
 21
150
  0
LINE
  8
画層4
  6
CONTINUOUS
 10
59
 20
120
 11
37
 21
120
  0
LINE
  8
画層4
  6
CONTINUOUS
 10
40
 20
120
 11
40
 21
150
  0
POLYLINE
  8
画層4
  6
CONTINUOUS
 10
0.0
 20
0.0
 30
0.0
 66
1
 70
     1
  0
VERTEX
  8
画層4
 10
40
  20
120
  0
VERTEX
  8
画層4
 10
39.6117714323462
  20
121.448888739434
  0
VERTEX
  8
画層4
 10
40.3882285676538
  20
121.448888739434
  0
SEQEND
100
AcDbEntity
  8
画層4
  0
POLYLINE
  8
画層4
  6
CONTINUOUS
 10
0.0
 20
0.0
 30
0.0
 66
1
 70
     1
  0
VERTEX
  8
画層4
 10
40
  20
150
  0
VERTEX
  8
画層4
 10
40.3882285676538
  20
148.551111260566
  0
VERTEX
  8
画層4
 10
39.6117714323462
  20
148.551111260566
  0
SEQEND
100
AcDbEntity
  8
画層4
  0
TEXT
  8
画層4
 62
7
  6
CONTINUOUS
 62
7
 10
39.75
 20
130
 40
9
  1
30
  7
Font_0
 50
90
 72
1
 11
30.75
 21
135
 73
3
  0
LINE
  8
画層4
  6
CONTINUOUS
 10
59
 20
150
 11
37
 21
150
  0
LINE
  8
画層4
  6
CONTINUOUS
 10
64.0024515589337
 20
90
 11
46.9999999999999
 21
90
  0
LINE
  8
画層4
  6
CONTINUOUS
 10
59
 20
60
 11
37
 21
60
  0
LINE
  8
画層4
  6
CONTINUOUS
 10
40
 20
60
 11
40
 21
90
  0
POLYLINE
  8
画層4
  6
CONTINUOUS
 10
0.0
 20
0.0
 30
0.0
 66
1
 70
     1
  0
VERTEX
  8
画層4
 10
40
  20
60
  0
VERTEX
  8
画層4
 10
39.6117714323462
  20
61.4488887394336
  0
VERTEX
  8
画層4
 10
40.3882285676538
  20
61.4488887394336
  0
SEQEND
100
AcDbEntity
  8
画層4
  0
POLYLINE
  8
画層4
  6
CONTINUOUS
 10
0.0
 20
0.0
 30
0.0
 66
1
 70
     1
  0
VERTEX
  8
画層4
 10
40
  20
90
  0
VERTEX
  8
画層4
 10
40.3882285676538
  20
88.5511112605664
  0
VERTEX
  8
画層4
 10
39.6117714323462
  20
88.5511112605664
  0
SEQEND
100
AcDbEntity
  8
画層4
  0
TEXT
  8
画層4
 62
7
  6
CONTINUOUS
 62
7
 10
39.75
 20
70
 40
9
  1
30
  7
Font_0
 50
90
 72
1
 11
30.75
 21
75
 73
3
  0
LINE
  8
画層4
  6
CONTINUOUS
 10
59
 20
90
 11
37
 21
90
  0
LINE
  8
画層4
  6
CONTINUOUS
 10
60
 20
59
 11
60
 21
47
  0
LINE
  8
画層4
  6
CONTINUOUS
 10
60
 20
50
 11
85
 21
50
  0
POLYLINE
  8
画層4
  6
CONTINUOUS
 10
0.0
 20
0.0
 30
0.0
 66
1
 70
     1
  0
VERTEX
  8
画層4
 10
60
  20
50
  0
VERTEX
  8
画層4
 10
61.4488887394336
  20
50.3882285676538
  0
VERTEX
  8
画層4
 10
61.4488887394336
  20
49.6117714323462
  0
SEQEND
100
AcDbEntity
  8
画層4
  0
POLYLINE
  8
画層4
  6
CONTINUOUS
 10
0.0
 20
0.0
 30
0.0
 66
1
 70
     1
  0
VERTEX
  8
画層4
 10
85
  20
50
  0
VERTEX
  8
画層4
 10
83.5511112605664
  20
49.6117714323462
  0
VERTEX
  8
画層4
 10
83.5511112605664
  20
50.3882285676538
  0
SEQEND
100
AcDbEntity
  8
画層4
  0
TEXT
  8
画層4
 62
7
  6
CONTINUOUS
 62
7
 10
67.5
 20
50.25
 40
9
  1
25
  7
Font_0
 72
1
 11
72.5
 21
59.25
 73
3
  0
LINE
  8
画層4
  6
CONTINUOUS
 10
85
 20
59
 11
85
 21
47
  0
LINE
  8
画層4
  6
CONTINUOUS
 10
120
 20
91
 11
120
 21
103
  0
LINE
  8
画層4
  6
CONTINUOUS
 10
120
 20
99.9999999999998
 11
122.004538357332
 21
99.9999999999998
  0
POLYLINE
  8
画層4
  6
CONTINUOUS
 10
0.0
 20
0.0
 30
0.0
 66
1
 70
     1
  0
VERTEX
  8
画層4
 10
120
  20
99.9999999999998
  0
VERTEX
  8
画層4
 10
121.448888739434
  20
100.388228567654
  0
VERTEX
  8
画層4
 10
121.448888739434
  20
99.611771432346
  0
SEQEND
100
AcDbEntity
  8
画層4
  0
POLYLINE
  8
画層4
  6
CONTINUOUS
 10
0.0
 20
0.0
 30
0.0
 66
1
 70
     1
  0
VERTEX
  8
画層4
 10
122.004538357332
  20
99.9999999999998
  0
VERTEX
  8
画層4
 10
120.555649617899
  20
99.611771432346
  0
VERTEX
  8
画層4
 10
120.555649617899
  20
100.388228567654
  0
SEQEND
100
AcDbEntity
  8
画層4
  0
TEXT
  8
画層4
 62
7
  6
CONTINUOUS
 62
7
 10
118.752269178666
 20
100.25
 40
9
  1
2
  7
Font_0
 50
359.999999999999
 72
1
 11
121.002269178666
 21
109.25
 73
3
  0
LINE
  8
画層4
  6
CONTINUOUS
 10
122.004538357332
 20
91
 11
122.004538357332
 21
103
  0
LINE
  8
画層4
  6
CONTINUOUS
 10
151
 20
61.9951334570897
 11
163
 21
61.9951334570897
  0
LINE
  8
画層4
  6
CONTINUOUS
 10
160
 20
61.9951334570897
 11
160
 21
60
  0
POLYLINE
  8
画層4
  6
CONTINUOUS
 10
0.0
 20
0.0
 30
0.0
 66
1
 70
     1
  0
VERTEX
  8
画層4
 10
160
  20
61.9951334570897
  0
VERTEX
  8
画層4
 10
160.388228567654
  20
60.5462447176561
  0
VERTEX
  8
画層4
 10
159.611771432346
  20
60.546244717656
  0
SEQEND
100
AcDbEntity
  8
画層4
  0
POLYLINE
  8
画層4
  6
CONTINUOUS
 10
0.0
 20
0.0
 30
0.0
 66
1
 70
     1
  0
VERTEX
  8
画層4
 10
160
  20
60
  0
VERTEX
  8
画層4
 10
159.611771432346
  20
61.4488887394336
  0
VERTEX
  8
画層4
 10
160.388228567654
  20
61.4488887394336
  0
SEQEND
100
AcDbEntity
  8
画層4
  0
TEXT
  8
画層4
 62
7
  6
CONTINUOUS
 62
7
 10
159.75
 20
58.7475667285448
 40
9
  1
2
  7
Font_0
 50
90
 72
1
 11
150.75
 21
60.9975667285448
 73
3
  0
LINE
  8
画層4
  6
CONTINUOUS
 10
151
 20
60
 11
163
 21
60
  0
CIRCLE
  8
画層0
  6
CONTINUOUS
 10
79.9990597077799
 20
76.0048764052007
 40
1.5023506157839
  0
CIRCLE
  8
画層0
  6
CONTINUOUS
 10
65.0024515589337
 20
76.0048764052007
 40
1.5023506157839
  0
LINE
  8
画層3
  6
DOT
 10
120
 20
77.5072270209846
 11
122.004538357332
 21
77.5072270209846
  0
LINE
  8
画層3
  6
DOT
 10
120
 20
74.5025257894168
 11
122.004538357332
 21
74.5025257894168
  0
LINE
  8
画層3
  6
DOT
 10
136.001825627764
 20
60
 11
136.001825627764
 21
61.9951334570897
  0
LINE
  8
画層3
  6
DOT
 10
138.997774262248
 20
60
 11
138.997774262248
 21
61.9951334570897
  0
LINE
  8
画層4
  6
CONTINUOUS
 10
64.0024515589337
 20
76.0048764052007
 11
46.9999999999999
 21
76.0048764052007
  0
LINE
  8
画層4
  6
CONTINUOUS
 10
49.9999999999999
 20
76.0048764052007
 11
49.9999999999999
 21
90
  0
POLYLINE
  8
画層4
  6
CONTINUOUS
 10
0.0
 20
0.0
 30
0.0
 66
1
 70
     1
  0
VERTEX
  8
画層4
 10
49.9999999999999
  20
76.0048764052007
  0
VERTEX
  8
画層4
 10
49.6117714323462
  20
77.4537651446343
  0
VERTEX
  8
画層4
 10
50.3882285676537
  20
77.4537651446343
  0
SEQEND
100
AcDbEntity
  8
画層4
  0
POLYLINE
  8
画層4
  6
CONTINUOUS
 10
0.0
 20
0.0
 30
0.0
 66
1
 70
     1
  0
VERTEX
  8
画層4
 10
49.9999999999999
  20
90
  0
VERTEX
  8
画層4
 10
50.3882285676537
  20
88.5511112605664
  0
VERTEX
  8
画層4
 10
49.6117714323462
  20
88.5511112605664
  0
SEQEND
100
AcDbEntity
  8
画層4
  0
TEXT
  8
画層4
 62
7
  6
CONTINUOUS
 62
7
 10
49.7499999999999
 20
78.0024382026004
 40
9
  1
14
  7
Font_0
 50
90
 72
1
 11
40.7499999999999
 21
83.0024382026004
 73
3
  0
LINE
  8
画層4
  6
CONTINUOUS
 10
64.0024515589337
 20
90
 11
46.9999999999999
 21
90
  0
LINE
  8
画層4
  6
CONTINUOUS
 10
65.0024515589337
 20
77.0048764052007
 11
65.0024515589337
 21
103
  0
LINE
  8
画層4
  6
CONTINUOUS
 10
65.0024515589337
 20
100
 11
79.9990597077799
 21
100
  0
POLYLINE
  8
画層4
  6
CONTINUOUS
 10
0.0
 20
0.0
 30
0.0
 66
1
 70
     1
  0
VERTEX
  8
画層4
 10
65.0024515589337
  20
100
  0
VERTEX
  8
画層4
 10
66.4513402983673
  20
100.388228567654
  0
VERTEX
  8
画層4
 10
66.4513402983673
  20
99.6117714323462
  0
SEQEND
100
AcDbEntity
  8
画層4
  0
POLYLINE
  8
画層4
  6
CONTINUOUS
 10
0.0
 20
0.0
 30
0.0
 66
1
 70
     1
  0
VERTEX
  8
画層4
 10
79.9990597077799
  20
100
  0
VERTEX
  8
画層4
 10
78.5501709683463
  20
99.6117714323462
  0
VERTEX
  8
画層4
 10
78.5501709683463
  20
100.388228567654
  0
SEQEND
100
AcDbEntity
  8
画層4
  0
TEXT
  8
画層4
 62
7
  6
CONTINUOUS
 62
7
 10
67.5007556333568
 20
100.25
 40
9
  1
15
  7
Font_0
 72
1
 11
72.5007556333568
 21
109.25
 73
3
  0
LINE
  8
画層4
  6
CONTINUOUS
 10
79.9990597077799
 20
77.0048764052007
 11
79.9990597077799
 21
103
  0
LINE
  8
画層4
  6
CONTINUOUS
 10
80.8725390679139
 20
77.2272066306988
 11
90
 21
90
  0
POLYLINE
  8
画層4
  6
CONTINUOUS
 10
0.0
 20
0.0
 30
0.0
 66
1
 70
     1
  0
VERTEX
  8
画層4
 10
80.8725390679139
  20
77.2272066306988
  0
VERTEX
  8
画層4
 10
81.9255967071496
  20
80.0363114006295
  0
VERTEX
  8
画層4
 10
83.1890661201066
  20
79.1334339037329
  0
SEQEND
100
AcDbEntity
  8
画層4
  0
LINE
  8
画層4
  6
CONTINUOUS
 10
73.422378111428
 20
138.686806751073
 11
90
 21
160
  0
POLYLINE
  8
画層4
  6
CONTINUOUS
 10
0.0
 20
0.0
 30
0.0
 66
1
 70
     1
  0
VERTEX
  8
画層4
 10
73.422378111428
  20
138.686806751073
  0
VERTEX
  8
画層4
 10
74.5885992954775
  20
141.450848746028
  0
VERTEX
  8
画層4
 10
75.8143762807239
  20
140.497426743807
  0
SEQEND
100
AcDbEntity
  8
画層4
  0
TEXT
  8
画層4
 62
7
  6
CONTINUOUS
 62
7
 10
90.8150298138049
 20
89.8918674107538
 40
9
  1
M3
  7
Font_0
 11
90.8150298138049
 21
98.8918674107538
 73
3
  0
TEXT
  8
画層4
 62
7
  6
CONTINUOUS
 62
7
 10
90.8150298138049
 20
159.938959006825
 40
9
  1
M3
  7
Font_0
 11
90.8150298138049
 21
168.938959006825
 73
3
  0
LINE
  8
画層4
  6
CONTINUOUS
 10
90
 20
160
 11
100
 21
160
  0
LINE
  8
画層4
  6
CONTINUOUS
 10
90
 20
90
 11
100
 21
90
  0
ENDSEC
  0
EOF
