999
Outputted By AR_CAD Ver.1.4.1
  0
SECTION
  2
HEADER
  9
$ACADVER
  1
AC1009
  9
$DWGCODEPAGE
  3
DOS932
  9
$EXTMIN
 10
0
 20
0
  9
$EXTMAX
 10
297
 20
210
  9
$INSBASE
 10
0.0
 20
0.0
 30
0.0
  9
$HANDLING
 70
     1
  9
$LTSCALE
 40
1
  0
ENDSEC
  0
SECTION
  2
TABLES
  0
TABLE
  2
LTYPE
 70
     7
  0
LTYPE
  2
BYBLOCK
 70
    64
 3

 72
    65
 73
    0
 40
    0
  0
LTYPE
  2
BYLAYER
 70
    64
 3

 72
    65
 73
    0
 40
    0
  0
LTYPE
  2
CONTINUOUS
 70
    64
 3
CONTINUOUS
 72
    65
 73
    0
 40
    0
  0
LTYPE
  2
DASHED
 70
    64
 3

 72
    65
 73
    2
 40
    3.5
 49
    2.91666666666667
 49
    -0.583333333333333
  0
LTYPE
  2
DOT
 70
    64
 3

 72
    65
 73
    2
 40
    0.5
 49
    0.25
 49
    -0.25
  0
LTYPE
  2
DASHDOT
 70
    64
 3

 72
    65
 73
    4
 40
    3.5
 49
    1.84210526315789
 49
    -0.552631578947368
 49
    0.552631578947368
 49
    -0.552631578947368
  0
LTYPE
  2
DIVIDE
 70
    64
 3

 72
    65
 73
    6
 40
    3.5
 49
    1.4
 49
    -0.42
 49
    0.42
 49
    -0.42
 49
    0.42
 49
    -0.42
  0
LTYPE
  2
HIDDEN
 70
    64
 3

 72
    65
 73
    2
 40
    4
 49
    2
 49
    -2
  0
ENDTAB
  0
TABLE
  2
LAYER
 70
   257
  0
LAYER
  2
画層0
 70
    4
 62
7
  6
CONTINUOUS
  0
LAYER
  2
画層1
 70
    4
 62
7
  6
CONTINUOUS
  0
LAYER
  2
画層2
 70
    4
 62
7
  6
CONTINUOUS
  0
LAYER
  2
画層3
 70
    4
 62
7
  6
CONTINUOUS
  0
LAYER
  2
画層4
 70
    0
 62
-6
  6
CONTINUOUS
  0
LAYER
  2
画層5
 70
    0
 62
-1
  6
CONTINUOUS
  0
LAYER
  2
画層6
 70
    0
 62
-7
  6
CONTINUOUS
  0
LAYER
  2
画層7
 70
    0
 62
-51
  6
CONTINUOUS
  0
LAYER
  2
画層8
 70
    0
 62
-61
  6
CONTINUOUS
  0
LAYER
  2
画層9
 70
    0
 62
-111
  6
CONTINUOUS
  0
LAYER
  2
画層10
 70
    0
 62
-91
  6
CONTINUOUS
  0
LAYER
  2
画層11
 70
    0
 62
-131
  6
CONTINUOUS
  0
LAYER
  2
画層12
 70
    0
 62
-161
  6
CONTINUOUS
  0
LAYER
  2
画層13
 70
    0
 62
-5
  6
CONTINUOUS
  0
LAYER
  2
画層14
 70
    0
 62
-7
  6
CONTINUOUS
  0
LAYER
  2
画層15
 70
    0
 62
-11
  6
CONTINUOUS
  0
LAYER
  2
画層16
 70
    0
 62
7
  6
CONTINUOUS
  0
LAYER
  2
画層17
 70
    0
 62
70
  6
CONTINUOUS
  0
LAYER
  2
画層18
 70
    0
 62
211
  6
CONTINUOUS
  0
LAYER
  2
画層19
 70
    0
 62
137
  6
CONTINUOUS
  0
LAYER
  2
画層20
 70
    0
 62
4
  6
CONTINUOUS
  0
LAYER
  2
画層21
 70
    0
 62
131
  6
CONTINUOUS
  0
LAYER
  2
画層22
 70
    0
 62
4
  6
CONTINUOUS
  0
LAYER
  2
画層23
 70
    0
 62
4
  6
CONTINUOUS
  0
LAYER
  2
画層24
 70
    0
 62
7
  6
CONTINUOUS
  0
LAYER
  2
画層25
 70
    0
 62
7
  6
CONTINUOUS
  0
LAYER
  2
画層26
 70
    0
 62
7
  6
CONTINUOUS
  0
LAYER
  2
画層27
 70
    0
 62
7
  6
CONTINUOUS
  0
LAYER
  2
画層28
 70
    0
 62
7
  6
CONTINUOUS
  0
LAYER
  2
画層29
 70
    0
 62
7
  6
CONTINUOUS
  0
LAYER
  2
画層30
 70
    0
 62
7
  6
CONTINUOUS
  0
LAYER
  2
画層31
 70
    0
 62
7
  6
CONTINUOUS
  0
LAYER
  2
画層32
 70
    0
 62
7
  6
CONTINUOUS
  0
LAYER
  2
画層33
 70
    0
 62
7
  6
CONTINUOUS
  0
LAYER
  2
画層34
 70
    0
 62
7
  6
CONTINUOUS
  0
LAYER
  2
画層35
 70
    0
 62
7
  6
CONTINUOUS
  0
LAYER
  2
画層36
 70
    0
 62
7
  6
CONTINUOUS
  0
LAYER
  2
画層37
 70
    0
 62
7
  6
CONTINUOUS
  0
LAYER
  2
画層38
 70
    0
 62
7
  6
CONTINUOUS
  0
LAYER
  2
画層39
 70
    0
 62
7
  6
CONTINUOUS
  0
LAYER
  2
画層40
 70
    0
 62
7
  6
CONTINUOUS
  0
LAYER
  2
画層41
 70
    0
 62
7
  6
CONTINUOUS
  0
LAYER
  2
画層42
 70
    0
 62
7
  6
CONTINUOUS
  0
LAYER
  2
画層43
 70
    0
 62
7
  6
CONTINUOUS
  0
LAYER
  2
画層44
 70
    0
 62
7
  6
CONTINUOUS
  0
LAYER
  2
画層45
 70
    0
 62
7
  6
CONTINUOUS
  0
LAYER
  2
画層46
 70
    0
 62
7
  6
CONTINUOUS
  0
LAYER
  2
画層47
 70
    0
 62
7
  6
CONTINUOUS
  0
LAYER
  2
画層48
 70
    0
 62
7
  6
CONTINUOUS
  0
LAYER
  2
画層49
 70
    0
 62
7
  6
CONTINUOUS
  0
LAYER
  2
画層50
 70
    0
 62
7
  6
CONTINUOUS
  0
LAYER
  2
画層51
 70
    0
 62
7
  6
CONTINUOUS
  0
LAYER
  2
画層52
 70
    0
 62
7
  6
CONTINUOUS
  0
LAYER
  2
画層53
 70
    0
 62
7
  6
CONTINUOUS
  0
LAYER
  2
画層54
 70
    0
 62
7
  6
CONTINUOUS
  0
LAYER
  2
画層55
 70
    0
 62
7
  6
CONTINUOUS
  0
LAYER
  2
画層56
 70
    0
 62
7
  6
CONTINUOUS
  0
LAYER
  2
画層57
 70
    0
 62
7
  6
CONTINUOUS
  0
LAYER
  2
画層58
 70
    0
 62
7
  6
CONTINUOUS
  0
LAYER
  2
画層59
 70
    0
 62
7
  6
CONTINUOUS
  0
LAYER
  2
画層60
 70
    0
 62
7
  6
CONTINUOUS
  0
LAYER
  2
画層61
 70
    0
 62
7
  6
CONTINUOUS
  0
LAYER
  2
画層62
 70
    0
 62
7
  6
CONTINUOUS
  0
LAYER
  2
画層63
 70
    0
 62
7
  6
CONTINUOUS
  0
LAYER
  2
画層64
 70
    0
 62
7
  6
CONTINUOUS
  0
LAYER
  2
画層65
 70
    0
 62
7
  6
CONTINUOUS
  0
LAYER
  2
画層66
 70
    0
 62
7
  6
CONTINUOUS
  0
LAYER
  2
画層67
 70
    0
 62
7
  6
CONTINUOUS
  0
LAYER
  2
画層68
 70
    0
 62
7
  6
CONTINUOUS
  0
LAYER
  2
画層69
 70
    0
 62
7
  6
CONTINUOUS
  0
LAYER
  2
画層70
 70
    0
 62
7
  6
CONTINUOUS
  0
LAYER
  2
画層71
 70
    0
 62
7
  6
CONTINUOUS
  0
LAYER
  2
画層72
 70
    0
 62
7
  6
CONTINUOUS
  0
LAYER
  2
画層73
 70
    0
 62
7
  6
CONTINUOUS
  0
LAYER
  2
画層74
 70
    0
 62
7
  6
CONTINUOUS
  0
LAYER
  2
画層75
 70
    0
 62
7
  6
CONTINUOUS
  0
LAYER
  2
画層76
 70
    0
 62
7
  6
CONTINUOUS
  0
LAYER
  2
画層77
 70
    0
 62
7
  6
CONTINUOUS
  0
LAYER
  2
画層78
 70
    0
 62
7
  6
CONTINUOUS
  0
LAYER
  2
画層79
 70
    0
 62
7
  6
CONTINUOUS
  0
LAYER
  2
画層80
 70
    0
 62
7
  6
CONTINUOUS
  0
LAYER
  2
画層81
 70
    0
 62
7
  6
CONTINUOUS
  0
LAYER
  2
画層82
 70
    0
 62
7
  6
CONTINUOUS
  0
LAYER
  2
画層83
 70
    0
 62
7
  6
CONTINUOUS
  0
LAYER
  2
画層84
 70
    0
 62
7
  6
CONTINUOUS
  0
LAYER
  2
画層85
 70
    0
 62
7
  6
CONTINUOUS
  0
LAYER
  2
画層86
 70
    0
 62
7
  6
CONTINUOUS
  0
LAYER
  2
画層87
 70
    0
 62
7
  6
CONTINUOUS
  0
LAYER
  2
画層88
 70
    0
 62
7
  6
CONTINUOUS
  0
LAYER
  2
画層89
 70
    0
 62
7
  6
CONTINUOUS
  0
LAYER
  2
画層90
 70
    0
 62
7
  6
CONTINUOUS
  0
LAYER
  2
画層91
 70
    0
 62
7
  6
CONTINUOUS
  0
LAYER
  2
画層92
 70
    0
 62
7
  6
CONTINUOUS
  0
LAYER
  2
画層93
 70
    0
 62
7
  6
CONTINUOUS
  0
LAYER
  2
画層94
 70
    0
 62
7
  6
CONTINUOUS
  0
LAYER
  2
画層95
 70
    0
 62
7
  6
CONTINUOUS
  0
LAYER
  2
画層96
 70
    0
 62
7
  6
CONTINUOUS
  0
LAYER
  2
画層97
 70
    0
 62
7
  6
CONTINUOUS
  0
LAYER
  2
画層98
 70
    0
 62
7
  6
CONTINUOUS
  0
LAYER
  2
画層99
 70
    0
 62
7
  6
CONTINUOUS
  0
LAYER
  2
画層100
 70
    0
 62
7
  6
CONTINUOUS
  0
LAYER
  2
画層101
 70
    0
 62
7
  6
CONTINUOUS
  0
LAYER
  2
画層102
 70
    0
 62
7
  6
CONTINUOUS
  0
LAYER
  2
画層103
 70
    0
 62
7
  6
CONTINUOUS
  0
LAYER
  2
画層104
 70
    0
 62
7
  6
CONTINUOUS
  0
LAYER
  2
画層105
 70
    0
 62
7
  6
CONTINUOUS
  0
LAYER
  2
画層106
 70
    0
 62
7
  6
CONTINUOUS
  0
LAYER
  2
画層107
 70
    0
 62
7
  6
CONTINUOUS
  0
LAYER
  2
画層108
 70
    0
 62
7
  6
CONTINUOUS
  0
LAYER
  2
画層109
 70
    0
 62
7
  6
CONTINUOUS
  0
LAYER
  2
画層110
 70
    0
 62
7
  6
CONTINUOUS
  0
LAYER
  2
画層111
 70
    0
 62
7
  6
CONTINUOUS
  0
LAYER
  2
画層112
 70
    0
 62
7
  6
CONTINUOUS
  0
LAYER
  2
画層113
 70
    0
 62
7
  6
CONTINUOUS
  0
LAYER
  2
画層114
 70
    0
 62
7
  6
CONTINUOUS
  0
LAYER
  2
画層115
 70
    0
 62
7
  6
CONTINUOUS
  0
LAYER
  2
画層116
 70
    0
 62
7
  6
CONTINUOUS
  0
LAYER
  2
画層117
 70
    0
 62
7
  6
CONTINUOUS
  0
LAYER
  2
画層118
 70
    0
 62
7
  6
CONTINUOUS
  0
LAYER
  2
画層119
 70
    0
 62
7
  6
CONTINUOUS
  0
LAYER
  2
画層120
 70
    0
 62
7
  6
CONTINUOUS
  0
LAYER
  2
画層121
 70
    0
 62
7
  6
CONTINUOUS
  0
LAYER
  2
画層122
 70
    0
 62
7
  6
CONTINUOUS
  0
LAYER
  2
画層123
 70
    0
 62
7
  6
CONTINUOUS
  0
LAYER
  2
画層124
 70
    0
 62
7
  6
CONTINUOUS
  0
LAYER
  2
画層125
 70
    0
 62
7
  6
CONTINUOUS
  0
LAYER
  2
画層126
 70
    0
 62
7
  6
CONTINUOUS
  0
LAYER
  2
画層127
 70
    0
 62
7
  6
CONTINUOUS
  0
LAYER
  2
画層128
 70
    0
 62
7
  6
CONTINUOUS
  0
LAYER
  2
画層129
 70
    0
 62
7
  6
CONTINUOUS
  0
LAYER
  2
画層130
 70
    0
 62
7
  6
CONTINUOUS
  0
LAYER
  2
画層131
 70
    0
 62
7
  6
CONTINUOUS
  0
LAYER
  2
画層132
 70
    0
 62
7
  6
CONTINUOUS
  0
LAYER
  2
画層133
 70
    0
 62
7
  6
CONTINUOUS
  0
LAYER
  2
画層134
 70
    0
 62
7
  6
CONTINUOUS
  0
LAYER
  2
画層135
 70
    0
 62
7
  6
CONTINUOUS
  0
LAYER
  2
画層136
 70
    0
 62
7
  6
CONTINUOUS
  0
LAYER
  2
画層137
 70
    0
 62
7
  6
CONTINUOUS
  0
LAYER
  2
画層138
 70
    0
 62
7
  6
CONTINUOUS
  0
LAYER
  2
画層139
 70
    0
 62
7
  6
CONTINUOUS
  0
LAYER
  2
画層140
 70
    0
 62
7
  6
CONTINUOUS
  0
LAYER
  2
画層141
 70
    0
 62
7
  6
CONTINUOUS
  0
LAYER
  2
画層142
 70
    0
 62
7
  6
CONTINUOUS
  0
LAYER
  2
画層143
 70
    0
 62
7
  6
CONTINUOUS
  0
LAYER
  2
画層144
 70
    0
 62
7
  6
CONTINUOUS
  0
LAYER
  2
画層145
 70
    0
 62
7
  6
CONTINUOUS
  0
LAYER
  2
画層146
 70
    0
 62
7
  6
CONTINUOUS
  0
LAYER
  2
画層147
 70
    0
 62
7
  6
CONTINUOUS
  0
LAYER
  2
画層148
 70
    0
 62
7
  6
CONTINUOUS
  0
LAYER
  2
画層149
 70
    0
 62
7
  6
CONTINUOUS
  0
LAYER
  2
画層150
 70
    0
 62
7
  6
CONTINUOUS
  0
LAYER
  2
画層151
 70
    0
 62
7
  6
CONTINUOUS
  0
LAYER
  2
画層152
 70
    0
 62
7
  6
CONTINUOUS
  0
LAYER
  2
画層153
 70
    0
 62
7
  6
CONTINUOUS
  0
LAYER
  2
画層154
 70
    0
 62
7
  6
CONTINUOUS
  0
LAYER
  2
画層155
 70
    0
 62
7
  6
CONTINUOUS
  0
LAYER
  2
画層156
 70
    0
 62
7
  6
CONTINUOUS
  0
LAYER
  2
画層157
 70
    0
 62
7
  6
CONTINUOUS
  0
LAYER
  2
画層158
 70
    0
 62
7
  6
CONTINUOUS
  0
LAYER
  2
画層159
 70
    0
 62
7
  6
CONTINUOUS
  0
LAYER
  2
画層160
 70
    0
 62
7
  6
CONTINUOUS
  0
LAYER
  2
画層161
 70
    0
 62
7
  6
CONTINUOUS
  0
LAYER
  2
画層162
 70
    0
 62
7
  6
CONTINUOUS
  0
LAYER
  2
画層163
 70
    0
 62
7
  6
CONTINUOUS
  0
LAYER
  2
画層164
 70
    0
 62
7
  6
CONTINUOUS
  0
LAYER
  2
画層165
 70
    0
 62
7
  6
CONTINUOUS
  0
LAYER
  2
画層166
 70
    0
 62
7
  6
CONTINUOUS
  0
LAYER
  2
画層167
 70
    0
 62
7
  6
CONTINUOUS
  0
LAYER
  2
画層168
 70
    0
 62
7
  6
CONTINUOUS
  0
LAYER
  2
画層169
 70
    0
 62
7
  6
CONTINUOUS
  0
LAYER
  2
画層170
 70
    0
 62
7
  6
CONTINUOUS
  0
LAYER
  2
画層171
 70
    0
 62
7
  6
CONTINUOUS
  0
LAYER
  2
画層172
 70
    0
 62
7
  6
CONTINUOUS
  0
LAYER
  2
画層173
 70
    0
 62
7
  6
CONTINUOUS
  0
LAYER
  2
画層174
 70
    0
 62
7
  6
CONTINUOUS
  0
LAYER
  2
画層175
 70
    0
 62
7
  6
CONTINUOUS
  0
LAYER
  2
画層176
 70
    0
 62
7
  6
CONTINUOUS
  0
LAYER
  2
画層177
 70
    0
 62
7
  6
CONTINUOUS
  0
LAYER
  2
画層178
 70
    0
 62
7
  6
CONTINUOUS
  0
LAYER
  2
画層179
 70
    0
 62
7
  6
CONTINUOUS
  0
LAYER
  2
画層180
 70
    0
 62
7
  6
CONTINUOUS
  0
LAYER
  2
画層181
 70
    0
 62
7
  6
CONTINUOUS
  0
LAYER
  2
画層182
 70
    0
 62
7
  6
CONTINUOUS
  0
LAYER
  2
画層183
 70
    0
 62
7
  6
CONTINUOUS
  0
LAYER
  2
画層184
 70
    0
 62
7
  6
CONTINUOUS
  0
LAYER
  2
画層185
 70
    0
 62
7
  6
CONTINUOUS
  0
LAYER
  2
画層186
 70
    0
 62
7
  6
CONTINUOUS
  0
LAYER
  2
画層187
 70
    0
 62
7
  6
CONTINUOUS
  0
LAYER
  2
画層188
 70
    0
 62
7
  6
CONTINUOUS
  0
LAYER
  2
画層189
 70
    0
 62
7
  6
CONTINUOUS
  0
LAYER
  2
画層190
 70
    0
 62
7
  6
CONTINUOUS
  0
LAYER
  2
画層191
 70
    0
 62
7
  6
CONTINUOUS
  0
LAYER
  2
画層192
 70
    0
 62
7
  6
CONTINUOUS
  0
LAYER
  2
画層193
 70
    0
 62
7
  6
CONTINUOUS
  0
LAYER
  2
画層194
 70
    0
 62
7
  6
CONTINUOUS
  0
LAYER
  2
画層195
 70
    0
 62
7
  6
CONTINUOUS
  0
LAYER
  2
画層196
 70
    0
 62
7
  6
CONTINUOUS
  0
LAYER
  2
画層197
 70
    0
 62
7
  6
CONTINUOUS
  0
LAYER
  2
画層198
 70
    0
 62
7
  6
CONTINUOUS
  0
LAYER
  2
画層199
 70
    0
 62
7
  6
CONTINUOUS
  0
LAYER
  2
画層200
 70
    0
 62
7
  6
CONTINUOUS
  0
LAYER
  2
画層201
 70
    0
 62
7
  6
CONTINUOUS
  0
LAYER
  2
画層202
 70
    0
 62
7
  6
CONTINUOUS
  0
LAYER
  2
画層203
 70
    0
 62
7
  6
CONTINUOUS
  0
LAYER
  2
画層204
 70
    0
 62
7
  6
CONTINUOUS
  0
LAYER
  2
画層205
 70
    0
 62
7
  6
CONTINUOUS
  0
LAYER
  2
画層206
 70
    0
 62
7
  6
CONTINUOUS
  0
LAYER
  2
画層207
 70
    0
 62
7
  6
CONTINUOUS
  0
LAYER
  2
画層208
 70
    0
 62
7
  6
CONTINUOUS
  0
LAYER
  2
画層209
 70
    0
 62
7
  6
CONTINUOUS
  0
LAYER
  2
画層210
 70
    0
 62
7
  6
CONTINUOUS
  0
LAYER
  2
画層211
 70
    0
 62
7
  6
CONTINUOUS
  0
LAYER
  2
画層212
 70
    0
 62
7
  6
CONTINUOUS
  0
LAYER
  2
画層213
 70
    0
 62
7
  6
CONTINUOUS
  0
LAYER
  2
画層214
 70
    0
 62
7
  6
CONTINUOUS
  0
LAYER
  2
画層215
 70
    0
 62
7
  6
CONTINUOUS
  0
LAYER
  2
画層216
 70
    0
 62
7
  6
CONTINUOUS
  0
LAYER
  2
画層217
 70
    0
 62
7
  6
CONTINUOUS
  0
LAYER
  2
画層218
 70
    0
 62
7
  6
CONTINUOUS
  0
LAYER
  2
画層219
 70
    0
 62
7
  6
CONTINUOUS
  0
LAYER
  2
画層220
 70
    0
 62
7
  6
CONTINUOUS
  0
LAYER
  2
画層221
 70
    0
 62
7
  6
CONTINUOUS
  0
LAYER
  2
画層222
 70
    0
 62
7
  6
CONTINUOUS
  0
LAYER
  2
画層223
 70
    0
 62
7
  6
CONTINUOUS
  0
LAYER
  2
画層224
 70
    0
 62
7
  6
CONTINUOUS
  0
LAYER
  2
画層225
 70
    0
 62
7
  6
CONTINUOUS
  0
LAYER
  2
画層226
 70
    0
 62
7
  6
CONTINUOUS
  0
LAYER
  2
画層227
 70
    0
 62
7
  6
CONTINUOUS
  0
LAYER
  2
画層228
 70
    0
 62
7
  6
CONTINUOUS
  0
LAYER
  2
画層229
 70
    0
 62
7
  6
CONTINUOUS
  0
LAYER
  2
画層230
 70
    0
 62
7
  6
CONTINUOUS
  0
LAYER
  2
画層231
 70
    0
 62
7
  6
CONTINUOUS
  0
LAYER
  2
画層232
 70
    0
 62
7
  6
CONTINUOUS
  0
LAYER
  2
画層233
 70
    0
 62
7
  6
CONTINUOUS
  0
LAYER
  2
画層234
 70
    0
 62
7
  6
CONTINUOUS
  0
LAYER
  2
画層235
 70
    0
 62
7
  6
CONTINUOUS
  0
LAYER
  2
画層236
 70
    0
 62
7
  6
CONTINUOUS
  0
LAYER
  2
画層237
 70
    0
 62
7
  6
CONTINUOUS
  0
LAYER
  2
画層238
 70
    0
 62
7
  6
CONTINUOUS
  0
LAYER
  2
画層239
 70
    0
 62
7
  6
CONTINUOUS
  0
LAYER
  2
画層240
 70
    0
 62
7
  6
CONTINUOUS
  0
LAYER
  2
画層241
 70
    0
 62
7
  6
CONTINUOUS
  0
LAYER
  2
画層242
 70
    0
 62
7
  6
CONTINUOUS
  0
LAYER
  2
画層243
 70
    0
 62
7
  6
CONTINUOUS
  0
LAYER
  2
画層244
 70
    0
 62
7
  6
CONTINUOUS
  0
LAYER
  2
画層245
 70
    0
 62
7
  6
CONTINUOUS
  0
LAYER
  2
画層246
 70
    0
 62
7
  6
CONTINUOUS
  0
LAYER
  2
画層247
 70
    0
 62
7
  6
CONTINUOUS
  0
LAYER
  2
画層248
 70
    0
 62
7
  6
CONTINUOUS
  0
LAYER
  2
画層249
 70
    0
 62
7
  6
CONTINUOUS
  0
LAYER
  2
画層250
 70
    0
 62
7
  6
CONTINUOUS
  0
LAYER
  2
画層251
 70
    0
 62
7
  6
CONTINUOUS
  0
LAYER
  2
画層252
 70
    0
 62
7
  6
CONTINUOUS
  0
LAYER
  2
画層253
 70
    0
 62
7
  6
CONTINUOUS
  0
LAYER
  2
画層254
 70
    0
 62
7
  6
CONTINUOUS
  0
LAYER
  2
画層255
 70
    0
 62
7
  6
CONTINUOUS
  0
LAYER
  2
0
 70
   64
 62
    7
  6
CONTINUOUS
  0
ENDTAB
  0
TABLE
  2
STYLE
 70
     1
  0
STYLE
  2
Standard
 70
     0
 40
0.0
 41
1.0
 50
0.0
 71
     0
 42
3.2
  3
TXT
  4
BIGFONT
  0
STYLE
  2
Font_0
 70
     0
 40
0.0
 41
1.0
 50
0.0
 71
     0
 42
3.2
  3
txt
  4
BIGFONT
  0
ENDTAB
  0
ENDSEC
  0
SECTION
  2
ENTITIES
  0
LINE
  8
画層0
  6
CONTINUOUS
 10
60
 20
40
 11
84.9982680943884
 21
40
  0
LINE
  8
画層0
  6
CONTINUOUS
 10
60
 20
40
 11
60
 21
70
  0
LINE
  8
画層0
  6
CONTINUOUS
 10
60
 20
70
 11
84.9991374001778
 21
70
  0
LINE
  8
画層0
  6
CONTINUOUS
 10
84.9982680943884
 20
40
 11
84.9982680943884
 21
70
  0
LINE
  8
画層0
  6
CONTINUOUS
 10
60
 20
90
 11
84.9991374001778
 21
90
  0
LINE
  8
画層0
  6
CONTINUOUS
 10
60
 20
90
 11
60
 21
120
  0
LINE
  8
画層0
  6
CONTINUOUS
 10
84.9991374001778
 20
120
 11
84.9991374001778
 21
90
  0
LINE
  8
画層0
  6
CONTINUOUS
 10
60
 20
120
 11
84.9991374001778
 21
120
  0
CIRCLE
  8
画層0
  6
CONTINUOUS
 10
72.4995687000889
 20
57.4988167188853
 40
6.00021813432254
  0
CIRCLE
  8
画層0
  6
CONTINUOUS
 10
81.5012957730323
 20
57.4988167188853
 40
1.49515528406614
  0
CIRCLE
  8
画層0
  6
CONTINUOUS
 10
63.497863581014
 20
57.4988167188853
 40
1.49584703977522
  0
ARC
  8
画層0
  6
CONTINUOUS
 10
65.0005340620329
 20
115.003722226377
 40
1.50107275250501
 50
0
 51
180
  0
ARC
  8
画層0
  6
CONTINUOUS
 10
80.001659273513
 20
115.003722226377
 40
1.50074986215356
 50
0
 51
180
  0
ARC
  8
画層0
  6
CONTINUOUS
 10
65.0005340620329
 20
105
 40
1.50107275250501
 50
180
 51
0
  0
ARC
  8
画層0
  6
CONTINUOUS
 10
80.001659273513
 20
105
 40
1.50074986215356
 50
180
 51
0
  0
LINE
  8
画層0
  6
CONTINUOUS
 10
63.4994613095279
 20
115.003722226377
 11
63.4994613095279
 21
105
  0
LINE
  8
画層0
  6
CONTINUOUS
 10
66.5016068145379
 20
105
 11
66.5016068145379
 21
115.003722226377
  0
LINE
  8
画層0
  6
CONTINUOUS
 10
78.5009094113595
 20
115.003722226377
 11
78.5009094113595
 21
105
  0
LINE
  8
画層0
  6
CONTINUOUS
 10
81.5024091356666
 20
105
 11
81.5024091356666
 21
115.003722226377
  0
LINE
  8
画層0
  6
CONTINUOUS
 10
84.9991374001778
 20
92.0027340261133
 11
60
 21
92.0027340261133
  0
LINE
  8
画層0
  6
CONTINUOUS
 10
130
 20
70
 11
130
 21
40
  0
LINE
  8
画層0
  6
CONTINUOUS
 10
130
 20
40
 11
160
 21
40
  0
LINE
  8
画層0
  6
CONTINUOUS
 10
160
 20
40
 11
160
 21
41.9951334570897
  0
LINE
  8
画層0
  6
CONTINUOUS
 10
130
 20
70
 11
132.004538357332
 21
70
  0
LINE
  8
画層0
  6
CONTINUOUS
 10
132.004538357332
 20
70
 11
132.004538357332
 21
41.9951334570897
  0
LINE
  8
画層0
  6
CONTINUOUS
 10
132.004538357332
 20
41.9951334570897
 11
160
 21
41.9951334570897
  0
LINE
  8
画層2
  6
DOT
 10
84.9982680943884
 20
41.9951334570897
 11
60
 21
41.9951334570897
  0
LINE
  8
画層2
  6
DOT
 10
80
 20
92.0027340261133
 11
80
 21
90
  0
LINE
  8
画層2
  6
DOT
 10
82.9964510570984
 20
92.0027340261133
 11
82.9964510570984
 21
90
  0
LINE
  8
画層2
  6
DOT
 10
66.4993505657664
 20
90
 11
66.4993505657664
 21
91.9811329283442
  0
LINE
  8
画層2
  6
DOT
 10
65.0017981255236
 20
92.0027340261133
 11
65.0017981255236
 21
90
  0
LINE
  8
画層2
  6
DOT
 10
62.0020165412388
 20
92.0027340261133
 11
62.0020165412388
 21
90
  0
LINE
  8
画層2
  6
DOT
 10
78.5001600076631
 20
92.0027340261133
 11
78.5001600076631
 21
90
  0
LINE
  8
画層2
  6
DOT
 10
130
 20
63.4990348532078
 11
132.004538357332
 21
63.4990348532078
  0
LINE
  8
画層2
  6
DOT
 10
130
 20
51.4985985845628
 11
132.004538357332
 21
51.4985985845628
  0
LINE
  8
画層2
  6
DOT
 10
130
 20
58.9939720029514
 11
132.004538357332
 21
58.9939720029514
  0
LINE
  8
画層2
  6
DOT
 10
130
 20
56.0036618493501
 11
132.004538357332
 21
56.0036618493501
  0
LINE
  8
画層2
  6
DOT
 10
143.497004471691
 20
41.9951334570897
 11
143.497004471691
 21
40
  0
LINE
  8
画層2
  6
DOT
 10
156.501763174123
 20
40
 11
156.501763174123
 21
41.9951334570897
  0
LINE
  8
画層2
  6
DOT
 10
81.5024091356666
 20
40
 11
81.5024091356666
 21
41.9951334570897
  0
LINE
  8
画層2
  6
DOT
 10
78.5009094113595
 20
41.9951334570897
 11
78.5009094113595
 21
40
  0
LINE
  8
画層2
  6
DOT
 10
63.4994613095279
 20
41.9951334570897
 11
63.4994613095279
 21
40
  0
LINE
  8
画層2
  6
DOT
 10
66.4993505657664
 20
41.9951334570897
 11
66.4993505657664
 21
40
  0
LINE
  8
画層3
  6
CONTINUOUS
 10
129
 20
57.4988167188853
 11
117
 21
57.4988167188853
  0
LINE
  8
画層3
  6
CONTINUOUS
 10
120
 20
57.4988167188853
 11
120
 21
70
  0
POLYLINE
  8
画層3
  6
CONTINUOUS
 10
0.0
 20
0.0
 30
0.0
 66
1
 70
     1
  0
VERTEX
  8
画層3
 10
120
  20
57.4988167188853
  0
VERTEX
  8
画層3
 10
119.611771432346
  20
58.9477054583189
  0
VERTEX
  8
画層3
 10
120.388228567654
  20
58.9477054583189
  0
SEQEND
100
AcDbEntity
  8
画層3
  0
POLYLINE
  8
画層3
  6
CONTINUOUS
 10
0.0
 20
0.0
 30
0.0
 66
1
 70
     1
  0
VERTEX
  8
画層3
 10
120
  20
70
  0
VERTEX
  8
画層3
 10
120.388228567654
  20
68.5511112605664
  0
VERTEX
  8
画層3
 10
119.611771432346
  20
68.5511112605664
  0
SEQEND
100
AcDbEntity
  8
画層3
  0
TEXT
  8
画層3
 62
7
  6
CONTINUOUS
 62
7
 10
119.75
 20
53.2494083594426
 40
9
  1
12.5
  7
Font_0
 50
90
 72
1
 11
110.75
 21
63.7494083594426
 73
3
  0
LINE
  8
画層3
  6
CONTINUOUS
 10
129
 20
70
 11
117
 21
70
  0
LINE
  8
画層3
  6
CONTINUOUS
 10
67.4512423882164
 20
54.2558213275366
 11
77.5478950119614
 21
60.741812110234
  0
POLYLINE
  8
画層3
  6
CONTINUOUS
 10
0.0
 20
0.0
 30
0.0
 66
1
 70
     1
  0
VERTEX
  8
画層3
 10
67.4512423882164
  20
54.2558213275366
  0
VERTEX
  8
画層3
 10
65.4328358719837
  20
52.0363540186471
  0
VERTEX
  8
画層3
 10
64.5935174155501
  20
53.3429095132855
  0
SEQEND
100
AcDbEntity
  8
画層3
  0
POLYLINE
  8
画層3
  6
CONTINUOUS
 10
0.0
 20
0.0
 30
0.0
 66
1
 70
     1
  0
VERTEX
  8
画層3
 10
77.5478950119614
  20
60.741812110234
  0
VERTEX
  8
画層3
 10
79.5663015281941
  20
62.9612794191235
  0
VERTEX
  8
画層3
 10
80.4056199846277
  20
61.6547239244851
  0
SEQEND
100
AcDbEntity
  8
画層3
  0
TEXT
  8
画層3
 62
7
  6
CONTINUOUS
 62
7
 10
90.4229251324367
 20
69.3097443724644
 40
9
  1
%%c12
  7
Font_0
 50
32.7162920645838
 72
2
 11
102.385751501151
 21
87.6915501943089
 73
3
  0
LINE
  8
画層3
  6
CONTINUOUS
 10
77.5478950119614
 20
60.741812110234
 11
107.385187638044
 21
79.9089967371765
  0
LINE
  8
画層3
  6
CONTINUOUS
 10
67.4512423882164
 20
54.2558213275366
 11
62.4030996052116
 21
51.0129438333354
  0
LINE
  8
画層3
  6
CONTINUOUS
 10
130
 20
71
 11
130
 21
83.0000000000007
  0
LINE
  8
画層3
  6
CONTINUOUS
 10
130
 20
80.0000000000007
 11
132.004538357332
 21
80.0000000000007
  0
POLYLINE
  8
画層3
  6
CONTINUOUS
 10
0.0
 20
0.0
 30
0.0
 66
1
 70
     1
  0
VERTEX
  8
画層3
 10
130
  20
80.0000000000007
  0
VERTEX
  8
画層3
 10
131.448888739434
  20
80.3882285676545
  0
VERTEX
  8
画層3
 10
131.448888739434
  20
79.6117714323469
  0
SEQEND
100
AcDbEntity
  8
画層3
  0
POLYLINE
  8
画層3
  6
CONTINUOUS
 10
0.0
 20
0.0
 30
0.0
 66
1
 70
     1
  0
VERTEX
  8
画層3
 10
132.004538357332
  20
80.0000000000007
  0
VERTEX
  8
画層3
 10
130.555649617898
  20
79.6117714323469
  0
VERTEX
  8
画層3
 10
130.555649617898
  20
80.3882285676545
  0
SEQEND
100
AcDbEntity
  8
画層3
  0
TEXT
  8
画層3
 62
7
  6
CONTINUOUS
 62
7
 10
128.752269178666
 20
80.2500000000007
 40
9
  1
2
  7
Font_0
 72
1
 11
131.002269178666
 21
89.2500000000007
 73
3
  0
LINE
  8
画層3
  6
CONTINUOUS
 10
132.004538357332
 20
71
 11
132.004538357332
 21
83.0000000000007
  0
LINE
  8
画層3
  6
CONTINUOUS
 10
161
 20
40
 11
173
 21
40
  0
LINE
  8
画層3
  6
CONTINUOUS
 10
170
 20
40
 11
170
 21
41.9951334570897
  0
POLYLINE
  8
画層3
  6
CONTINUOUS
 10
0.0
 20
0.0
 30
0.0
 66
1
 70
     1
  0
VERTEX
  8
画層3
 10
170
  20
40
  0
VERTEX
  8
画層3
 10
169.611771432346
  20
41.4488887394336
  0
VERTEX
  8
画層3
 10
170.388228567654
  20
41.4488887394336
  0
SEQEND
100
AcDbEntity
  8
画層3
  0
POLYLINE
  8
画層3
  6
CONTINUOUS
 10
0.0
 20
0.0
 30
0.0
 66
1
 70
     1
  0
VERTEX
  8
画層3
 10
170
  20
41.9951334570897
  0
VERTEX
  8
画層3
 10
170.388228567654
  20
40.5462447176561
  0
VERTEX
  8
画層3
 10
169.611771432346
  20
40.5462447176561
  0
SEQEND
100
AcDbEntity
  8
画層3
  0
TEXT
  8
画層3
 62
7
  6
CONTINUOUS
 62
7
 10
169.75
 20
38.7475667285448
 40
9
  1
2
  7
Font_0
 50
90
 72
1
 11
160.75
 21
40.9975667285448
 73
3
  0
LINE
  8
画層3
  6
CONTINUOUS
 10
161
 20
41.9951334570897
 11
173
 21
41.9951334570897
  0
LINE
  8
画層3
  6
CONTINUOUS
 10
65.0005340620329
 20
116.003722226378
 11
65.0005340620329
 21
133
  0
LINE
  8
画層3
  6
CONTINUOUS
 10
65.0005340620329
 20
130
 11
80.001659273513
 21
130
  0
POLYLINE
  8
画層3
  6
CONTINUOUS
 10
0.0
 20
0.0
 30
0.0
 66
1
 70
     1
  0
VERTEX
  8
画層3
 10
65.0005340620329
  20
130
  0
VERTEX
  8
画層3
 10
66.4494228014665
  20
130.388228567654
  0
VERTEX
  8
画層3
 10
66.4494228014665
  20
129.611771432346
  0
SEQEND
100
AcDbEntity
  8
画層3
  0
POLYLINE
  8
画層3
  6
CONTINUOUS
 10
0.0
 20
0.0
 30
0.0
 66
1
 70
     1
  0
VERTEX
  8
画層3
 10
80.001659273513
  20
130
  0
VERTEX
  8
画層3
 10
78.5527705340794
  20
129.611771432346
  0
VERTEX
  8
画層3
 10
78.5527705340794
  20
130.388228567654
  0
SEQEND
100
AcDbEntity
  8
画層3
  0
TEXT
  8
画層3
 62
7
  6
CONTINUOUS
 62
7
 10
67.501096667773
 20
130.25
 40
9
  1
15
  7
Font_0
 72
1
 11
72.501096667773
 21
139.25
 73
3
  0
LINE
  8
画層3
  6
CONTINUOUS
 10
80.001659273513
 20
116.003722226378
 11
80.001659273513
 21
133
  0
LINE
  8
画層3
  6
CONTINUOUS
 10
64.0005340620329
 20
115.003722226377
 11
47
 21
115.003722226377
  0
LINE
  8
画層3
  6
CONTINUOUS
 10
50
 20
115.003722226377
 11
50
 21
105
  0
POLYLINE
  8
画層3
  6
CONTINUOUS
 10
0.0
 20
0.0
 30
0.0
 66
1
 70
     1
  0
VERTEX
  8
画層3
 10
50
  20
115.003722226377
  0
VERTEX
  8
画層3
 10
50.3882285676538
  20
113.554833486944
  0
VERTEX
  8
画層3
 10
49.6117714323462
  20
113.554833486944
  0
SEQEND
100
AcDbEntity
  8
画層3
  0
POLYLINE
  8
画層3
  6
CONTINUOUS
 10
0.0
 20
0.0
 30
0.0
 66
1
 70
     1
  0
VERTEX
  8
画層3
 10
50
  20
105
  0
VERTEX
  8
画層3
 10
49.6117714323462
  20
106.448888739434
  0
VERTEX
  8
画層3
 10
50.3882285676538
  20
106.448888739434
  0
SEQEND
100
AcDbEntity
  8
画層3
  0
TEXT
  8
画層3
 62
7
  6
CONTINUOUS
 62
7
 10
49.75
 20
105.001861113189
 40
9
  1
10
  7
Font_0
 50
90
 72
1
 11
40.75
 21
110.001861113189
 73
3
  0
LINE
  8
画層3
  6
CONTINUOUS
 10
64.0005340620329
 20
105
 11
47
 21
105
  0
LINE
  8
画層3
  6
CONTINUOUS
 10
60
 20
39
 11
60
 21
27
  0
LINE
  8
画層3
  6
CONTINUOUS
 10
60
 20
30
 11
84.9982680943884
 21
30
  0
POLYLINE
  8
画層3
  6
CONTINUOUS
 10
0.0
 20
0.0
 30
0.0
 66
1
 70
     1
  0
VERTEX
  8
画層3
 10
60
  20
30
  0
VERTEX
  8
画層3
 10
61.4488887394336
  20
30.3882285676538
  0
VERTEX
  8
画層3
 10
61.4488887394336
  20
29.6117714323462
  0
SEQEND
100
AcDbEntity
  8
画層3
  0
POLYLINE
  8
画層3
  6
CONTINUOUS
 10
0.0
 20
0.0
 30
0.0
 66
1
 70
     1
  0
VERTEX
  8
画層3
 10
84.9982680943884
  20
30
  0
VERTEX
  8
画層3
 10
83.5493793549548
  20
29.6117714323462
  0
VERTEX
  8
画層3
 10
83.5493793549548
  20
30.3882285676538
  0
SEQEND
100
AcDbEntity
  8
画層3
  0
TEXT
  8
画層3
 62
7
  6
CONTINUOUS
 62
7
 10
67.4991340471942
 20
30.25
 40
9
  1
25
  7
Font_0
 50
360
 72
1
 11
72.4991340471942
 21
39.25
 73
3
  0
LINE
  8
画層3
  6
CONTINUOUS
 10
84.9982680943884
 20
39
 11
84.9982680943884
 21
27
  0
LINE
  8
画層3
  6
CONTINUOUS
 10
59
 20
40
 11
47
 21
40
  0
LINE
  8
画層3
  6
CONTINUOUS
 10
50
 20
40
 11
50
 21
70
  0
POLYLINE
  8
画層3
  6
CONTINUOUS
 10
0.0
 20
0.0
 30
0.0
 66
1
 70
     1
  0
VERTEX
  8
画層3
 10
50
  20
40
  0
VERTEX
  8
画層3
 10
49.6117714323462
  20
41.4488887394336
  0
VERTEX
  8
画層3
 10
50.3882285676538
  20
41.4488887394336
  0
SEQEND
100
AcDbEntity
  8
画層3
  0
POLYLINE
  8
画層3
  6
CONTINUOUS
 10
0.0
 20
0.0
 30
0.0
 66
1
 70
     1
  0
VERTEX
  8
画層3
 10
50
  20
70
  0
VERTEX
  8
画層3
 10
50.3882285676538
  20
68.5511112605664
  0
VERTEX
  8
画層3
 10
49.6117714323462
  20
68.5511112605664
  0
SEQEND
100
AcDbEntity
  8
画層3
  0
TEXT
  8
画層3
 62
7
  6
CONTINUOUS
 62
7
 10
49.75
 20
50
 40
9
  1
30
  7
Font_0
 50
90
 72
1
 11
40.75
 21
55
 73
3
  0
LINE
  8
画層3
  6
CONTINUOUS
 10
59
 20
70
 11
47
 21
70
  0
LINE
  8
画層1
  6
DASHDOT
 10
72.4995687000889
 20
170.488328430557
 11
72.4995687000889
 21
8.55463341597897
  0
LINE
  8
画層3
  6
CONTINUOUS
 10
80.8341729123753
 20
116.252389992383
 11
90
 21
130
  0
POLYLINE
  8
画層3
  6
CONTINUOUS
 10
0.0
 20
0.0
 30
0.0
 66
1
 70
     1
  0
VERTEX
  8
画層3
 10
80.8341729123753
  20
116.252389992383
  0
VERTEX
  8
画層3
 10
81.7956271249585
  20
119.094151030385
  0
VERTEX
  8
画層3
 10
83.0876972040489
  20
118.232700136486
  0
SEQEND
100
AcDbEntity
  8
画層3
  0
LINE
  8
画層3
  6
CONTINUOUS
 10
90
 20
130
 11
110
 21
130
  0
TEXT
  8
画層3
 62
7
  6
CONTINUOUS
 62
7
 10
90.3621067567725
 20
130.024989405034
 40
9
  1
3キリ
  7
Font_0
 11
90.3621067567725
 21
139.024989405034
 73
3
  0
LINE
  8
画層3
  6
CONTINUOUS
 10
82.1544902020509
 20
56.1538905642694
 11
90
 21
40
  0
POLYLINE
  8
画層3
  6
CONTINUOUS
 10
0.0
 20
0.0
 30
0.0
 66
1
 70
     1
  0
VERTEX
  8
画層3
 10
82.1544902020509
  20
56.1538905642694
  0
VERTEX
  8
画層3
 10
84.1188945995376
  20
53.8864877850669
  0
VERTEX
  8
画層3
 10
82.722012923979
  20
53.2080599581253
  0
SEQEND
100
AcDbEntity
  8
画層3
  0
LINE
  8
画層3
  6
CONTINUOUS
 10
90
 20
40
 11
110
 21
40
  0
TEXT
  8
画層3
 62
7
  6
CONTINUOUS
 62
7
 10
90.1237897019265
 20
39.9871685980355
 40
9
  1
3キリ
  7
Font_0
 11
90.1237897019265
 21
48.9871685980355
 73
3
  0
LINE
  8
画層3
  6
CONTINUOUS
 10
59
 20
120
 11
47.0000000000001
 21
120
  0
LINE
  8
画層3
  6
CONTINUOUS
 10
50.0000000000001
 20
120
 11
50.0000000000001
 21
115.003722226377
  0
POLYLINE
  8
画層3
  6
CONTINUOUS
 10
0.0
 20
0.0
 30
0.0
 66
1
 70
     1
  0
VERTEX
  8
画層3
 10
50.0000000000001
  20
120
  0
VERTEX
  8
画層3
 10
50.3882285676538
  20
118.551111260566
  0
VERTEX
  8
画層3
 10
49.6117714323463
  20
118.551111260566
  0
SEQEND
100
AcDbEntity
  8
画層3
  0
POLYLINE
  8
画層3
  6
CONTINUOUS
 10
0.0
 20
0.0
 30
0.0
 66
1
 70
     1
  0
VERTEX
  8
画層3
 10
50.0000000000001
  20
115.003722226377
  0
VERTEX
  8
画層3
 10
49.6117714323463
  20
116.452610965811
  0
VERTEX
  8
画層3
 10
50.3882285676538
  20
116.452610965811
  0
SEQEND
100
AcDbEntity
  8
画層3
  0
TEXT
  8
画層3
 62
7
  6
CONTINUOUS
 62
7
 10
49.7500000000001
 20
115.251861113189
 40
9
  1
5
  7
Font_0
 50
90
 72
1
 11
40.7500000000001
 21
117.501861113189
 73
3
  0
LINE
  8
画層3
  6
CONTINUOUS
 10
59
 20
115.003722226377
 11
47.0000000000001
 21
115.003722226377
  0
LINE
  8
画層3
  6
CONTINUOUS
 10
63.497863581014
 20
58.4988167188853
 11
63.497863581014
 21
83
  0
LINE
  8
画層3
  6
CONTINUOUS
 10
63.497863581014
 20
80
 11
81.5012957730323
 21
80
  0
POLYLINE
  8
画層3
  6
CONTINUOUS
 10
0.0
 20
0.0
 30
0.0
 66
1
 70
     1
  0
VERTEX
  8
画層3
 10
63.497863581014
  20
80
  0
VERTEX
  8
画層3
 10
64.9467523204476
  20
80.3882285676538
  0
VERTEX
  8
画層3
 10
64.9467523204476
  20
79.6117714323462
  0
SEQEND
100
AcDbEntity
  8
画層3
  0
POLYLINE
  8
画層3
  6
CONTINUOUS
 10
0.0
 20
0.0
 30
0.0
 66
1
 70
     1
  0
VERTEX
  8
画層3
 10
81.5012957730323
  20
80
  0
VERTEX
  8
画層3
 10
80.0524070335987
  20
79.6117714323462
  0
VERTEX
  8
画層3
 10
80.0524070335987
  20
80.3882285676538
  0
SEQEND
100
AcDbEntity
  8
画層3
  0
TEXT
  8
画層3
 62
7
  6
CONTINUOUS
 62
7
 10
67.4995796770232
 20
80.25
 40
9
  1
18
  7
Font_0
 72
1
 11
72.4995796770232
 21
89.25
 73
3
  0
LINE
  8
画層3
  6
CONTINUOUS
 10
81.5012957730323
 20
58.4988167188853
 11
81.5012957730323
 21
83
  0
LINE
  8
画層3
  6
CONTINUOUS
 10
59
 20
90
 11
37
 21
90
  0
LINE
  8
画層3
  6
CONTINUOUS
 10
40
 20
90
 11
40
 21
120
  0
POLYLINE
  8
画層3
  6
CONTINUOUS
 10
0.0
 20
0.0
 30
0.0
 66
1
 70
     1
  0
VERTEX
  8
画層3
 10
40
  20
90
  0
VERTEX
  8
画層3
 10
39.6117714323462
  20
91.4488887394336
  0
VERTEX
  8
画層3
 10
40.3882285676538
  20
91.4488887394336
  0
SEQEND
100
AcDbEntity
  8
画層3
  0
POLYLINE
  8
画層3
  6
CONTINUOUS
 10
0.0
 20
0.0
 30
0.0
 66
1
 70
     1
  0
VERTEX
  8
画層3
 10
40
  20
120
  0
VERTEX
  8
画層3
 10
40.3882285676538
  20
118.551111260566
  0
VERTEX
  8
画層3
 10
39.6117714323462
  20
118.551111260566
  0
SEQEND
100
AcDbEntity
  8
画層3
  0
TEXT
  8
画層3
 62
7
  6
CONTINUOUS
 62
7
 10
39.75
 20
100
 40
9
  1
30
  7
Font_0
 50
90
 72
1
 11
30.75
 21
105
 73
3
  0
LINE
  8
画層3
  6
CONTINUOUS
 10
59
 20
120
 11
37
 21
120
  0
ENDSEC
  0
EOF
