999
Outputted By AR_CAD Ver.1.4.1
  0
SECTION
  2
HEADER
  9
$ACADVER
  1
AC1009
  9
$DWGCODEPAGE
  3
DOS932
  9
$EXTMIN
 10
0
 20
0
  9
$EXTMAX
 10
297
 20
210
  9
$INSBASE
 10
0.0
 20
0.0
 30
0.0
  9
$HANDLING
 70
     1
  9
$LTSCALE
 40
1
  0
ENDSEC
  0
SECTION
  2
TABLES
  0
TABLE
  2
LTYPE
 70
     7
  0
LTYPE
  2
BYBLOCK
 70
    64
 3

 72
    65
 73
    0
 40
    0
  0
LTYPE
  2
BYLAYER
 70
    64
 3

 72
    65
 73
    0
 40
    0
  0
LTYPE
  2
CONTINUOUS
 70
    64
 3
CONTINUOUS
 72
    65
 73
    0
 40
    0
  0
LTYPE
  2
DASHED
 70
    64
 3

 72
    65
 73
    2
 40
    3.5
 49
    2.91666666666667
 49
    -0.583333333333333
  0
LTYPE
  2
DOT
 70
    64
 3

 72
    65
 73
    2
 40
    0.5
 49
    0.25
 49
    -0.25
  0
LTYPE
  2
DASHDOT
 70
    64
 3

 72
    65
 73
    4
 40
    3.5
 49
    1.84210526315789
 49
    -0.552631578947368
 49
    0.552631578947368
 49
    -0.552631578947368
  0
LTYPE
  2
DIVIDE
 70
    64
 3

 72
    65
 73
    6
 40
    3.5
 49
    1.4
 49
    -0.42
 49
    0.42
 49
    -0.42
 49
    0.42
 49
    -0.42
  0
LTYPE
  2
HIDDEN
 70
    64
 3

 72
    65
 73
    2
 40
    4
 49
    2
 49
    -2
  0
ENDTAB
  0
TABLE
  2
LAYER
 70
   257
  0
LAYER
  2
画層0
 70
    4
 62
7
  6
CONTINUOUS
  0
LAYER
  2
画層1
 70
    0
 62
-150
  6
CONTINUOUS
  0
LAYER
  2
画層2
 70
    4
 62
7
  6
CONTINUOUS
  0
LAYER
  2
画層3
 70
    4
 62
7
  6
CONTINUOUS
  0
LAYER
  2
画層4
 70
    0
 62
-6
  6
CONTINUOUS
  0
LAYER
  2
画層5
 70
    0
 62
-1
  6
CONTINUOUS
  0
LAYER
  2
画層6
 70
    0
 62
-7
  6
CONTINUOUS
  0
LAYER
  2
画層7
 70
    0
 62
-51
  6
CONTINUOUS
  0
LAYER
  2
画層8
 70
    0
 62
-61
  6
CONTINUOUS
  0
LAYER
  2
画層9
 70
    0
 62
-111
  6
CONTINUOUS
  0
LAYER
  2
画層10
 70
    0
 62
-91
  6
CONTINUOUS
  0
LAYER
  2
画層11
 70
    0
 62
-131
  6
CONTINUOUS
  0
LAYER
  2
画層12
 70
    0
 62
-161
  6
CONTINUOUS
  0
LAYER
  2
画層13
 70
    0
 62
-5
  6
CONTINUOUS
  0
LAYER
  2
画層14
 70
    0
 62
-7
  6
CONTINUOUS
  0
LAYER
  2
画層15
 70
    0
 62
-11
  6
CONTINUOUS
  0
LAYER
  2
画層16
 70
    0
 62
7
  6
CONTINUOUS
  0
LAYER
  2
画層17
 70
    0
 62
70
  6
CONTINUOUS
  0
LAYER
  2
画層18
 70
    0
 62
211
  6
CONTINUOUS
  0
LAYER
  2
画層19
 70
    0
 62
137
  6
CONTINUOUS
  0
LAYER
  2
画層20
 70
    0
 62
4
  6
CONTINUOUS
  0
LAYER
  2
画層21
 70
    0
 62
131
  6
CONTINUOUS
  0
LAYER
  2
画層22
 70
    0
 62
4
  6
CONTINUOUS
  0
LAYER
  2
画層23
 70
    0
 62
4
  6
CONTINUOUS
  0
LAYER
  2
画層24
 70
    0
 62
7
  6
CONTINUOUS
  0
LAYER
  2
画層25
 70
    0
 62
7
  6
CONTINUOUS
  0
LAYER
  2
画層26
 70
    0
 62
7
  6
CONTINUOUS
  0
LAYER
  2
画層27
 70
    0
 62
7
  6
CONTINUOUS
  0
LAYER
  2
画層28
 70
    0
 62
7
  6
CONTINUOUS
  0
LAYER
  2
画層29
 70
    0
 62
7
  6
CONTINUOUS
  0
LAYER
  2
画層30
 70
    0
 62
7
  6
CONTINUOUS
  0
LAYER
  2
画層31
 70
    0
 62
7
  6
CONTINUOUS
  0
LAYER
  2
画層32
 70
    0
 62
7
  6
CONTINUOUS
  0
LAYER
  2
画層33
 70
    0
 62
7
  6
CONTINUOUS
  0
LAYER
  2
画層34
 70
    0
 62
7
  6
CONTINUOUS
  0
LAYER
  2
画層35
 70
    0
 62
7
  6
CONTINUOUS
  0
LAYER
  2
画層36
 70
    0
 62
7
  6
CONTINUOUS
  0
LAYER
  2
画層37
 70
    0
 62
7
  6
CONTINUOUS
  0
LAYER
  2
画層38
 70
    0
 62
7
  6
CONTINUOUS
  0
LAYER
  2
画層39
 70
    0
 62
7
  6
CONTINUOUS
  0
LAYER
  2
画層40
 70
    0
 62
7
  6
CONTINUOUS
  0
LAYER
  2
画層41
 70
    0
 62
7
  6
CONTINUOUS
  0
LAYER
  2
画層42
 70
    0
 62
7
  6
CONTINUOUS
  0
LAYER
  2
画層43
 70
    0
 62
7
  6
CONTINUOUS
  0
LAYER
  2
画層44
 70
    0
 62
7
  6
CONTINUOUS
  0
LAYER
  2
画層45
 70
    0
 62
7
  6
CONTINUOUS
  0
LAYER
  2
画層46
 70
    0
 62
7
  6
CONTINUOUS
  0
LAYER
  2
画層47
 70
    0
 62
7
  6
CONTINUOUS
  0
LAYER
  2
画層48
 70
    0
 62
7
  6
CONTINUOUS
  0
LAYER
  2
画層49
 70
    0
 62
7
  6
CONTINUOUS
  0
LAYER
  2
画層50
 70
    0
 62
7
  6
CONTINUOUS
  0
LAYER
  2
画層51
 70
    0
 62
7
  6
CONTINUOUS
  0
LAYER
  2
画層52
 70
    0
 62
7
  6
CONTINUOUS
  0
LAYER
  2
画層53
 70
    0
 62
7
  6
CONTINUOUS
  0
LAYER
  2
画層54
 70
    0
 62
7
  6
CONTINUOUS
  0
LAYER
  2
画層55
 70
    0
 62
7
  6
CONTINUOUS
  0
LAYER
  2
画層56
 70
    0
 62
7
  6
CONTINUOUS
  0
LAYER
  2
画層57
 70
    0
 62
7
  6
CONTINUOUS
  0
LAYER
  2
画層58
 70
    0
 62
7
  6
CONTINUOUS
  0
LAYER
  2
画層59
 70
    0
 62
7
  6
CONTINUOUS
  0
LAYER
  2
画層60
 70
    0
 62
7
  6
CONTINUOUS
  0
LAYER
  2
画層61
 70
    0
 62
7
  6
CONTINUOUS
  0
LAYER
  2
画層62
 70
    0
 62
7
  6
CONTINUOUS
  0
LAYER
  2
画層63
 70
    0
 62
7
  6
CONTINUOUS
  0
LAYER
  2
画層64
 70
    0
 62
7
  6
CONTINUOUS
  0
LAYER
  2
画層65
 70
    0
 62
7
  6
CONTINUOUS
  0
LAYER
  2
画層66
 70
    0
 62
7
  6
CONTINUOUS
  0
LAYER
  2
画層67
 70
    0
 62
7
  6
CONTINUOUS
  0
LAYER
  2
画層68
 70
    0
 62
7
  6
CONTINUOUS
  0
LAYER
  2
画層69
 70
    0
 62
7
  6
CONTINUOUS
  0
LAYER
  2
画層70
 70
    0
 62
7
  6
CONTINUOUS
  0
LAYER
  2
画層71
 70
    0
 62
7
  6
CONTINUOUS
  0
LAYER
  2
画層72
 70
    0
 62
7
  6
CONTINUOUS
  0
LAYER
  2
画層73
 70
    0
 62
7
  6
CONTINUOUS
  0
LAYER
  2
画層74
 70
    0
 62
7
  6
CONTINUOUS
  0
LAYER
  2
画層75
 70
    0
 62
7
  6
CONTINUOUS
  0
LAYER
  2
画層76
 70
    0
 62
7
  6
CONTINUOUS
  0
LAYER
  2
画層77
 70
    0
 62
7
  6
CONTINUOUS
  0
LAYER
  2
画層78
 70
    0
 62
7
  6
CONTINUOUS
  0
LAYER
  2
画層79
 70
    0
 62
7
  6
CONTINUOUS
  0
LAYER
  2
画層80
 70
    0
 62
7
  6
CONTINUOUS
  0
LAYER
  2
画層81
 70
    0
 62
7
  6
CONTINUOUS
  0
LAYER
  2
画層82
 70
    0
 62
7
  6
CONTINUOUS
  0
LAYER
  2
画層83
 70
    0
 62
7
  6
CONTINUOUS
  0
LAYER
  2
画層84
 70
    0
 62
7
  6
CONTINUOUS
  0
LAYER
  2
画層85
 70
    0
 62
7
  6
CONTINUOUS
  0
LAYER
  2
画層86
 70
    0
 62
7
  6
CONTINUOUS
  0
LAYER
  2
画層87
 70
    0
 62
7
  6
CONTINUOUS
  0
LAYER
  2
画層88
 70
    0
 62
7
  6
CONTINUOUS
  0
LAYER
  2
画層89
 70
    0
 62
7
  6
CONTINUOUS
  0
LAYER
  2
画層90
 70
    0
 62
7
  6
CONTINUOUS
  0
LAYER
  2
画層91
 70
    0
 62
7
  6
CONTINUOUS
  0
LAYER
  2
画層92
 70
    0
 62
7
  6
CONTINUOUS
  0
LAYER
  2
画層93
 70
    0
 62
7
  6
CONTINUOUS
  0
LAYER
  2
画層94
 70
    0
 62
7
  6
CONTINUOUS
  0
LAYER
  2
画層95
 70
    0
 62
7
  6
CONTINUOUS
  0
LAYER
  2
画層96
 70
    0
 62
7
  6
CONTINUOUS
  0
LAYER
  2
画層97
 70
    0
 62
7
  6
CONTINUOUS
  0
LAYER
  2
画層98
 70
    0
 62
7
  6
CONTINUOUS
  0
LAYER
  2
画層99
 70
    0
 62
7
  6
CONTINUOUS
  0
LAYER
  2
画層100
 70
    0
 62
7
  6
CONTINUOUS
  0
LAYER
  2
画層101
 70
    0
 62
7
  6
CONTINUOUS
  0
LAYER
  2
画層102
 70
    0
 62
7
  6
CONTINUOUS
  0
LAYER
  2
画層103
 70
    0
 62
7
  6
CONTINUOUS
  0
LAYER
  2
画層104
 70
    0
 62
7
  6
CONTINUOUS
  0
LAYER
  2
画層105
 70
    0
 62
7
  6
CONTINUOUS
  0
LAYER
  2
画層106
 70
    0
 62
7
  6
CONTINUOUS
  0
LAYER
  2
画層107
 70
    0
 62
7
  6
CONTINUOUS
  0
LAYER
  2
画層108
 70
    0
 62
7
  6
CONTINUOUS
  0
LAYER
  2
画層109
 70
    0
 62
7
  6
CONTINUOUS
  0
LAYER
  2
画層110
 70
    0
 62
7
  6
CONTINUOUS
  0
LAYER
  2
画層111
 70
    0
 62
7
  6
CONTINUOUS
  0
LAYER
  2
画層112
 70
    0
 62
7
  6
CONTINUOUS
  0
LAYER
  2
画層113
 70
    0
 62
7
  6
CONTINUOUS
  0
LAYER
  2
画層114
 70
    0
 62
7
  6
CONTINUOUS
  0
LAYER
  2
画層115
 70
    0
 62
7
  6
CONTINUOUS
  0
LAYER
  2
画層116
 70
    0
 62
7
  6
CONTINUOUS
  0
LAYER
  2
画層117
 70
    0
 62
7
  6
CONTINUOUS
  0
LAYER
  2
画層118
 70
    0
 62
7
  6
CONTINUOUS
  0
LAYER
  2
画層119
 70
    0
 62
7
  6
CONTINUOUS
  0
LAYER
  2
画層120
 70
    0
 62
7
  6
CONTINUOUS
  0
LAYER
  2
画層121
 70
    0
 62
7
  6
CONTINUOUS
  0
LAYER
  2
画層122
 70
    0
 62
7
  6
CONTINUOUS
  0
LAYER
  2
画層123
 70
    0
 62
7
  6
CONTINUOUS
  0
LAYER
  2
画層124
 70
    0
 62
7
  6
CONTINUOUS
  0
LAYER
  2
画層125
 70
    0
 62
7
  6
CONTINUOUS
  0
LAYER
  2
画層126
 70
    0
 62
7
  6
CONTINUOUS
  0
LAYER
  2
画層127
 70
    0
 62
7
  6
CONTINUOUS
  0
LAYER
  2
画層128
 70
    0
 62
7
  6
CONTINUOUS
  0
LAYER
  2
画層129
 70
    0
 62
7
  6
CONTINUOUS
  0
LAYER
  2
画層130
 70
    0
 62
7
  6
CONTINUOUS
  0
LAYER
  2
画層131
 70
    0
 62
7
  6
CONTINUOUS
  0
LAYER
  2
画層132
 70
    0
 62
7
  6
CONTINUOUS
  0
LAYER
  2
画層133
 70
    0
 62
7
  6
CONTINUOUS
  0
LAYER
  2
画層134
 70
    0
 62
7
  6
CONTINUOUS
  0
LAYER
  2
画層135
 70
    0
 62
7
  6
CONTINUOUS
  0
LAYER
  2
画層136
 70
    0
 62
7
  6
CONTINUOUS
  0
LAYER
  2
画層137
 70
    0
 62
7
  6
CONTINUOUS
  0
LAYER
  2
画層138
 70
    0
 62
7
  6
CONTINUOUS
  0
LAYER
  2
画層139
 70
    0
 62
7
  6
CONTINUOUS
  0
LAYER
  2
画層140
 70
    0
 62
7
  6
CONTINUOUS
  0
LAYER
  2
画層141
 70
    0
 62
7
  6
CONTINUOUS
  0
LAYER
  2
画層142
 70
    0
 62
7
  6
CONTINUOUS
  0
LAYER
  2
画層143
 70
    0
 62
7
  6
CONTINUOUS
  0
LAYER
  2
画層144
 70
    0
 62
7
  6
CONTINUOUS
  0
LAYER
  2
画層145
 70
    0
 62
7
  6
CONTINUOUS
  0
LAYER
  2
画層146
 70
    0
 62
7
  6
CONTINUOUS
  0
LAYER
  2
画層147
 70
    0
 62
7
  6
CONTINUOUS
  0
LAYER
  2
画層148
 70
    0
 62
7
  6
CONTINUOUS
  0
LAYER
  2
画層149
 70
    0
 62
7
  6
CONTINUOUS
  0
LAYER
  2
画層150
 70
    0
 62
7
  6
CONTINUOUS
  0
LAYER
  2
画層151
 70
    0
 62
7
  6
CONTINUOUS
  0
LAYER
  2
画層152
 70
    0
 62
7
  6
CONTINUOUS
  0
LAYER
  2
画層153
 70
    0
 62
7
  6
CONTINUOUS
  0
LAYER
  2
画層154
 70
    0
 62
7
  6
CONTINUOUS
  0
LAYER
  2
画層155
 70
    0
 62
7
  6
CONTINUOUS
  0
LAYER
  2
画層156
 70
    0
 62
7
  6
CONTINUOUS
  0
LAYER
  2
画層157
 70
    0
 62
7
  6
CONTINUOUS
  0
LAYER
  2
画層158
 70
    0
 62
7
  6
CONTINUOUS
  0
LAYER
  2
画層159
 70
    0
 62
7
  6
CONTINUOUS
  0
LAYER
  2
画層160
 70
    0
 62
7
  6
CONTINUOUS
  0
LAYER
  2
画層161
 70
    0
 62
7
  6
CONTINUOUS
  0
LAYER
  2
画層162
 70
    0
 62
7
  6
CONTINUOUS
  0
LAYER
  2
画層163
 70
    0
 62
7
  6
CONTINUOUS
  0
LAYER
  2
画層164
 70
    0
 62
7
  6
CONTINUOUS
  0
LAYER
  2
画層165
 70
    0
 62
7
  6
CONTINUOUS
  0
LAYER
  2
画層166
 70
    0
 62
7
  6
CONTINUOUS
  0
LAYER
  2
画層167
 70
    0
 62
7
  6
CONTINUOUS
  0
LAYER
  2
画層168
 70
    0
 62
7
  6
CONTINUOUS
  0
LAYER
  2
画層169
 70
    0
 62
7
  6
CONTINUOUS
  0
LAYER
  2
画層170
 70
    0
 62
7
  6
CONTINUOUS
  0
LAYER
  2
画層171
 70
    0
 62
7
  6
CONTINUOUS
  0
LAYER
  2
画層172
 70
    0
 62
7
  6
CONTINUOUS
  0
LAYER
  2
画層173
 70
    0
 62
7
  6
CONTINUOUS
  0
LAYER
  2
画層174
 70
    0
 62
7
  6
CONTINUOUS
  0
LAYER
  2
画層175
 70
    0
 62
7
  6
CONTINUOUS
  0
LAYER
  2
画層176
 70
    0
 62
7
  6
CONTINUOUS
  0
LAYER
  2
画層177
 70
    0
 62
7
  6
CONTINUOUS
  0
LAYER
  2
画層178
 70
    0
 62
7
  6
CONTINUOUS
  0
LAYER
  2
画層179
 70
    0
 62
7
  6
CONTINUOUS
  0
LAYER
  2
画層180
 70
    0
 62
7
  6
CONTINUOUS
  0
LAYER
  2
画層181
 70
    0
 62
7
  6
CONTINUOUS
  0
LAYER
  2
画層182
 70
    0
 62
7
  6
CONTINUOUS
  0
LAYER
  2
画層183
 70
    0
 62
7
  6
CONTINUOUS
  0
LAYER
  2
画層184
 70
    0
 62
7
  6
CONTINUOUS
  0
LAYER
  2
画層185
 70
    0
 62
7
  6
CONTINUOUS
  0
LAYER
  2
画層186
 70
    0
 62
7
  6
CONTINUOUS
  0
LAYER
  2
画層187
 70
    0
 62
7
  6
CONTINUOUS
  0
LAYER
  2
画層188
 70
    0
 62
7
  6
CONTINUOUS
  0
LAYER
  2
画層189
 70
    0
 62
7
  6
CONTINUOUS
  0
LAYER
  2
画層190
 70
    0
 62
7
  6
CONTINUOUS
  0
LAYER
  2
画層191
 70
    0
 62
7
  6
CONTINUOUS
  0
LAYER
  2
画層192
 70
    0
 62
7
  6
CONTINUOUS
  0
LAYER
  2
画層193
 70
    0
 62
7
  6
CONTINUOUS
  0
LAYER
  2
画層194
 70
    0
 62
7
  6
CONTINUOUS
  0
LAYER
  2
画層195
 70
    0
 62
7
  6
CONTINUOUS
  0
LAYER
  2
画層196
 70
    0
 62
7
  6
CONTINUOUS
  0
LAYER
  2
画層197
 70
    0
 62
7
  6
CONTINUOUS
  0
LAYER
  2
画層198
 70
    0
 62
7
  6
CONTINUOUS
  0
LAYER
  2
画層199
 70
    0
 62
7
  6
CONTINUOUS
  0
LAYER
  2
画層200
 70
    0
 62
7
  6
CONTINUOUS
  0
LAYER
  2
画層201
 70
    0
 62
7
  6
CONTINUOUS
  0
LAYER
  2
画層202
 70
    0
 62
7
  6
CONTINUOUS
  0
LAYER
  2
画層203
 70
    0
 62
7
  6
CONTINUOUS
  0
LAYER
  2
画層204
 70
    0
 62
7
  6
CONTINUOUS
  0
LAYER
  2
画層205
 70
    0
 62
7
  6
CONTINUOUS
  0
LAYER
  2
画層206
 70
    0
 62
7
  6
CONTINUOUS
  0
LAYER
  2
画層207
 70
    0
 62
7
  6
CONTINUOUS
  0
LAYER
  2
画層208
 70
    0
 62
7
  6
CONTINUOUS
  0
LAYER
  2
画層209
 70
    0
 62
7
  6
CONTINUOUS
  0
LAYER
  2
画層210
 70
    0
 62
7
  6
CONTINUOUS
  0
LAYER
  2
画層211
 70
    0
 62
7
  6
CONTINUOUS
  0
LAYER
  2
画層212
 70
    0
 62
7
  6
CONTINUOUS
  0
LAYER
  2
画層213
 70
    0
 62
7
  6
CONTINUOUS
  0
LAYER
  2
画層214
 70
    0
 62
7
  6
CONTINUOUS
  0
LAYER
  2
画層215
 70
    0
 62
7
  6
CONTINUOUS
  0
LAYER
  2
画層216
 70
    0
 62
7
  6
CONTINUOUS
  0
LAYER
  2
画層217
 70
    0
 62
7
  6
CONTINUOUS
  0
LAYER
  2
画層218
 70
    0
 62
7
  6
CONTINUOUS
  0
LAYER
  2
画層219
 70
    0
 62
7
  6
CONTINUOUS
  0
LAYER
  2
画層220
 70
    0
 62
7
  6
CONTINUOUS
  0
LAYER
  2
画層221
 70
    0
 62
7
  6
CONTINUOUS
  0
LAYER
  2
画層222
 70
    0
 62
7
  6
CONTINUOUS
  0
LAYER
  2
画層223
 70
    0
 62
7
  6
CONTINUOUS
  0
LAYER
  2
画層224
 70
    0
 62
7
  6
CONTINUOUS
  0
LAYER
  2
画層225
 70
    0
 62
7
  6
CONTINUOUS
  0
LAYER
  2
画層226
 70
    0
 62
7
  6
CONTINUOUS
  0
LAYER
  2
画層227
 70
    0
 62
7
  6
CONTINUOUS
  0
LAYER
  2
画層228
 70
    0
 62
7
  6
CONTINUOUS
  0
LAYER
  2
画層229
 70
    0
 62
7
  6
CONTINUOUS
  0
LAYER
  2
画層230
 70
    0
 62
7
  6
CONTINUOUS
  0
LAYER
  2
画層231
 70
    0
 62
7
  6
CONTINUOUS
  0
LAYER
  2
画層232
 70
    0
 62
7
  6
CONTINUOUS
  0
LAYER
  2
画層233
 70
    0
 62
7
  6
CONTINUOUS
  0
LAYER
  2
画層234
 70
    0
 62
7
  6
CONTINUOUS
  0
LAYER
  2
画層235
 70
    0
 62
7
  6
CONTINUOUS
  0
LAYER
  2
画層236
 70
    0
 62
7
  6
CONTINUOUS
  0
LAYER
  2
画層237
 70
    0
 62
7
  6
CONTINUOUS
  0
LAYER
  2
画層238
 70
    0
 62
7
  6
CONTINUOUS
  0
LAYER
  2
画層239
 70
    0
 62
7
  6
CONTINUOUS
  0
LAYER
  2
画層240
 70
    0
 62
7
  6
CONTINUOUS
  0
LAYER
  2
画層241
 70
    0
 62
7
  6
CONTINUOUS
  0
LAYER
  2
画層242
 70
    0
 62
7
  6
CONTINUOUS
  0
LAYER
  2
画層243
 70
    0
 62
7
  6
CONTINUOUS
  0
LAYER
  2
画層244
 70
    0
 62
7
  6
CONTINUOUS
  0
LAYER
  2
画層245
 70
    0
 62
7
  6
CONTINUOUS
  0
LAYER
  2
画層246
 70
    0
 62
7
  6
CONTINUOUS
  0
LAYER
  2
画層247
 70
    0
 62
7
  6
CONTINUOUS
  0
LAYER
  2
画層248
 70
    0
 62
7
  6
CONTINUOUS
  0
LAYER
  2
画層249
 70
    0
 62
7
  6
CONTINUOUS
  0
LAYER
  2
画層250
 70
    0
 62
7
  6
CONTINUOUS
  0
LAYER
  2
画層251
 70
    0
 62
7
  6
CONTINUOUS
  0
LAYER
  2
画層252
 70
    0
 62
7
  6
CONTINUOUS
  0
LAYER
  2
画層253
 70
    0
 62
7
  6
CONTINUOUS
  0
LAYER
  2
画層254
 70
    0
 62
7
  6
CONTINUOUS
  0
LAYER
  2
画層255
 70
    0
 62
7
  6
CONTINUOUS
  0
LAYER
  2
0
 70
   64
 62
    7
  6
CONTINUOUS
  0
ENDTAB
  0
TABLE
  2
STYLE
 70
     1
  0
STYLE
  2
Standard
 70
     0
 40
0.0
 41
1.0
 50
0.0
 71
     0
 42
3.2
  3
TXT
  4
BIGFONT
  0
STYLE
  2
Font_0
 70
     0
 40
0.0
 41
1.0
 50
0.0
 71
     0
 42
3.2
  3
txt
  4
BIGFONT
  0
ENDTAB
  0
ENDSEC
  0
SECTION
  2
ENTITIES
  0
LINE
  8
画層0
  6
CONTINUOUS
 10
50
 20
40
 11
50
 21
60
  0
LINE
  8
画層0
  6
CONTINUOUS
 10
50
 20
60
 11
190
 21
60
  0
LINE
  8
画層0
  6
CONTINUOUS
 10
190
 20
60
 11
190
 21
40
  0
LINE
  8
画層0
  6
CONTINUOUS
 10
190
 20
40
 11
50
 21
40
  0
CIRCLE
  8
画層0
  6
CONTINUOUS
 10
185
 20
50
 40
1.49960210654106
  0
LINE
  8
画層2
  6
CONTINUOUS
 10
50
 20
61
 11
50
 21
93
  0
LINE
  8
画層2
  6
CONTINUOUS
 10
50
 20
90
 11
190
 21
90
  0
POLYLINE
  8
画層2
  6
CONTINUOUS
 10
0.0
 20
0.0
 30
0.0
 66
1
 70
     1
  0
VERTEX
  8
画層2
 10
50
  20
90
  0
VERTEX
  8
画層2
 10
51.4488887394336
  20
90.3882285676538
  0
VERTEX
  8
画層2
 10
51.4488887394336
  20
89.6117714323462
  0
SEQEND
100
AcDbEntity
  8
画層2
  0
POLYLINE
  8
画層2
  6
CONTINUOUS
 10
0.0
 20
0.0
 30
0.0
 66
1
 70
     1
  0
VERTEX
  8
画層2
 10
190
  20
90
  0
VERTEX
  8
画層2
 10
188.551111260566
  20
89.6117714323462
  0
VERTEX
  8
画層2
 10
188.551111260566
  20
90.3882285676538
  0
SEQEND
100
AcDbEntity
  8
画層2
  0
TEXT
  8
画層2
 62
7
  6
CONTINUOUS
 62
7
 10
112.25
 20
90.25
 40
9
  1
140
  7
Font_0
 72
1
 11
120
 21
99.25
 73
3
  0
LINE
  8
画層2
  6
CONTINUOUS
 10
190
 20
61
 11
190
 21
93
  0
LINE
  8
画層2
  6
CONTINUOUS
 10
49
 20
40
 11
37
 21
40
  0
LINE
  8
画層2
  6
CONTINUOUS
 10
40
 20
40
 11
40
 21
60
  0
POLYLINE
  8
画層2
  6
CONTINUOUS
 10
0.0
 20
0.0
 30
0.0
 66
1
 70
     1
  0
VERTEX
  8
画層2
 10
40
  20
40
  0
VERTEX
  8
画層2
 10
39.6117714323462
  20
41.4488887394336
  0
VERTEX
  8
画層2
 10
40.3882285676538
  20
41.4488887394336
  0
SEQEND
100
AcDbEntity
  8
画層2
  0
POLYLINE
  8
画層2
  6
CONTINUOUS
 10
0.0
 20
0.0
 30
0.0
 66
1
 70
     1
  0
VERTEX
  8
画層2
 10
40
  20
60
  0
VERTEX
  8
画層2
 10
40.3882285676538
  20
58.5511112605664
  0
VERTEX
  8
画層2
 10
39.6117714323462
  20
58.5511112605664
  0
SEQEND
100
AcDbEntity
  8
画層2
  0
TEXT
  8
画層2
 62
7
  6
CONTINUOUS
 62
7
 10
39.75
 20
45
 40
9
  1
20
  7
Font_0
 50
90
 72
1
 11
30.75
 21
50
 73
3
  0
LINE
  8
画層2
  6
CONTINUOUS
 10
49
 20
60
 11
37
 21
60
  0
LINE
  8
画層2
  6
CONTINUOUS
 10
50
 20
51
 11
50
 21
73
  0
LINE
  8
画層2
  6
CONTINUOUS
 10
190
 20
51
 11
190
 21
73
  0
LINE
  8
画層0
  6
CONTINUOUS
 10
80
 20
50
 11
80
 21
56.7500113668113
  0
LINE
  8
画層0
  6
CONTINUOUS
 10
80
 20
50
 11
80
 21
43.2484334902013
  0
LINE
  8
画層0
  6
CONTINUOUS
 10
80
 20
43.2484334902013
 11
95.9962273468494
 21
43.2484334902013
  0
LINE
  8
画層0
  6
CONTINUOUS
 10
95.9962273468494
 20
56.7500113668113
 11
80
 21
56.7500113668113
  0
LINE
  8
画層0
  6
CONTINUOUS
 10
95.9962273468494
 20
56.7500113668113
 11
95.9962273468494
 21
43.2484334902013
  0
LINE
  8
画層0
  6
CONTINUOUS
 10
160
 20
56.7500113668113
 11
160
 21
43.2484334902013
  0
LINE
  8
画層0
  6
CONTINUOUS
 10
160
 20
56.7500113668113
 11
145.999374712723
 21
56.7500113668113
  0
LINE
  8
画層0
  6
CONTINUOUS
 10
145.999374712723
 20
56.7500113668113
 11
145.999374712723
 21
43.2484334902013
  0
LINE
  8
画層0
  6
CONTINUOUS
 10
113.002255861967
 20
56.7500113668113
 11
113.002255861967
 21
43.2484334902013
  0
LINE
  8
画層0
  6
CONTINUOUS
 10
113.002255861967
 20
43.2484334902013
 11
126.998584039608
 21
43.2484334902013
  0
LINE
  8
画層0
  6
CONTINUOUS
 10
126.998584039608
 20
43.2484334902013
 11
126.998584039608
 21
56.7500113668113
  0
LINE
  8
画層0
  6
CONTINUOUS
 10
113.002255861967
 20
56.7500113668113
 11
126.998584039608
 21
56.7500113668113
  0
LINE
  8
画層0
  6
CONTINUOUS
 10
145.999374712723
 20
43.2484334902013
 11
160
 21
43.2484334902013
  0
LINE
  8
画層0
  6
CONTINUOUS
 10
50
 20
110
 11
190
 21
110
  0
LINE
  8
画層0
  6
CONTINUOUS
 10
190
 20
115
 11
190
 21
110
  0
LINE
  8
画層0
  6
CONTINUOUS
 10
190
 20
115
 11
50
 21
115
  0
LINE
  8
画層0
  6
CONTINUOUS
 10
50
 20
115
 11
50
 21
110
  0
CIRCLE
  8
画層0
  6
CONTINUOUS
 10
87.9981136734247
 20
112.5
 40
1.49960210654106
  0
CIRCLE
  8
画層0
  6
CONTINUOUS
 10
120
 20
112.5
 40
1.49960210654106
  0
CIRCLE
  8
画層0
  6
CONTINUOUS
 10
152.999687356362
 20
112.5
 40
1.49960210654106
  0
LINE
  8
画層3
  6
DOT
 10
86.4985115668836
 20
60
 11
86.4985115668836
 21
56.7500113668113
  0
LINE
  8
画層3
  6
DOT
 10
89.4977157799658
 20
60
 11
89.4977157799658
 21
56.7500113668113
  0
LINE
  8
画層3
  6
DOT
 10
86.4985115668836
 20
40
 11
86.4985115668836
 21
43.2484334902013
  0
LINE
  8
画層3
  6
DOT
 10
89.4977157799658
 20
40
 11
89.4977157799658
 21
43.2484334902013
  0
LINE
  8
画層3
  6
DOT
 10
118.500397893459
 20
40
 11
118.500397893459
 21
43.2484334902013
  0
LINE
  8
画層3
  6
DOT
 10
121.499602106541
 20
40
 11
121.499602106541
 21
43.2484334902013
  0
LINE
  8
画層3
  6
DOT
 10
121.499602106541
 20
56.7500113668113
 11
121.499602106541
 21
60
  0
LINE
  8
画層3
  6
DOT
 10
118.500397893459
 20
60
 11
118.500397893459
 21
56.7500113668113
  0
LINE
  8
画層3
  6
DOT
 10
151.500085249821
 20
40
 11
151.500085249821
 21
43.2484334902013
  0
LINE
  8
画層3
  6
DOT
 10
154.499289462903
 20
40
 11
154.499289462903
 21
43.2484334902013
  0
LINE
  8
画層3
  6
DOT
 10
154.499289462903
 20
56.7500113668113
 11
154.499289462903
 21
60
  0
LINE
  8
画層3
  6
DOT
 10
151.500085249821
 20
56.7500113668113
 11
151.500085249821
 21
60
  0
CIRCLE
  8
画層0
  6
CONTINUOUS
 10
55
 20
50
 40
1.49960210654106
  0
LINE
  8
画層3
  6
DOT
 10
80
 20
110
 11
80
 21
115
  0
LINE
  8
画層3
  6
DOT
 10
95.9962273468494
 20
110
 11
95.9962273468494
 21
115
  0
LINE
  8
画層3
  6
DOT
 10
113.002255861967
 20
110
 11
113.002255861967
 21
115
  0
LINE
  8
画層3
  6
DOT
 10
126.998584039608
 20
110
 11
126.998584039608
 21
115
  0
LINE
  8
画層3
  6
DOT
 10
145.999374712723
 20
110
 11
145.999374712723
 21
115
  0
LINE
  8
画層3
  6
DOT
 10
160
 20
110
 11
160
 21
115
  0
LINE
  8
画層3
  6
CONTINUOUS
 10
55
 20
70
 11
55
 21
70
  0
LINE
  8
画層3
  6
DOT
 10
53.5003978934589
 20
110
 11
53.5003978934589
 21
115
  0
LINE
  8
画層3
  6
DOT
 10
56.4996021065411
 20
110
 11
56.4996021065411
 21
115
  0
LINE
  8
画層3
  6
DOT
 10
183.500397893459
 20
110
 11
183.500397893459
 21
115
  0
LINE
  8
画層3
  6
DOT
 10
186.499601132895
 20
110
 11
186.499601132895
 21
115
  0
LINE
  8
画層2
  6
CONTINUOUS
 10
55
 20
51
 11
55
 21
73
  0
LINE
  8
画層2
  6
CONTINUOUS
 10
55
 20
70
 11
50
 21
70
  0
POLYLINE
  8
画層2
  6
CONTINUOUS
 10
0.0
 20
0.0
 30
0.0
 66
1
 70
     1
  0
VERTEX
  8
画層2
 10
55
  20
70
  0
VERTEX
  8
画層2
 10
53.5511112605664
  20
69.6117714323462
  0
VERTEX
  8
画層2
 10
53.5511112605664
  20
70.3882285676538
  0
SEQEND
100
AcDbEntity
  8
画層2
  0
POLYLINE
  8
画層2
  6
CONTINUOUS
 10
0.0
 20
0.0
 30
0.0
 66
1
 70
     1
  0
VERTEX
  8
画層2
 10
50
  20
70
  0
VERTEX
  8
画層2
 10
51.4488887394336
  20
70.3882285676538
  0
VERTEX
  8
画層2
 10
51.4488887394336
  20
69.6117714323462
  0
SEQEND
100
AcDbEntity
  8
画層2
  0
TEXT
  8
画層2
 62
7
  6
CONTINUOUS
 62
7
 10
50.25
 20
70.25
 40
9
  1
5
  7
Font_0
 72
1
 11
52.5
 21
79.25
 73
3
  0
LINE
  8
画層2
  6
CONTINUOUS
 10
50
 20
51
 11
50
 21
73
  0
LINE
  8
画層2
  6
CONTINUOUS
 10
185
 20
51
 11
185
 21
73
  0
LINE
  8
画層2
  6
CONTINUOUS
 10
185
 20
70
 11
190
 21
70
  0
POLYLINE
  8
画層2
  6
CONTINUOUS
 10
0.0
 20
0.0
 30
0.0
 66
1
 70
     1
  0
VERTEX
  8
画層2
 10
185
  20
70
  0
VERTEX
  8
画層2
 10
186.448888739434
  20
70.3882285676538
  0
VERTEX
  8
画層2
 10
186.448888739434
  20
69.6117714323462
  0
SEQEND
100
AcDbEntity
  8
画層2
  0
POLYLINE
  8
画層2
  6
CONTINUOUS
 10
0.0
 20
0.0
 30
0.0
 66
1
 70
     1
  0
VERTEX
  8
画層2
 10
190
  20
70
  0
VERTEX
  8
画層2
 10
188.551111260566
  20
69.6117714323462
  0
VERTEX
  8
画層2
 10
188.551111260566
  20
70.3882285676538
  0
SEQEND
100
AcDbEntity
  8
画層2
  0
TEXT
  8
画層2
 62
7
  6
CONTINUOUS
 62
7
 10
185.25
 20
70.25
 40
9
  1
5
  7
Font_0
 72
1
 11
187.5
 21
79.25
 73
3
  0
LINE
  8
画層2
  6
CONTINUOUS
 10
190
 20
51
 11
190
 21
73
  0
LINE
  8
画層2
  6
CONTINUOUS
 10
80
 20
57.7500113668113
 11
80
 21
73
  0
LINE
  8
画層2
  6
CONTINUOUS
 10
80
 20
70
 11
95.9962273468494
 21
70
  0
POLYLINE
  8
画層2
  6
CONTINUOUS
 10
0.0
 20
0.0
 30
0.0
 66
1
 70
     1
  0
VERTEX
  8
画層2
 10
80
  20
70
  0
VERTEX
  8
画層2
 10
81.4488887394336
  20
70.3882285676538
  0
VERTEX
  8
画層2
 10
81.4488887394336
  20
69.6117714323462
  0
SEQEND
100
AcDbEntity
  8
画層2
  0
POLYLINE
  8
画層2
  6
CONTINUOUS
 10
0.0
 20
0.0
 30
0.0
 66
1
 70
     1
  0
VERTEX
  8
画層2
 10
95.9962273468494
  20
70
  0
VERTEX
  8
画層2
 10
94.5473386074158
  20
69.6117714323462
  0
VERTEX
  8
画層2
 10
94.5473386074158
  20
70.3882285676538
  0
SEQEND
100
AcDbEntity
  8
画層2
  0
TEXT
  8
画層2
 62
7
  6
CONTINUOUS
 62
7
 10
82.9981136734247
 20
70.25
 40
9
  1
16
  7
Font_0
 72
1
 11
87.9981136734247
 21
79.25
 73
3
  0
LINE
  8
画層2
  6
CONTINUOUS
 10
95.9962273468494
 20
57.7500113668113
 11
95.9962273468494
 21
73
  0
LINE
  8
画層2
  6
CONTINUOUS
 10
113.002255861967
 20
57.7500113668113
 11
113.002255861967
 21
73.0000000000001
  0
LINE
  8
画層2
  6
CONTINUOUS
 10
113.002255861967
 20
70.0000000000001
 11
126.998584039608
 21
70.0000000000001
  0
POLYLINE
  8
画層2
  6
CONTINUOUS
 10
0.0
 20
0.0
 30
0.0
 66
1
 70
     1
  0
VERTEX
  8
画層2
 10
113.002255861967
  20
70.0000000000001
  0
VERTEX
  8
画層2
 10
114.4511446014
  20
70.3882285676538
  0
VERTEX
  8
画層2
 10
114.4511446014
  20
69.6117714323463
  0
SEQEND
100
AcDbEntity
  8
画層2
  0
POLYLINE
  8
画層2
  6
CONTINUOUS
 10
0.0
 20
0.0
 30
0.0
 66
1
 70
     1
  0
VERTEX
  8
画層2
 10
126.998584039608
  20
70.0000000000001
  0
VERTEX
  8
画層2
 10
125.549695300175
  20
69.6117714323463
  0
VERTEX
  8
画層2
 10
125.549695300175
  20
70.3882285676538
  0
SEQEND
100
AcDbEntity
  8
画層2
  0
TEXT
  8
画層2
 62
7
  6
CONTINUOUS
 62
7
 10
115.000419950788
 20
70.2500000000001
 40
9
  1
14
  7
Font_0
 72
1
 11
120.000419950788
 21
79.2500000000001
 73
3
  0
LINE
  8
画層2
  6
CONTINUOUS
 10
126.998584039608
 20
57.7500113668113
 11
126.998584039608
 21
73.0000000000001
  0
LINE
  8
画層2
  6
CONTINUOUS
 10
145.999374712723
 20
57.7500113668113
 11
145.999374712723
 21
72.9999999999999
  0
LINE
  8
画層2
  6
CONTINUOUS
 10
145.999374712723
 20
69.9999999999999
 11
160
 21
69.9999999999999
  0
POLYLINE
  8
画層2
  6
CONTINUOUS
 10
0.0
 20
0.0
 30
0.0
 66
1
 70
     1
  0
VERTEX
  8
画層2
 10
145.999374712723
  20
69.9999999999999
  0
VERTEX
  8
画層2
 10
147.448263452157
  20
70.3882285676537
  0
VERTEX
  8
画層2
 10
147.448263452157
  20
69.6117714323461
  0
SEQEND
100
AcDbEntity
  8
画層2
  0
POLYLINE
  8
画層2
  6
CONTINUOUS
 10
0.0
 20
0.0
 30
0.0
 66
1
 70
     1
  0
VERTEX
  8
画層2
 10
160
  20
69.9999999999999
  0
VERTEX
  8
画層2
 10
158.551111260566
  20
69.6117714323461
  0
VERTEX
  8
画層2
 10
158.551111260566
  20
70.3882285676537
  0
SEQEND
100
AcDbEntity
  8
画層2
  0
TEXT
  8
画層2
 62
7
  6
CONTINUOUS
 62
7
 10
147.999687356362
 20
70.2499999999999
 40
9
  1
14
  7
Font_0
 72
1
 11
152.999687356362
 21
79.2499999999999
 73
3
  0
LINE
  8
画層2
  6
CONTINUOUS
 10
160
 20
57.7500113668113
 11
160
 21
72.9999999999999
  0
LINE
  8
画層2
  6
CONTINUOUS
 10
95.9962273468494
 20
69
 11
95.9962273468494
 21
66.9999999999999
  0
LINE
  8
画層2
  6
CONTINUOUS
 10
95.9962273468494
 20
69.9999999999999
 11
113.002255861967
 21
70
  0
POLYLINE
  8
画層2
  6
CONTINUOUS
 10
0.0
 20
0.0
 30
0.0
 66
1
 70
     1
  0
VERTEX
  8
画層2
 10
95.9962273468494
  20
69.9999999999999
  0
VERTEX
  8
画層2
 10
97.445116086283
  20
70.3882285676537
  0
VERTEX
  8
画層2
 10
97.445116086283
  20
69.6117714323462
  0
SEQEND
100
AcDbEntity
  8
画層2
  0
POLYLINE
  8
画層2
  6
CONTINUOUS
 10
0.0
 20
0.0
 30
0.0
 66
1
 70
     1
  0
VERTEX
  8
画層2
 10
113.002255861967
  20
70
  0
VERTEX
  8
画層2
 10
111.553367122533
  20
69.6117714323462
  0
VERTEX
  8
画層2
 10
111.553367122533
  20
70.3882285676538
  0
SEQEND
100
AcDbEntity
  8
画層2
  0
TEXT
  8
画層2
 62
7
  6
CONTINUOUS
 62
7
 10
99.4992416044081
 20
70.25
 40
9
  1
17
  7
Font_0
 72
1
 11
104.499241604408
 21
79.25
 73
3
  0
LINE
  8
画層2
  6
CONTINUOUS
 10
113.002255861967
 20
69.0000000000001
 11
113.002255861967
 21
67
  0
LINE
  8
画層2
  6
CONTINUOUS
 10
126.998584039609
 20
71.0000000000001
 11
126.998584039609
 21
73.0000000000002
  0
LINE
  8
画層2
  6
CONTINUOUS
 10
126.998584039608
 20
70.0000000000002
 11
145.999374712723
 21
70
  0
POLYLINE
  8
画層2
  6
CONTINUOUS
 10
0.0
 20
0.0
 30
0.0
 66
1
 70
     1
  0
VERTEX
  8
画層2
 10
126.998584039608
  20
70.0000000000002
  0
VERTEX
  8
画層2
 10
128.447472779042
  20
70.3882285676539
  0
VERTEX
  8
画層2
 10
128.447472779042
  20
69.6117714323464
  0
SEQEND
100
AcDbEntity
  8
画層2
  0
POLYLINE
  8
画層2
  6
CONTINUOUS
 10
0.0
 20
0.0
 30
0.0
 66
1
 70
     1
  0
VERTEX
  8
画層2
 10
145.999374712723
  20
70
  0
VERTEX
  8
画層2
 10
144.55048597329
  20
69.6117714323462
  0
VERTEX
  8
画層2
 10
144.55048597329
  20
70.3882285676538
  0
SEQEND
100
AcDbEntity
  8
画層2
  0
TEXT
  8
画層2
 62
7
  6
CONTINUOUS
 62
7
 10
131.498979376166
 20
70.2500000000001
 40
9
  1
19
  7
Font_0
 50
360
 72
1
 11
136.498979376166
 21
79.2500000000001
 73
3
  0
LINE
  8
画層2
  6
CONTINUOUS
 10
145.999374712723
 20
70.9999999999999
 11
145.999374712723
 21
73
  0
LINE
  8
画層2
  6
CONTINUOUS
 10
160
 20
70
 11
160
 21
70
  0
LINE
  8
画層2
  6
CONTINUOUS
 10
160
 20
70
 11
185
 21
70
  0
POLYLINE
  8
画層2
  6
CONTINUOUS
 10
0.0
 20
0.0
 30
0.0
 66
1
 70
     1
  0
VERTEX
  8
画層2
 10
160
  20
70
  0
VERTEX
  8
画層2
 10
161.448888739434
  20
70.3882285676538
  0
VERTEX
  8
画層2
 10
161.448888739434
  20
69.6117714323462
  0
SEQEND
100
AcDbEntity
  8
画層2
  0
POLYLINE
  8
画層2
  6
CONTINUOUS
 10
0.0
 20
0.0
 30
0.0
 66
1
 70
     1
  0
VERTEX
  8
画層2
 10
185
  20
70
  0
VERTEX
  8
画層2
 10
183.551111260566
  20
69.6117714323462
  0
VERTEX
  8
画層2
 10
183.551111260566
  20
70.3882285676538
  0
SEQEND
100
AcDbEntity
  8
画層2
  0
TEXT
  8
画層2
 62
7
  6
CONTINUOUS
 62
7
 10
167.5
 20
70.25
 40
9
  1
25
  7
Font_0
 72
1
 11
172.5
 21
79.25
 73
3
  0
LINE
  8
画層2
  6
CONTINUOUS
 10
185
 20
70
 11
185
 21
70
  0
LINE
  8
画層2
  6
CONTINUOUS
 10
55
 20
70
 11
55
 21
70
  0
LINE
  8
画層2
  6
CONTINUOUS
 10
55
 20
70
 11
80
 21
70
  0
POLYLINE
  8
画層2
  6
CONTINUOUS
 10
0.0
 20
0.0
 30
0.0
 66
1
 70
     1
  0
VERTEX
  8
画層2
 10
55
  20
70
  0
VERTEX
  8
画層2
 10
56.4488887394336
  20
70.3882285676538
  0
VERTEX
  8
画層2
 10
56.4488887394336
  20
69.6117714323462
  0
SEQEND
100
AcDbEntity
  8
画層2
  0
POLYLINE
  8
画層2
  6
CONTINUOUS
 10
0.0
 20
0.0
 30
0.0
 66
1
 70
     1
  0
VERTEX
  8
画層2
 10
80
  20
70
  0
VERTEX
  8
画層2
 10
78.5511112605664
  20
69.6117714323462
  0
VERTEX
  8
画層2
 10
78.5511112605664
  20
70.3882285676538
  0
SEQEND
100
AcDbEntity
  8
画層2
  0
TEXT
  8
画層2
 62
7
  6
CONTINUOUS
 62
7
 10
62.5
 20
70.25
 40
9
  1
25
  7
Font_0
 72
1
 11
67.5
 21
79.25
 73
3
  0
LINE
  8
画層2
  6
CONTINUOUS
 10
80
 20
70
 11
80
 21
70
  0
LINE
  8
画層2
  6
CONTINUOUS
 10
87.9981136734247
 20
113.5
 11
87.9981136734247
 21
123
  0
LINE
  8
画層2
  6
CONTINUOUS
 10
87.9981136734247
 20
120
 11
50
 21
120
  0
POLYLINE
  8
画層2
  6
CONTINUOUS
 10
0.0
 20
0.0
 30
0.0
 66
1
 70
     1
  0
VERTEX
  8
画層2
 10
87.9981136734247
  20
120
  0
VERTEX
  8
画層2
 10
86.5492249339911
  20
119.611771432346
  0
VERTEX
  8
画層2
 10
86.5492249339911
  20
120.388228567654
  0
SEQEND
100
AcDbEntity
  8
画層2
  0
POLYLINE
  8
画層2
  6
CONTINUOUS
 10
0.0
 20
0.0
 30
0.0
 66
1
 70
     1
  0
VERTEX
  8
画層2
 10
50
  20
120
  0
VERTEX
  8
画層2
 10
51.4488887394336
  20
120.388228567654
  0
VERTEX
  8
画層2
 10
51.4488887394336
  20
119.611771432346
  0
SEQEND
100
AcDbEntity
  8
画層2
  0
TEXT
  8
画層2
 62
7
  6
CONTINUOUS
 62
7
 10
63.9990568367123
 20
120.25
 40
9
  1
38
  7
Font_0
 72
1
 11
68.9990568367123
 21
129.25
 73
3
  0
LINE
  8
画層2
  6
CONTINUOUS
 10
50
 20
113.5
 11
50
 21
123
  0
LINE
  8
画層2
  6
CONTINUOUS
 10
87.9981136734247
 20
113.5
 11
87.9981136734247
 21
123
  0
LINE
  8
画層2
  6
CONTINUOUS
 10
87.9981136734247
 20
120
 11
120
 21
120
  0
POLYLINE
  8
画層2
  6
CONTINUOUS
 10
0.0
 20
0.0
 30
0.0
 66
1
 70
     1
  0
VERTEX
  8
画層2
 10
87.9981136734247
  20
120
  0
VERTEX
  8
画層2
 10
89.4470024128583
  20
120.388228567654
  0
VERTEX
  8
画層2
 10
89.4470024128583
  20
119.611771432346
  0
SEQEND
100
AcDbEntity
  8
画層2
  0
POLYLINE
  8
画層2
  6
CONTINUOUS
 10
0.0
 20
0.0
 30
0.0
 66
1
 70
     1
  0
VERTEX
  8
画層2
 10
120
  20
120
  0
VERTEX
  8
画層2
 10
118.551111260566
  20
119.611771432346
  0
VERTEX
  8
画層2
 10
118.551111260566
  20
120.388228567654
  0
SEQEND
100
AcDbEntity
  8
画層2
  0
TEXT
  8
画層2
 62
7
  6
CONTINUOUS
 62
7
 10
98.9990568367123
 20
120.25
 40
9
  1
32
  7
Font_0
 50
360
 72
1
 11
103.999056836712
 21
129.25
 73
3
  0
LINE
  8
画層2
  6
CONTINUOUS
 10
120
 20
113.5
 11
120
 21
123
  0
LINE
  8
画層2
  6
CONTINUOUS
 10
120
 20
113.5
 11
120
 21
123
  0
LINE
  8
画層2
  6
CONTINUOUS
 10
120
 20
120
 11
152.999687356362
 21
120
  0
POLYLINE
  8
画層2
  6
CONTINUOUS
 10
0.0
 20
0.0
 30
0.0
 66
1
 70
     1
  0
VERTEX
  8
画層2
 10
120
  20
120
  0
VERTEX
  8
画層2
 10
121.448888739434
  20
120.388228567654
  0
VERTEX
  8
画層2
 10
121.448888739434
  20
119.611771432346
  0
SEQEND
100
AcDbEntity
  8
画層2
  0
POLYLINE
  8
画層2
  6
CONTINUOUS
 10
0.0
 20
0.0
 30
0.0
 66
1
 70
     1
  0
VERTEX
  8
画層2
 10
152.999687356362
  20
120
  0
VERTEX
  8
画層2
 10
151.550798616928
  20
119.611771432346
  0
VERTEX
  8
画層2
 10
151.550798616928
  20
120.388228567654
  0
SEQEND
100
AcDbEntity
  8
画層2
  0
TEXT
  8
画層2
 62
7
  6
CONTINUOUS
 62
7
 10
131.499843678181
 20
120.25
 40
9
  1
33
  7
Font_0
 72
1
 11
136.499843678181
 21
129.25
 73
3
  0
LINE
  8
画層2
  6
CONTINUOUS
 10
152.999687356362
 20
113.5
 11
152.999687356362
 21
123
  0
LINE
  8
画層2
  6
CONTINUOUS
 10
152.999687356362
 20
113.5
 11
152.999687356362
 21
123
  0
LINE
  8
画層2
  6
CONTINUOUS
 10
152.999687356362
 20
120
 11
190
 21
120
  0
POLYLINE
  8
画層2
  6
CONTINUOUS
 10
0.0
 20
0.0
 30
0.0
 66
1
 70
     1
  0
VERTEX
  8
画層2
 10
152.999687356362
  20
120
  0
VERTEX
  8
画層2
 10
154.448576095795
  20
120.388228567654
  0
VERTEX
  8
画層2
 10
154.448576095795
  20
119.611771432346
  0
SEQEND
100
AcDbEntity
  8
画層2
  0
POLYLINE
  8
画層2
  6
CONTINUOUS
 10
0.0
 20
0.0
 30
0.0
 66
1
 70
     1
  0
VERTEX
  8
画層2
 10
190
  20
120
  0
VERTEX
  8
画層2
 10
188.551111260566
  20
119.611771432346
  0
VERTEX
  8
画層2
 10
188.551111260566
  20
120.388228567654
  0
SEQEND
100
AcDbEntity
  8
画層2
  0
TEXT
  8
画層2
 62
7
  6
CONTINUOUS
 62
7
 10
166.499843678181
 20
120.25
 40
9
  1
37
  7
Font_0
 50
360
 72
1
 11
171.499843678181
 21
129.25
 73
3
  0
LINE
  8
画層2
  6
CONTINUOUS
 10
190
 20
113.5
 11
190
 21
123
  0
LINE
  8
画層2
  6
CONTINUOUS
 10
79
 20
56.7500113668113
 11
67
 21
56.7500113668113
  0
LINE
  8
画層2
  6
CONTINUOUS
 10
70
 20
56.7500113668113
 11
70
 21
43.2484334902013
  0
POLYLINE
  8
画層2
  6
CONTINUOUS
 10
0.0
 20
0.0
 30
0.0
 66
1
 70
     1
  0
VERTEX
  8
画層2
 10
70
  20
56.7500113668113
  0
VERTEX
  8
画層2
 10
70.3882285676538
  20
55.3011226273777
  0
VERTEX
  8
画層2
 10
69.6117714323462
  20
55.3011226273777
  0
SEQEND
100
AcDbEntity
  8
画層2
  0
POLYLINE
  8
画層2
  6
CONTINUOUS
 10
0.0
 20
0.0
 30
0.0
 66
1
 70
     1
  0
VERTEX
  8
画層2
 10
70
  20
43.2484334902013
  0
VERTEX
  8
画層2
 10
69.6117714323462
  20
44.6973222296349
  0
VERTEX
  8
画層2
 10
70.3882285676538
  20
44.6973222296349
  0
SEQEND
100
AcDbEntity
  8
画層2
  0
TEXT
  8
画層2
 62
7
  6
CONTINUOUS
 62
7
 10
69.75
 20
39.4992224285063
 40
9
  1
13.5
  7
Font_0
 50
90
 72
1
 11
60.75
 21
49.9992224285063
 73
3
  0
LINE
  8
画層2
  6
CONTINUOUS
 10
79
 20
43.2484334902013
 11
67
 21
43.2484334902013
  0
LINE
  8
画層2
  6
CONTINUOUS
 10
185.99999935073
 20
50.0011395346529
 11
202.999978574102
 21
50.0205116126551
  0
LINE
  8
画層2
  6
CONTINUOUS
 10
199.999980521912
 20
50.0170930086963
 11
199.988585167983
 21
60.0170930086963
  0
POLYLINE
  8
画層2
  6
CONTINUOUS
 10
0.0
 20
0.0
 30
0.0
 66
1
 70
     1
  0
VERTEX
  8
画層2
 10
199.999980521912
  20
50.0170930086963
  0
VERTEX
  8
画層2
 10
199.610101147396
  20
51.4655384075041
  0
VERTEX
  8
画層2
 10
200.386557778573
  20
51.4664232073163
  0
SEQEND
100
AcDbEntity
  8
画層2
  0
POLYLINE
  8
画層2
  6
CONTINUOUS
 10
0.0
 20
0.0
 30
0.0
 66
1
 70
     1
  0
VERTEX
  8
画層2
 10
199.988585167983
  20
60.0170930086963
  0
VERTEX
  8
画層2
 10
200.378464542499
  20
58.5686476098885
  0
VERTEX
  8
画層2
 10
199.602007911322
  20
58.5677628100763
  0
SEQEND
100
AcDbEntity
  8
画層2
  0
TEXT
  8
画層2
 62
7
  6
CONTINUOUS
 62
7
 10
200.238585009365
 20
60.0173746460104
 40
9
  1
10
  7
Font_0
 50
-89.9347094596466
 72
1
 11
209.244276839202
 21
55.0276337042361
 73
3
  0
LINE
  8
画層2
  6
CONTINUOUS
 10
185.988603996802
 20
60.0011395346529
 11
202.988583220174
 21
60.0205116126551
  0
LINE
  8
画層2
  6
CONTINUOUS
 10
152.999687356362
 20
56.7500113668113
 11
170
 21
30
  0
POLYLINE
  8
画層2
  6
CONTINUOUS
 10
0.0
 20
0.0
 30
0.0
 66
1
 70
     1
  0
VERTEX
  8
画層2
 10
152.999687356362
  20
56.7500113668113
  0
VERTEX
  8
画層2
 10
155.209289358281
  20
54.7208098013886
  0
VERTEX
  8
画層2
 10
153.898658039566
  20
53.8878702607964
  0
SEQEND
100
AcDbEntity
  8
画層2
  0
LINE
  8
画層2
  6
CONTINUOUS
 10
55.8997612639246
 20
48.8003183147672
 11
70
 21
30
  0
POLYLINE
  8
画層2
  6
CONTINUOUS
 10
0.0
 20
0.0
 30
0.0
 66
1
 70
     1
  0
VERTEX
  8
画層2
 10
55.8997612639246
  20
48.8003183147672
  0
VERTEX
  8
画層2
 10
58.259593459491
  20
46.9479706128579
  0
VERTEX
  8
画層2
 10
57.0172620429989
  20
46.0162220504889
  0
SEQEND
100
AcDbEntity
  8
画層2
  0
LINE
  8
画層2
  6
CONTINUOUS
 10
70
 20
30
 11
90
 21
30
  0
LINE
  8
画層2
  6
CONTINUOUS
 10
120
 20
40
 11
125
 21
30
  0
POLYLINE
  8
画層2
  6
CONTINUOUS
 10
0.0
 20
0.0
 30
0.0
 66
1
 70
     1
  0
VERTEX
  8
画層2
 10
120
  20
40
  0
VERTEX
  8
画層2
 10
121.990409859748
  20
37.7553912166665
  0
VERTEX
  8
画層2
 10
120.601441110818
  20
37.0609068422015
  0
SEQEND
100
AcDbEntity
  8
画層2
  0
TEXT
  8
画層2
 62
7
  6
CONTINUOUS
 62
7
 10
125.709088359046
 20
29.663810122327
 40
9
  1
M3
  7
Font_0
 11
125.709088359046
 21
38.663810122327
 73
3
  0
TEXT
  8
画層2
 62
7
  6
CONTINUOUS
 62
7
 10
171.469088359047
 20
29.663810122327
 40
9
  1
M3
  7
Font_0
 11
171.469088359047
 21
38.663810122327
 73
3
  0
TEXT
  8
画層2
 62
7
  6
CONTINUOUS
 62
7
 10
70.1132174336699
 20
30.1973400830749
 40
9
  1
3キリ
  7
Font_0
 11
70.1132174336699
 21
39.1973400830749
 73
3
  0
LINE
  8
画層2
  6
CONTINUOUS
 10
135
 20
30
 11
125
 21
30
  0
LINE
  8
画層2
  6
CONTINUOUS
 10
170
 20
30
 11
180
 21
30
  0
LINE
  8
画層2
  6
CONTINUOUS
 10
49
 20
110
 11
37
 21
110
  0
LINE
  8
画層2
  6
CONTINUOUS
 10
40
 20
110
 11
40
 21
115
  0
POLYLINE
  8
画層2
  6
CONTINUOUS
 10
0.0
 20
0.0
 30
0.0
 66
1
 70
     1
  0
VERTEX
  8
画層2
 10
40
  20
110
  0
VERTEX
  8
画層2
 10
39.6117714323462
  20
111.448888739434
  0
VERTEX
  8
画層2
 10
40.3882285676538
  20
111.448888739434
  0
SEQEND
100
AcDbEntity
  8
画層2
  0
POLYLINE
  8
画層2
  6
CONTINUOUS
 10
0.0
 20
0.0
 30
0.0
 66
1
 70
     1
  0
VERTEX
  8
画層2
 10
40
  20
115
  0
VERTEX
  8
画層2
 10
40.3882285676538
  20
113.551111260566
  0
VERTEX
  8
画層2
 10
39.6117714323462
  20
113.551111260566
  0
SEQEND
100
AcDbEntity
  8
画層2
  0
TEXT
  8
画層2
 62
7
  6
CONTINUOUS
 62
7
 10
39.75
 20
110.25
 40
9
  1
5
  7
Font_0
 50
90
 72
1
 11
30.75
 21
112.5
 73
3
  0
LINE
  8
画層2
  6
CONTINUOUS
 10
49
 20
115
 11
37
 21
115
  0
ENDSEC
  0
EOF
