999
Outputted By AR_CAD Ver.1.4.1
  0
SECTION
  2
HEADER
  9
$ACADVER
  1
AC1009
  9
$DWGCODEPAGE
  3
DOS932
  9
$EXTMIN
 10
0
 20
0
  9
$EXTMAX
 10
297
 20
210
  9
$INSBASE
 10
0.0
 20
0.0
 30
0.0
  9
$HANDLING
 70
     1
  9
$LTSCALE
 40
1
  0
ENDSEC
  0
SECTION
  2
TABLES
  0
TABLE
  2
LTYPE
 70
     7
  0
LTYPE
  2
BYBLOCK
 70
    64
 3

 72
    65
 73
    0
 40
    0
  0
LTYPE
  2
BYLAYER
 70
    64
 3

 72
    65
 73
    0
 40
    0
  0
LTYPE
  2
CONTINUOUS
 70
    64
 3
CONTINUOUS
 72
    65
 73
    0
 40
    0
  0
LTYPE
  2
DASHED
 70
    64
 3

 72
    65
 73
    2
 40
    3.5
 49
    2.91666666666667
 49
    -0.583333333333333
  0
LTYPE
  2
DOT
 70
    64
 3

 72
    65
 73
    2
 40
    0.5
 49
    0.25
 49
    -0.25
  0
LTYPE
  2
DASHDOT
 70
    64
 3

 72
    65
 73
    4
 40
    3.5
 49
    1.84210526315789
 49
    -0.552631578947368
 49
    0.552631578947368
 49
    -0.552631578947368
  0
LTYPE
  2
DIVIDE
 70
    64
 3

 72
    65
 73
    6
 40
    3.5
 49
    1.4
 49
    -0.42
 49
    0.42
 49
    -0.42
 49
    0.42
 49
    -0.42
  0
LTYPE
  2
HIDDEN
 70
    64
 3

 72
    65
 73
    2
 40
    4
 49
    2
 49
    -2
  0
ENDTAB
  0
TABLE
  2
LAYER
 70
   257
  0
LAYER
  2
画層0
 70
    4
 62
7
  6
CONTINUOUS
  0
LAYER
  2
画層1
 70
    0
 62
150
  6
CONTINUOUS
  0
LAYER
  2
画層2
 70
    4
 62
7
  6
CONTINUOUS
  0
LAYER
  2
画層3
 70
    0
 62
-7
  6
CONTINUOUS
  0
LAYER
  2
画層4
 70
    0
 62
-6
  6
CONTINUOUS
  0
LAYER
  2
画層5
 70
    0
 62
-1
  6
CONTINUOUS
  0
LAYER
  2
画層6
 70
    0
 62
-7
  6
CONTINUOUS
  0
LAYER
  2
画層7
 70
    0
 62
-51
  6
CONTINUOUS
  0
LAYER
  2
画層8
 70
    0
 62
-61
  6
CONTINUOUS
  0
LAYER
  2
画層9
 70
    0
 62
-111
  6
CONTINUOUS
  0
LAYER
  2
画層10
 70
    0
 62
-91
  6
CONTINUOUS
  0
LAYER
  2
画層11
 70
    0
 62
-131
  6
CONTINUOUS
  0
LAYER
  2
画層12
 70
    0
 62
-161
  6
CONTINUOUS
  0
LAYER
  2
画層13
 70
    0
 62
-5
  6
CONTINUOUS
  0
LAYER
  2
画層14
 70
    0
 62
-7
  6
CONTINUOUS
  0
LAYER
  2
画層15
 70
    0
 62
-11
  6
CONTINUOUS
  0
LAYER
  2
画層16
 70
    0
 62
7
  6
CONTINUOUS
  0
LAYER
  2
画層17
 70
    0
 62
70
  6
CONTINUOUS
  0
LAYER
  2
画層18
 70
    0
 62
211
  6
CONTINUOUS
  0
LAYER
  2
画層19
 70
    0
 62
137
  6
CONTINUOUS
  0
LAYER
  2
画層20
 70
    0
 62
4
  6
CONTINUOUS
  0
LAYER
  2
画層21
 70
    0
 62
131
  6
CONTINUOUS
  0
LAYER
  2
画層22
 70
    0
 62
4
  6
CONTINUOUS
  0
LAYER
  2
画層23
 70
    0
 62
4
  6
CONTINUOUS
  0
LAYER
  2
画層24
 70
    0
 62
7
  6
CONTINUOUS
  0
LAYER
  2
画層25
 70
    0
 62
7
  6
CONTINUOUS
  0
LAYER
  2
画層26
 70
    0
 62
7
  6
CONTINUOUS
  0
LAYER
  2
画層27
 70
    0
 62
7
  6
CONTINUOUS
  0
LAYER
  2
画層28
 70
    0
 62
7
  6
CONTINUOUS
  0
LAYER
  2
画層29
 70
    0
 62
7
  6
CONTINUOUS
  0
LAYER
  2
画層30
 70
    0
 62
7
  6
CONTINUOUS
  0
LAYER
  2
画層31
 70
    0
 62
7
  6
CONTINUOUS
  0
LAYER
  2
画層32
 70
    0
 62
7
  6
CONTINUOUS
  0
LAYER
  2
画層33
 70
    0
 62
7
  6
CONTINUOUS
  0
LAYER
  2
画層34
 70
    0
 62
7
  6
CONTINUOUS
  0
LAYER
  2
画層35
 70
    0
 62
7
  6
CONTINUOUS
  0
LAYER
  2
画層36
 70
    0
 62
7
  6
CONTINUOUS
  0
LAYER
  2
画層37
 70
    0
 62
7
  6
CONTINUOUS
  0
LAYER
  2
画層38
 70
    0
 62
7
  6
CONTINUOUS
  0
LAYER
  2
画層39
 70
    0
 62
7
  6
CONTINUOUS
  0
LAYER
  2
画層40
 70
    0
 62
7
  6
CONTINUOUS
  0
LAYER
  2
画層41
 70
    0
 62
7
  6
CONTINUOUS
  0
LAYER
  2
画層42
 70
    0
 62
7
  6
CONTINUOUS
  0
LAYER
  2
画層43
 70
    0
 62
7
  6
CONTINUOUS
  0
LAYER
  2
画層44
 70
    0
 62
7
  6
CONTINUOUS
  0
LAYER
  2
画層45
 70
    0
 62
7
  6
CONTINUOUS
  0
LAYER
  2
画層46
 70
    0
 62
7
  6
CONTINUOUS
  0
LAYER
  2
画層47
 70
    0
 62
7
  6
CONTINUOUS
  0
LAYER
  2
画層48
 70
    0
 62
7
  6
CONTINUOUS
  0
LAYER
  2
画層49
 70
    0
 62
7
  6
CONTINUOUS
  0
LAYER
  2
画層50
 70
    0
 62
7
  6
CONTINUOUS
  0
LAYER
  2
画層51
 70
    0
 62
7
  6
CONTINUOUS
  0
LAYER
  2
画層52
 70
    0
 62
7
  6
CONTINUOUS
  0
LAYER
  2
画層53
 70
    0
 62
7
  6
CONTINUOUS
  0
LAYER
  2
画層54
 70
    0
 62
7
  6
CONTINUOUS
  0
LAYER
  2
画層55
 70
    0
 62
7
  6
CONTINUOUS
  0
LAYER
  2
画層56
 70
    0
 62
7
  6
CONTINUOUS
  0
LAYER
  2
画層57
 70
    0
 62
7
  6
CONTINUOUS
  0
LAYER
  2
画層58
 70
    0
 62
7
  6
CONTINUOUS
  0
LAYER
  2
画層59
 70
    0
 62
7
  6
CONTINUOUS
  0
LAYER
  2
画層60
 70
    0
 62
7
  6
CONTINUOUS
  0
LAYER
  2
画層61
 70
    0
 62
7
  6
CONTINUOUS
  0
LAYER
  2
画層62
 70
    0
 62
7
  6
CONTINUOUS
  0
LAYER
  2
画層63
 70
    0
 62
7
  6
CONTINUOUS
  0
LAYER
  2
画層64
 70
    0
 62
7
  6
CONTINUOUS
  0
LAYER
  2
画層65
 70
    0
 62
7
  6
CONTINUOUS
  0
LAYER
  2
画層66
 70
    0
 62
7
  6
CONTINUOUS
  0
LAYER
  2
画層67
 70
    0
 62
7
  6
CONTINUOUS
  0
LAYER
  2
画層68
 70
    0
 62
7
  6
CONTINUOUS
  0
LAYER
  2
画層69
 70
    0
 62
7
  6
CONTINUOUS
  0
LAYER
  2
画層70
 70
    0
 62
7
  6
CONTINUOUS
  0
LAYER
  2
画層71
 70
    0
 62
7
  6
CONTINUOUS
  0
LAYER
  2
画層72
 70
    0
 62
7
  6
CONTINUOUS
  0
LAYER
  2
画層73
 70
    0
 62
7
  6
CONTINUOUS
  0
LAYER
  2
画層74
 70
    0
 62
7
  6
CONTINUOUS
  0
LAYER
  2
画層75
 70
    0
 62
7
  6
CONTINUOUS
  0
LAYER
  2
画層76
 70
    0
 62
7
  6
CONTINUOUS
  0
LAYER
  2
画層77
 70
    0
 62
7
  6
CONTINUOUS
  0
LAYER
  2
画層78
 70
    0
 62
7
  6
CONTINUOUS
  0
LAYER
  2
画層79
 70
    0
 62
7
  6
CONTINUOUS
  0
LAYER
  2
画層80
 70
    0
 62
7
  6
CONTINUOUS
  0
LAYER
  2
画層81
 70
    0
 62
7
  6
CONTINUOUS
  0
LAYER
  2
画層82
 70
    0
 62
7
  6
CONTINUOUS
  0
LAYER
  2
画層83
 70
    0
 62
7
  6
CONTINUOUS
  0
LAYER
  2
画層84
 70
    0
 62
7
  6
CONTINUOUS
  0
LAYER
  2
画層85
 70
    0
 62
7
  6
CONTINUOUS
  0
LAYER
  2
画層86
 70
    0
 62
7
  6
CONTINUOUS
  0
LAYER
  2
画層87
 70
    0
 62
7
  6
CONTINUOUS
  0
LAYER
  2
画層88
 70
    0
 62
7
  6
CONTINUOUS
  0
LAYER
  2
画層89
 70
    0
 62
7
  6
CONTINUOUS
  0
LAYER
  2
画層90
 70
    0
 62
7
  6
CONTINUOUS
  0
LAYER
  2
画層91
 70
    0
 62
7
  6
CONTINUOUS
  0
LAYER
  2
画層92
 70
    0
 62
7
  6
CONTINUOUS
  0
LAYER
  2
画層93
 70
    0
 62
7
  6
CONTINUOUS
  0
LAYER
  2
画層94
 70
    0
 62
7
  6
CONTINUOUS
  0
LAYER
  2
画層95
 70
    0
 62
7
  6
CONTINUOUS
  0
LAYER
  2
画層96
 70
    0
 62
7
  6
CONTINUOUS
  0
LAYER
  2
画層97
 70
    0
 62
7
  6
CONTINUOUS
  0
LAYER
  2
画層98
 70
    0
 62
7
  6
CONTINUOUS
  0
LAYER
  2
画層99
 70
    0
 62
7
  6
CONTINUOUS
  0
LAYER
  2
画層100
 70
    0
 62
7
  6
CONTINUOUS
  0
LAYER
  2
画層101
 70
    0
 62
7
  6
CONTINUOUS
  0
LAYER
  2
画層102
 70
    0
 62
7
  6
CONTINUOUS
  0
LAYER
  2
画層103
 70
    0
 62
7
  6
CONTINUOUS
  0
LAYER
  2
画層104
 70
    0
 62
7
  6
CONTINUOUS
  0
LAYER
  2
画層105
 70
    0
 62
7
  6
CONTINUOUS
  0
LAYER
  2
画層106
 70
    0
 62
7
  6
CONTINUOUS
  0
LAYER
  2
画層107
 70
    0
 62
7
  6
CONTINUOUS
  0
LAYER
  2
画層108
 70
    0
 62
7
  6
CONTINUOUS
  0
LAYER
  2
画層109
 70
    0
 62
7
  6
CONTINUOUS
  0
LAYER
  2
画層110
 70
    0
 62
7
  6
CONTINUOUS
  0
LAYER
  2
画層111
 70
    0
 62
7
  6
CONTINUOUS
  0
LAYER
  2
画層112
 70
    0
 62
7
  6
CONTINUOUS
  0
LAYER
  2
画層113
 70
    0
 62
7
  6
CONTINUOUS
  0
LAYER
  2
画層114
 70
    0
 62
7
  6
CONTINUOUS
  0
LAYER
  2
画層115
 70
    0
 62
7
  6
CONTINUOUS
  0
LAYER
  2
画層116
 70
    0
 62
7
  6
CONTINUOUS
  0
LAYER
  2
画層117
 70
    0
 62
7
  6
CONTINUOUS
  0
LAYER
  2
画層118
 70
    0
 62
7
  6
CONTINUOUS
  0
LAYER
  2
画層119
 70
    0
 62
7
  6
CONTINUOUS
  0
LAYER
  2
画層120
 70
    0
 62
7
  6
CONTINUOUS
  0
LAYER
  2
画層121
 70
    0
 62
7
  6
CONTINUOUS
  0
LAYER
  2
画層122
 70
    0
 62
7
  6
CONTINUOUS
  0
LAYER
  2
画層123
 70
    0
 62
7
  6
CONTINUOUS
  0
LAYER
  2
画層124
 70
    0
 62
7
  6
CONTINUOUS
  0
LAYER
  2
画層125
 70
    0
 62
7
  6
CONTINUOUS
  0
LAYER
  2
画層126
 70
    0
 62
7
  6
CONTINUOUS
  0
LAYER
  2
画層127
 70
    0
 62
7
  6
CONTINUOUS
  0
LAYER
  2
画層128
 70
    0
 62
7
  6
CONTINUOUS
  0
LAYER
  2
画層129
 70
    0
 62
7
  6
CONTINUOUS
  0
LAYER
  2
画層130
 70
    0
 62
7
  6
CONTINUOUS
  0
LAYER
  2
画層131
 70
    0
 62
7
  6
CONTINUOUS
  0
LAYER
  2
画層132
 70
    0
 62
7
  6
CONTINUOUS
  0
LAYER
  2
画層133
 70
    0
 62
7
  6
CONTINUOUS
  0
LAYER
  2
画層134
 70
    0
 62
7
  6
CONTINUOUS
  0
LAYER
  2
画層135
 70
    0
 62
7
  6
CONTINUOUS
  0
LAYER
  2
画層136
 70
    0
 62
7
  6
CONTINUOUS
  0
LAYER
  2
画層137
 70
    0
 62
7
  6
CONTINUOUS
  0
LAYER
  2
画層138
 70
    0
 62
7
  6
CONTINUOUS
  0
LAYER
  2
画層139
 70
    0
 62
7
  6
CONTINUOUS
  0
LAYER
  2
画層140
 70
    0
 62
7
  6
CONTINUOUS
  0
LAYER
  2
画層141
 70
    0
 62
7
  6
CONTINUOUS
  0
LAYER
  2
画層142
 70
    0
 62
7
  6
CONTINUOUS
  0
LAYER
  2
画層143
 70
    0
 62
7
  6
CONTINUOUS
  0
LAYER
  2
画層144
 70
    0
 62
7
  6
CONTINUOUS
  0
LAYER
  2
画層145
 70
    0
 62
7
  6
CONTINUOUS
  0
LAYER
  2
画層146
 70
    0
 62
7
  6
CONTINUOUS
  0
LAYER
  2
画層147
 70
    0
 62
7
  6
CONTINUOUS
  0
LAYER
  2
画層148
 70
    0
 62
7
  6
CONTINUOUS
  0
LAYER
  2
画層149
 70
    0
 62
7
  6
CONTINUOUS
  0
LAYER
  2
画層150
 70
    0
 62
7
  6
CONTINUOUS
  0
LAYER
  2
画層151
 70
    0
 62
7
  6
CONTINUOUS
  0
LAYER
  2
画層152
 70
    0
 62
7
  6
CONTINUOUS
  0
LAYER
  2
画層153
 70
    0
 62
7
  6
CONTINUOUS
  0
LAYER
  2
画層154
 70
    0
 62
7
  6
CONTINUOUS
  0
LAYER
  2
画層155
 70
    0
 62
7
  6
CONTINUOUS
  0
LAYER
  2
画層156
 70
    0
 62
7
  6
CONTINUOUS
  0
LAYER
  2
画層157
 70
    0
 62
7
  6
CONTINUOUS
  0
LAYER
  2
画層158
 70
    0
 62
7
  6
CONTINUOUS
  0
LAYER
  2
画層159
 70
    0
 62
7
  6
CONTINUOUS
  0
LAYER
  2
画層160
 70
    0
 62
7
  6
CONTINUOUS
  0
LAYER
  2
画層161
 70
    0
 62
7
  6
CONTINUOUS
  0
LAYER
  2
画層162
 70
    0
 62
7
  6
CONTINUOUS
  0
LAYER
  2
画層163
 70
    0
 62
7
  6
CONTINUOUS
  0
LAYER
  2
画層164
 70
    0
 62
7
  6
CONTINUOUS
  0
LAYER
  2
画層165
 70
    0
 62
7
  6
CONTINUOUS
  0
LAYER
  2
画層166
 70
    0
 62
7
  6
CONTINUOUS
  0
LAYER
  2
画層167
 70
    0
 62
7
  6
CONTINUOUS
  0
LAYER
  2
画層168
 70
    0
 62
7
  6
CONTINUOUS
  0
LAYER
  2
画層169
 70
    0
 62
7
  6
CONTINUOUS
  0
LAYER
  2
画層170
 70
    0
 62
7
  6
CONTINUOUS
  0
LAYER
  2
画層171
 70
    0
 62
7
  6
CONTINUOUS
  0
LAYER
  2
画層172
 70
    0
 62
7
  6
CONTINUOUS
  0
LAYER
  2
画層173
 70
    0
 62
7
  6
CONTINUOUS
  0
LAYER
  2
画層174
 70
    0
 62
7
  6
CONTINUOUS
  0
LAYER
  2
画層175
 70
    0
 62
7
  6
CONTINUOUS
  0
LAYER
  2
画層176
 70
    0
 62
7
  6
CONTINUOUS
  0
LAYER
  2
画層177
 70
    0
 62
7
  6
CONTINUOUS
  0
LAYER
  2
画層178
 70
    0
 62
7
  6
CONTINUOUS
  0
LAYER
  2
画層179
 70
    0
 62
7
  6
CONTINUOUS
  0
LAYER
  2
画層180
 70
    0
 62
7
  6
CONTINUOUS
  0
LAYER
  2
画層181
 70
    0
 62
7
  6
CONTINUOUS
  0
LAYER
  2
画層182
 70
    0
 62
7
  6
CONTINUOUS
  0
LAYER
  2
画層183
 70
    0
 62
7
  6
CONTINUOUS
  0
LAYER
  2
画層184
 70
    0
 62
7
  6
CONTINUOUS
  0
LAYER
  2
画層185
 70
    0
 62
7
  6
CONTINUOUS
  0
LAYER
  2
画層186
 70
    0
 62
7
  6
CONTINUOUS
  0
LAYER
  2
画層187
 70
    0
 62
7
  6
CONTINUOUS
  0
LAYER
  2
画層188
 70
    0
 62
7
  6
CONTINUOUS
  0
LAYER
  2
画層189
 70
    0
 62
7
  6
CONTINUOUS
  0
LAYER
  2
画層190
 70
    0
 62
7
  6
CONTINUOUS
  0
LAYER
  2
画層191
 70
    0
 62
7
  6
CONTINUOUS
  0
LAYER
  2
画層192
 70
    0
 62
7
  6
CONTINUOUS
  0
LAYER
  2
画層193
 70
    0
 62
7
  6
CONTINUOUS
  0
LAYER
  2
画層194
 70
    0
 62
7
  6
CONTINUOUS
  0
LAYER
  2
画層195
 70
    0
 62
7
  6
CONTINUOUS
  0
LAYER
  2
画層196
 70
    0
 62
7
  6
CONTINUOUS
  0
LAYER
  2
画層197
 70
    0
 62
7
  6
CONTINUOUS
  0
LAYER
  2
画層198
 70
    0
 62
7
  6
CONTINUOUS
  0
LAYER
  2
画層199
 70
    0
 62
7
  6
CONTINUOUS
  0
LAYER
  2
画層200
 70
    0
 62
7
  6
CONTINUOUS
  0
LAYER
  2
画層201
 70
    0
 62
7
  6
CONTINUOUS
  0
LAYER
  2
画層202
 70
    0
 62
7
  6
CONTINUOUS
  0
LAYER
  2
画層203
 70
    0
 62
7
  6
CONTINUOUS
  0
LAYER
  2
画層204
 70
    0
 62
7
  6
CONTINUOUS
  0
LAYER
  2
画層205
 70
    0
 62
7
  6
CONTINUOUS
  0
LAYER
  2
画層206
 70
    0
 62
7
  6
CONTINUOUS
  0
LAYER
  2
画層207
 70
    0
 62
7
  6
CONTINUOUS
  0
LAYER
  2
画層208
 70
    0
 62
7
  6
CONTINUOUS
  0
LAYER
  2
画層209
 70
    0
 62
7
  6
CONTINUOUS
  0
LAYER
  2
画層210
 70
    0
 62
7
  6
CONTINUOUS
  0
LAYER
  2
画層211
 70
    0
 62
7
  6
CONTINUOUS
  0
LAYER
  2
画層212
 70
    0
 62
7
  6
CONTINUOUS
  0
LAYER
  2
画層213
 70
    0
 62
7
  6
CONTINUOUS
  0
LAYER
  2
画層214
 70
    0
 62
7
  6
CONTINUOUS
  0
LAYER
  2
画層215
 70
    0
 62
7
  6
CONTINUOUS
  0
LAYER
  2
画層216
 70
    0
 62
7
  6
CONTINUOUS
  0
LAYER
  2
画層217
 70
    0
 62
7
  6
CONTINUOUS
  0
LAYER
  2
画層218
 70
    0
 62
7
  6
CONTINUOUS
  0
LAYER
  2
画層219
 70
    0
 62
7
  6
CONTINUOUS
  0
LAYER
  2
画層220
 70
    0
 62
7
  6
CONTINUOUS
  0
LAYER
  2
画層221
 70
    0
 62
7
  6
CONTINUOUS
  0
LAYER
  2
画層222
 70
    0
 62
7
  6
CONTINUOUS
  0
LAYER
  2
画層223
 70
    0
 62
7
  6
CONTINUOUS
  0
LAYER
  2
画層224
 70
    0
 62
7
  6
CONTINUOUS
  0
LAYER
  2
画層225
 70
    0
 62
7
  6
CONTINUOUS
  0
LAYER
  2
画層226
 70
    0
 62
7
  6
CONTINUOUS
  0
LAYER
  2
画層227
 70
    0
 62
7
  6
CONTINUOUS
  0
LAYER
  2
画層228
 70
    0
 62
7
  6
CONTINUOUS
  0
LAYER
  2
画層229
 70
    0
 62
7
  6
CONTINUOUS
  0
LAYER
  2
画層230
 70
    0
 62
7
  6
CONTINUOUS
  0
LAYER
  2
画層231
 70
    0
 62
7
  6
CONTINUOUS
  0
LAYER
  2
画層232
 70
    0
 62
7
  6
CONTINUOUS
  0
LAYER
  2
画層233
 70
    0
 62
7
  6
CONTINUOUS
  0
LAYER
  2
画層234
 70
    0
 62
7
  6
CONTINUOUS
  0
LAYER
  2
画層235
 70
    0
 62
7
  6
CONTINUOUS
  0
LAYER
  2
画層236
 70
    0
 62
7
  6
CONTINUOUS
  0
LAYER
  2
画層237
 70
    0
 62
7
  6
CONTINUOUS
  0
LAYER
  2
画層238
 70
    0
 62
7
  6
CONTINUOUS
  0
LAYER
  2
画層239
 70
    0
 62
7
  6
CONTINUOUS
  0
LAYER
  2
画層240
 70
    0
 62
7
  6
CONTINUOUS
  0
LAYER
  2
画層241
 70
    0
 62
7
  6
CONTINUOUS
  0
LAYER
  2
画層242
 70
    0
 62
7
  6
CONTINUOUS
  0
LAYER
  2
画層243
 70
    0
 62
7
  6
CONTINUOUS
  0
LAYER
  2
画層244
 70
    0
 62
7
  6
CONTINUOUS
  0
LAYER
  2
画層245
 70
    0
 62
7
  6
CONTINUOUS
  0
LAYER
  2
画層246
 70
    0
 62
7
  6
CONTINUOUS
  0
LAYER
  2
画層247
 70
    0
 62
7
  6
CONTINUOUS
  0
LAYER
  2
画層248
 70
    0
 62
7
  6
CONTINUOUS
  0
LAYER
  2
画層249
 70
    0
 62
7
  6
CONTINUOUS
  0
LAYER
  2
画層250
 70
    0
 62
7
  6
CONTINUOUS
  0
LAYER
  2
画層251
 70
    0
 62
7
  6
CONTINUOUS
  0
LAYER
  2
画層252
 70
    0
 62
7
  6
CONTINUOUS
  0
LAYER
  2
画層253
 70
    0
 62
7
  6
CONTINUOUS
  0
LAYER
  2
画層254
 70
    0
 62
7
  6
CONTINUOUS
  0
LAYER
  2
画層255
 70
    0
 62
7
  6
CONTINUOUS
  0
LAYER
  2
0
 70
   64
 62
    7
  6
CONTINUOUS
  0
ENDTAB
  0
TABLE
  2
STYLE
 70
     1
  0
STYLE
  2
Standard
 70
     0
 40
0.0
 41
1.0
 50
0.0
 71
     0
 42
3.2
  3
TXT
  4
BIGFONT
  0
STYLE
  2
Font_0
 70
     0
 40
0.0
 41
1.0
 50
0.0
 71
     0
 42
3.2
  3
txt
  4
BIGFONT
  0
ENDTAB
  0
ENDSEC
  0
SECTION
  2
ENTITIES
  0
LINE
  8
画層0
  6
CONTINUOUS
 10
50
 20
40
 11
50
 21
60
  0
LINE
  8
画層0
  6
CONTINUOUS
 10
50
 20
60
 11
190
 21
60
  0
LINE
  8
画層0
  6
CONTINUOUS
 10
190
 20
60
 11
190
 21
40
  0
LINE
  8
画層0
  6
CONTINUOUS
 10
190
 20
40
 11
50
 21
40
  0
LINE
  8
画層0
  6
CONTINUOUS
 10
66.9997433099038
 20
50
 11
66.9997433099038
 21
55.0018084910948
  0
LINE
  8
画層0
  6
CONTINUOUS
 10
85.9947694623176
 20
50
 11
85.9947694623176
 21
55.0036457443293
  0
LINE
  8
画層0
  6
CONTINUOUS
 10
66.9997433099038
 20
55.0018084910948
 11
85.9947694623176
 21
55.0018084910948
  0
LINE
  8
画層0
  6
CONTINUOUS
 10
66.9997433099038
 20
50
 11
66.9997433099038
 21
45.0011195862487
  0
LINE
  8
画層0
  6
CONTINUOUS
 10
85.9947694623176
 20
50
 11
85.9947694623176
 21
45.0032167291689
  0
LINE
  8
画層0
  6
CONTINUOUS
 10
85.9947694623176
 20
45.0032167291689
 11
66.9997433099038
 21
45.0032167291689
  0
LINE
  8
画層0
  6
CONTINUOUS
 10
117.510285851989
 20
50
 11
117.510285851989
 21
55.0018084910948
  0
LINE
  8
画層0
  6
CONTINUOUS
 10
98.5093789812281
 20
50
 11
98.5093789812281
 21
45.0032167291689
  0
LINE
  8
画層0
  6
CONTINUOUS
 10
98.5093789812281
 20
50
 11
98.5093789812281
 21
55.0018084910948
  0
LINE
  8
画層0
  6
CONTINUOUS
 10
117.510285851989
 20
45.0032167291689
 11
117.510285851989
 21
50
  0
LINE
  8
画層0
  6
CONTINUOUS
 10
98.5093789812281
 20
55.0018084910948
 11
117.510285851989
 21
55.0018084910948
  0
LINE
  8
画層0
  6
CONTINUOUS
 10
98.5093789812281
 20
45.0032167291689
 11
117.510285851989
 21
45.0032167291689
  0
LINE
  8
画層0
  6
CONTINUOUS
 10
131.454222554141
 20
49.9978339769954
 11
131.454222554141
 21
54.9996424680902
  0
LINE
  8
画層0
  6
CONTINUOUS
 10
131.454222554141
 20
49.9978339769954
 11
131.454222554141
 21
45.0010507061642
  0
LINE
  8
画層0
  6
CONTINUOUS
 10
171.454485237997
 20
49.9978339769954
 11
171.454485237997
 21
54.9996424680902
  0
LINE
  8
画層0
  6
CONTINUOUS
 10
171.454485237997
 20
49.9978339769954
 11
171.454485237997
 21
45.0010507061642
  0
LINE
  8
画層0
  6
CONTINUOUS
 10
131.454222554141
 20
54.9996424680902
 11
171.454485237997
 21
54.9996424680902
  0
LINE
  8
画層0
  6
CONTINUOUS
 10
171.454485237997
 20
45.0010507061642
 11
131.454222554141
 21
45.0010507061642
  0
CIRCLE
  8
画層0
  6
CONTINUOUS
 10
55
 20
50
 40
1.49960210654106
  0
CIRCLE
  8
画層0
  6
CONTINUOUS
 10
64.0001911611243
 20
50
 40
1.49960210654106
  0
CIRCLE
  8
画層0
  6
CONTINUOUS
 10
89.0013955180119
 20
50
 40
1.49960210654106
  0
CIRCLE
  8
画層0
  6
CONTINUOUS
 10
95.5034863796837
 20
50
 40
1.49960210654106
  0
CIRCLE
  8
画層0
  6
CONTINUOUS
 10
120.508316445602
 20
50
 40
1.49960210654106
  0
CIRCLE
  8
画層0
  6
CONTINUOUS
 10
126.956933335856
 20
49.9978339769954
 40
1.49960210654106
  0
CIRCLE
  8
画層0
  6
CONTINUOUS
 10
175.9550939901
 20
49.9978339769954
 40
1.49960210654106
  0
CIRCLE
  8
画層0
  6
CONTINUOUS
 10
185
 20
50
 40
1.49960210654106
  0
LINE
  8
画層2
  6
CONTINUOUS
 10
55
 20
51
 11
55
 21
73
  0
LINE
  8
画層2
  6
CONTINUOUS
 10
55
 20
70
 11
50
 21
70
  0
POLYLINE
  8
画層2
  6
CONTINUOUS
 10
0.0
 20
0.0
 30
0.0
 66
1
 70
     1
  0
VERTEX
  8
画層2
 10
55
  20
70
  0
VERTEX
  8
画層2
 10
53.5511112605664
  20
69.6117714323462
  0
VERTEX
  8
画層2
 10
53.5511112605664
  20
70.3882285676538
  0
SEQEND
100
AcDbEntity
  8
画層2
  0
POLYLINE
  8
画層2
  6
CONTINUOUS
 10
0.0
 20
0.0
 30
0.0
 66
1
 70
     1
  0
VERTEX
  8
画層2
 10
50
  20
70
  0
VERTEX
  8
画層2
 10
51.4488887394336
  20
70.3882285676538
  0
VERTEX
  8
画層2
 10
51.4488887394336
  20
69.6117714323462
  0
SEQEND
100
AcDbEntity
  8
画層2
  0
TEXT
  8
画層2
 62
7
  6
CONTINUOUS
 62
7
 10
50.25
 20
70.25
 40
9
  1
5
  7
Font_0
 72
1
 11
52.5
 21
79.25
 73
3
  0
LINE
  8
画層2
  6
CONTINUOUS
 10
50
 20
51
 11
50
 21
73
  0
LINE
  8
画層2
  6
CONTINUOUS
 10
55
 20
51
 11
55
 21
73
  0
LINE
  8
画層2
  6
CONTINUOUS
 10
55
 20
70
 11
64.0001911611243
 21
70
  0
POLYLINE
  8
画層2
  6
CONTINUOUS
 10
0.0
 20
0.0
 30
0.0
 66
1
 70
     1
  0
VERTEX
  8
画層2
 10
55
  20
70
  0
VERTEX
  8
画層2
 10
56.4488887394336
  20
70.3882285676538
  0
VERTEX
  8
画層2
 10
56.4488887394336
  20
69.6117714323462
  0
SEQEND
100
AcDbEntity
  8
画層2
  0
POLYLINE
  8
画層2
  6
CONTINUOUS
 10
0.0
 20
0.0
 30
0.0
 66
1
 70
     1
  0
VERTEX
  8
画層2
 10
64.0001911611243
  20
70
  0
VERTEX
  8
画層2
 10
62.5513024216907
  20
69.6117714323462
  0
VERTEX
  8
画層2
 10
62.5513024216907
  20
70.3882285676538
  0
SEQEND
100
AcDbEntity
  8
画層2
  0
TEXT
  8
画層2
 62
7
  6
CONTINUOUS
 62
7
 10
57.2500955805621
 20
70.25
 40
9
  1
9
  7
Font_0
 72
1
 11
59.5000955805622
 21
79.25
 73
3
  0
LINE
  8
画層2
  6
CONTINUOUS
 10
64.0001911611243
 20
51
 11
64.0001911611243
 21
73
  0
LINE
  8
画層2
  6
CONTINUOUS
 10
190
 20
51
 11
190
 21
73
  0
LINE
  8
画層2
  6
CONTINUOUS
 10
190
 20
70
 11
185
 21
70
  0
POLYLINE
  8
画層2
  6
CONTINUOUS
 10
0.0
 20
0.0
 30
0.0
 66
1
 70
     1
  0
VERTEX
  8
画層2
 10
190
  20
70
  0
VERTEX
  8
画層2
 10
188.551111260566
  20
69.6117714323462
  0
VERTEX
  8
画層2
 10
188.551111260566
  20
70.3882285676538
  0
SEQEND
100
AcDbEntity
  8
画層2
  0
POLYLINE
  8
画層2
  6
CONTINUOUS
 10
0.0
 20
0.0
 30
0.0
 66
1
 70
     1
  0
VERTEX
  8
画層2
 10
185
  20
70
  0
VERTEX
  8
画層2
 10
186.448888739434
  20
70.3882285676538
  0
VERTEX
  8
画層2
 10
186.448888739434
  20
69.6117714323462
  0
SEQEND
100
AcDbEntity
  8
画層2
  0
TEXT
  8
画層2
 62
7
  6
CONTINUOUS
 62
7
 10
185.25
 20
70.25
 40
9
  1
5
  7
Font_0
 72
1
 11
187.5
 21
79.25
 73
3
  0
LINE
  8
画層2
  6
CONTINUOUS
 10
185
 20
51
 11
185
 21
73
  0
LINE
  8
画層2
  6
CONTINUOUS
 10
64.0001911611243
 20
51
 11
64.0001911611243
 21
73
  0
LINE
  8
画層2
  6
CONTINUOUS
 10
64.0001911611243
 20
70
 11
89.0013955180119
 21
70
  0
POLYLINE
  8
画層2
  6
CONTINUOUS
 10
0.0
 20
0.0
 30
0.0
 66
1
 70
     1
  0
VERTEX
  8
画層2
 10
64.0001911611243
  20
70
  0
VERTEX
  8
画層2
 10
65.4490799005579
  20
70.3882285676538
  0
VERTEX
  8
画層2
 10
65.4490799005579
  20
69.6117714323462
  0
SEQEND
100
AcDbEntity
  8
画層2
  0
POLYLINE
  8
画層2
  6
CONTINUOUS
 10
0.0
 20
0.0
 30
0.0
 66
1
 70
     1
  0
VERTEX
  8
画層2
 10
89.0013955180119
  20
70
  0
VERTEX
  8
画層2
 10
87.5525067785783
  20
69.6117714323462
  0
VERTEX
  8
画層2
 10
87.5525067785783
  20
70.3882285676538
  0
SEQEND
100
AcDbEntity
  8
画層2
  0
TEXT
  8
画層2
 62
7
  6
CONTINUOUS
 62
7
 10
71.5007933395681
 20
70.25
 40
9
  1
25
  7
Font_0
 72
1
 11
76.5007933395681
 21
79.25
 73
3
  0
LINE
  8
画層2
  6
CONTINUOUS
 10
89.0013955180119
 20
51
 11
89.0013955180119
 21
73
  0
LINE
  8
画層2
  6
CONTINUOUS
 10
184.999760525655
 20
50.999999971326
 11
184.994491803462
 21
73.0011961387095
  0
LINE
  8
画層2
  6
CONTINUOUS
 10
184.995210226497
 20
70.0011962247315
 11
175.950304216597
 21
69.9990302017268
  0
POLYLINE
  8
画層2
  6
CONTINUOUS
 10
0.0
 20
0.0
 30
0.0
 66
1
 70
     1
  0
VERTEX
  8
画層2
 10
184.995210226497
  20
70.0011962247315
  0
VERTEX
  8
画層2
 10
183.546414499391
  20
69.6126206965279
  0
VERTEX
  8
画層2
 10
183.546228557827
  20
70.3890778095713
  0
SEQEND
100
AcDbEntity
  8
画層2
  0
POLYLINE
  8
画層2
  6
CONTINUOUS
 10
0.0
 20
0.0
 30
0.0
 66
1
 70
     1
  0
VERTEX
  8
画層2
 10
175.950304216597
  20
69.9990302017268
  0
VERTEX
  8
画層2
 10
177.399099943704
  20
70.3876057299305
  0
VERTEX
  8
画層2
 10
177.399285885268
  20
69.611148616887
  0
SEQEND
100
AcDbEntity
  8
画層2
  0
TEXT
  8
画層2
 62
7
  6
CONTINUOUS
 62
7
 10
178.222697417477
 20
70.2495743887844
 40
9
  1
9
  7
Font_0
 50
0.0137208694027606
 72
1
 11
180.470542083856
 21
79.2501129479948
 73
3
  0
LINE
  8
画層2
  6
CONTINUOUS
 10
175.954854515755
 20
50.9978339483214
 11
175.949585793562
 21
72.9990301157049
  0
LINE
  8
画層2
  6
CONTINUOUS
 10
126.956933335856
 20
50.9978339769954
 11
126.956933335856
 21
73
  0
LINE
  8
画層2
  6
CONTINUOUS
 10
126.956933335856
 20
70
 11
175.9550939901
 21
70
  0
POLYLINE
  8
画層2
  6
CONTINUOUS
 10
0.0
 20
0.0
 30
0.0
 66
1
 70
     1
  0
VERTEX
  8
画層2
 10
126.956933335856
  20
70
  0
VERTEX
  8
画層2
 10
128.40582207529
  20
70.3882285676538
  0
VERTEX
  8
画層2
 10
128.40582207529
  20
69.6117714323462
  0
SEQEND
100
AcDbEntity
  8
画層2
  0
POLYLINE
  8
画層2
  6
CONTINUOUS
 10
0.0
 20
0.0
 30
0.0
 66
1
 70
     1
  0
VERTEX
  8
画層2
 10
175.9550939901
  20
70
  0
VERTEX
  8
画層2
 10
174.506205250667
  20
69.6117714323462
  0
VERTEX
  8
画層2
 10
174.506205250667
  20
70.3882285676538
  0
SEQEND
100
AcDbEntity
  8
画層2
  0
TEXT
  8
画層2
 62
7
  6
CONTINUOUS
 62
7
 10
146.456013662978
 20
70.25
 40
9
  1
49
  7
Font_0
 72
1
 11
151.456013662978
 21
79.25
 73
3
  0
LINE
  8
画層2
  6
CONTINUOUS
 10
175.9550939901
 20
50.9978339769954
 11
175.9550939901
 21
73
  0
LINE
  8
画層2
  6
CONTINUOUS
 10
126.957269225384
 20
50.9978339205845
 11
126.964658737269
 21
72.997660813166
  0
LINE
  8
画層2
  6
CONTINUOUS
 10
126.963651068685
 20
69.9976609823986
 11
120.515034178431
 21
69.9998270054033
  0
POLYLINE
  8
画層2
  6
CONTINUOUS
 10
0.0
 20
0.0
 30
0.0
 66
1
 70
     1
  0
VERTEX
  8
画層2
 10
126.963651068685
  20
69.9976609823986
  0
VERTEX
  8
画層2
 10
125.514632009074
  20
69.6099191031997
  0
VERTEX
  8
画層2
 10
125.514892812895
  20
70.3863761947067
  0
SEQEND
100
AcDbEntity
  8
画層2
  0
POLYLINE
  8
画層2
  6
CONTINUOUS
 10
0.0
 20
0.0
 30
0.0
 66
1
 70
     1
  0
VERTEX
  8
画層2
 10
120.515034178431
  20
69.9998270054033
  0
VERTEX
  8
画層2
 10
121.964053238041
  20
70.3875688846022
  0
VERTEX
  8
画層2
 10
121.963792434221
  20
69.6111117930952
  0
SEQEND
100
AcDbEntity
  8
画層2
  0
TEXT
  8
画層2
 62
7
  6
CONTINUOUS
 62
7
 10
115.989427033124
 20
70.251347123639
 40
9
  1
6.5
  7
Font_0
 50
-0.0192450526895129
 72
1
 11
123.74244960169
 21
79.2487434721002
 73
3
  0
LINE
  8
画層2
  6
CONTINUOUS
 10
120.50865233513
 20
50.9999999435891
 11
120.516041847014
 21
72.9998268361706
  0
LINE
  8
画層2
  6
CONTINUOUS
 10
95.5034863796837
 20
51
 11
95.5034863796837
 21
72.9999999999999
  0
LINE
  8
画層2
  6
CONTINUOUS
 10
95.5034863796837
 20
69.9999999999999
 11
89.0013955180119
 21
69.9999999999999
  0
POLYLINE
  8
画層2
  6
CONTINUOUS
 10
0.0
 20
0.0
 30
0.0
 66
1
 70
     1
  0
VERTEX
  8
画層2
 10
95.5034863796837
  20
69.9999999999999
  0
VERTEX
  8
画層2
 10
94.0545976402501
  20
69.6117714323461
  0
VERTEX
  8
画層2
 10
94.0545976402501
  20
70.3882285676537
  0
SEQEND
100
AcDbEntity
  8
画層2
  0
POLYLINE
  8
画層2
  6
CONTINUOUS
 10
0.0
 20
0.0
 30
0.0
 66
1
 70
     1
  0
VERTEX
  8
画層2
 10
89.0013955180119
  20
69.9999999999999
  0
VERTEX
  8
画層2
 10
90.4502842574455
  20
70.3882285676537
  0
VERTEX
  8
画層2
 10
90.4502842574455
  20
69.6117714323461
  0
SEQEND
100
AcDbEntity
  8
画層2
  0
TEXT
  8
画層2
 62
7
  6
CONTINUOUS
 62
7
 10
84.5024409488478
 20
70.2499999999999
 40
9
  1
6.5
  7
Font_0
 72
1
 11
92.2524409488478
 21
79.2499999999999
 73
3
  0
LINE
  8
画層2
  6
CONTINUOUS
 10
89.0013955180119
 20
51
 11
89.0013955180119
 21
72.9999999999999
  0
LINE
  8
画層2
  6
CONTINUOUS
 10
95.5034863796837
 20
51
 11
95.5034863796837
 21
73
  0
LINE
  8
画層2
  6
CONTINUOUS
 10
95.5034863796837
 20
70
 11
120.508316445602
 21
70
  0
POLYLINE
  8
画層2
  6
CONTINUOUS
 10
0.0
 20
0.0
 30
0.0
 66
1
 70
     1
  0
VERTEX
  8
画層2
 10
95.5034863796837
  20
70
  0
VERTEX
  8
画層2
 10
96.9523751191173
  20
70.3882285676538
  0
VERTEX
  8
画層2
 10
96.9523751191173
  20
69.6117714323462
  0
SEQEND
100
AcDbEntity
  8
画層2
  0
POLYLINE
  8
画層2
  6
CONTINUOUS
 10
0.0
 20
0.0
 30
0.0
 66
1
 70
     1
  0
VERTEX
  8
画層2
 10
120.508316445602
  20
70
  0
VERTEX
  8
画層2
 10
119.059427706168
  20
69.6117714323462
  0
VERTEX
  8
画層2
 10
119.059427706168
  20
70.3882285676538
  0
SEQEND
100
AcDbEntity
  8
画層2
  0
TEXT
  8
画層2
 62
7
  6
CONTINUOUS
 62
7
 10
103.005901412643
 20
70.25
 40
9
  1
25
  7
Font_0
 72
1
 11
108.005901412643
 21
79.25
 73
3
  0
LINE
  8
画層2
  6
CONTINUOUS
 10
120.508316445602
 20
51
 11
120.508316445602
 21
73
  0
LINE
  8
画層2
  6
CONTINUOUS
 10
66.9998537147482
 20
44.0011195923434
 11
67.0017308791644
 21
26.9985649098272
  0
LINE
  8
画層2
  6
CONTINUOUS
 10
67.0013996646311
 20
29.9985648915434
 11
85.9964258170449
 21
30.0006620344635
  0
POLYLINE
  8
画層2
  6
CONTINUOUS
 10
0.0
 20
0.0
 30
0.0
 66
1
 70
     1
  0
VERTEX
  8
画層2
 10
67.0013996646311
  20
29.9985648915434
  0
VERTEX
  8
画層2
 10
68.4502455329197
  20
30.3869534211669
  0
VERTEX
  8
画層2
 10
68.4503312575489
  20
29.6104962905916
  0
SEQEND
100
AcDbEntity
  8
画層2
  0
POLYLINE
  8
画層2
  6
CONTINUOUS
 10
0.0
 20
0.0
 30
0.0
 66
1
 70
     1
  0
VERTEX
  8
画層2
 10
85.9964258170449
  20
30.0006620344635
  0
VERTEX
  8
画層2
 10
84.5475799487563
  20
29.61227350484
  0
VERTEX
  8
画層2
 10
84.5474942241271
  20
30.3887306354153
  0
SEQEND
100
AcDbEntity
  8
画層2
  0
TEXT
  8
画層2
 62
7
  6
CONTINUOUS
 62
7
 10
71.4988851701
 20
30.2490614372576
 40
9
  1
19
  7
Font_0
 50
0.00632573163673397
 72
1
 11
76.497891496027
 21
39.2496134066283
 73
3
  0
LINE
  8
画層2
  6
CONTINUOUS
 10
85.9948798671621
 20
44.0032167352635
 11
85.9967570315782
 21
27.0006620527474
  0
LINE
  8
画層2
  6
CONTINUOUS
 10
98.5093789812281
 20
44.0032167291689
 11
98.5093789812281
 21
27
  0
LINE
  8
画層2
  6
CONTINUOUS
 10
98.5093789812281
 20
30
 11
117.510285851989
 21
30
  0
POLYLINE
  8
画層2
  6
CONTINUOUS
 10
0.0
 20
0.0
 30
0.0
 66
1
 70
     1
  0
VERTEX
  8
画層2
 10
98.5093789812281
  20
30
  0
VERTEX
  8
画層2
 10
99.9582677206617
  20
30.3882285676538
  0
VERTEX
  8
画層2
 10
99.9582677206617
  20
29.6117714323462
  0
SEQEND
100
AcDbEntity
  8
画層2
  0
POLYLINE
  8
画層2
  6
CONTINUOUS
 10
0.0
 20
0.0
 30
0.0
 66
1
 70
     1
  0
VERTEX
  8
画層2
 10
117.510285851989
  20
30
  0
VERTEX
  8
画層2
 10
116.061397112555
  20
29.6117714323462
  0
VERTEX
  8
画層2
 10
116.061397112555
  20
30.3882285676538
  0
SEQEND
100
AcDbEntity
  8
画層2
  0
TEXT
  8
画層2
 62
7
  6
CONTINUOUS
 62
7
 10
103.009832416608
 20
30.25
 40
9
  1
19
  7
Font_0
 72
1
 11
108.009832416608
 21
39.25
 73
3
  0
LINE
  8
画層2
  6
CONTINUOUS
 10
117.510285851989
 20
44.0032167291689
 11
117.510285851989
 21
27
  0
LINE
  8
画層2
  6
CONTINUOUS
 10
131.454222554141
 20
44.0010507061642
 11
131.454222554141
 21
27
  0
LINE
  8
画層2
  6
CONTINUOUS
 10
131.454222554141
 20
30
 11
171.454485237997
 21
30
  0
POLYLINE
  8
画層2
  6
CONTINUOUS
 10
0.0
 20
0.0
 30
0.0
 66
1
 70
     1
  0
VERTEX
  8
画層2
 10
131.454222554141
  20
30
  0
VERTEX
  8
画層2
 10
132.903111293574
  20
30.3882285676538
  0
VERTEX
  8
画層2
 10
132.903111293574
  20
29.6117714323462
  0
SEQEND
100
AcDbEntity
  8
画層2
  0
POLYLINE
  8
画層2
  6
CONTINUOUS
 10
0.0
 20
0.0
 30
0.0
 66
1
 70
     1
  0
VERTEX
  8
画層2
 10
171.454485237997
  20
30
  0
VERTEX
  8
画層2
 10
170.005596498564
  20
29.6117714323462
  0
VERTEX
  8
画層2
 10
170.005596498564
  20
30.3882285676538
  0
SEQEND
100
AcDbEntity
  8
画層2
  0
TEXT
  8
画層2
 62
7
  6
CONTINUOUS
 62
7
 10
146.454353896069
 20
30.25
 40
9
  1
40
  7
Font_0
 50
360
 72
1
 11
151.454353896069
 21
39.25
 73
3
  0
LINE
  8
画層2
  6
CONTINUOUS
 10
171.454485237997
 20
44.0010507061642
 11
171.454485237997
 21
27
  0
LINE
  8
画層2
  6
CONTINUOUS
 10
50
 20
61
 11
50
 21
93
  0
LINE
  8
画層2
  6
CONTINUOUS
 10
50
 20
90
 11
190
 21
90
  0
POLYLINE
  8
画層2
  6
CONTINUOUS
 10
0.0
 20
0.0
 30
0.0
 66
1
 70
     1
  0
VERTEX
  8
画層2
 10
50
  20
90
  0
VERTEX
  8
画層2
 10
51.4488887394336
  20
90.3882285676538
  0
VERTEX
  8
画層2
 10
51.4488887394336
  20
89.6117714323462
  0
SEQEND
100
AcDbEntity
  8
画層2
  0
POLYLINE
  8
画層2
  6
CONTINUOUS
 10
0.0
 20
0.0
 30
0.0
 66
1
 70
     1
  0
VERTEX
  8
画層2
 10
190
  20
90
  0
VERTEX
  8
画層2
 10
188.551111260566
  20
89.6117714323462
  0
VERTEX
  8
画層2
 10
188.551111260566
  20
90.3882285676538
  0
SEQEND
100
AcDbEntity
  8
画層2
  0
TEXT
  8
画層2
 62
7
  6
CONTINUOUS
 62
7
 10
112.25
 20
90.25
 40
9
  1
140
  7
Font_0
 72
1
 11
120
 21
99.25
 73
3
  0
LINE
  8
画層2
  6
CONTINUOUS
 10
190
 20
61
 11
190
 21
93
  0
LINE
  8
画層2
  6
CONTINUOUS
 10
49
 20
40
 11
37
 21
40
  0
LINE
  8
画層2
  6
CONTINUOUS
 10
40
 20
40
 11
40
 21
60
  0
POLYLINE
  8
画層2
  6
CONTINUOUS
 10
0.0
 20
0.0
 30
0.0
 66
1
 70
     1
  0
VERTEX
  8
画層2
 10
40
  20
40
  0
VERTEX
  8
画層2
 10
39.6117714323462
  20
41.4488887394336
  0
VERTEX
  8
画層2
 10
40.3882285676538
  20
41.4488887394336
  0
SEQEND
100
AcDbEntity
  8
画層2
  0
POLYLINE
  8
画層2
  6
CONTINUOUS
 10
0.0
 20
0.0
 30
0.0
 66
1
 70
     1
  0
VERTEX
  8
画層2
 10
40
  20
60
  0
VERTEX
  8
画層2
 10
40.3882285676538
  20
58.5511112605664
  0
VERTEX
  8
画層2
 10
39.6117714323462
  20
58.5511112605664
  0
SEQEND
100
AcDbEntity
  8
画層2
  0
TEXT
  8
画層2
 62
7
  6
CONTINUOUS
 62
7
 10
39.75
 20
45
 40
9
  1
20
  7
Font_0
 50
90
 72
1
 11
30.75
 21
50
 73
3
  0
LINE
  8
画層2
  6
CONTINUOUS
 10
49
 20
60
 11
37
 21
60
  0
LINE
  8
画層2
  6
CONTINUOUS
 10
176.816970190846
 20
48.7706518827119
 11
190
 21
30
  0
POLYLINE
  8
画層2
  6
CONTINUOUS
 10
0.0
 20
0.0
 30
0.0
 66
1
 70
     1
  0
VERTEX
  8
画層2
 10
176.816970190846
  20
48.7706518827119
  0
VERTEX
  8
画層2
 10
179.117833681549
  20
46.8455474187541
  0
VERTEX
  8
画層2
 10
177.847024192457
  20
45.9530307666342
  0
SEQEND
100
AcDbEntity
  8
画層2
  0
LINE
  8
画層2
  6
CONTINUOUS
 10
190
 20
30
 11
210
 21
30
  0
TEXT
  8
画層2
 62
7
  6
CONTINUOUS
 62
7
 10
190.155077637265
 20
30.1718250886039
 40
9
  1
3キリ
  7
Font_0
 11
190.155077637265
 21
39.1718250886039
 73
3
  0
LINE
  8
画層2
  6
CONTINUOUS
 10
185.999999971326
 20
50.000239474345
 11
203.00239379714
 21
50.004311111587
  0
LINE
  8
画層2
  6
CONTINUOUS
 10
200.002393883162
 20
50.0035926885519
 11
199.999998385026
 21
60.0067438297256
  0
POLYLINE
  8
画層2
  6
CONTINUOUS
 10
0.0
 20
0.0
 30
0.0
 66
1
 70
     1
  0
VERTEX
  8
画層2
 10
200.002393883162
  20
50.0035926885519
  0
VERTEX
  8
画層2
 10
199.613818354959
  20
51.4523884156582
  0
VERTEX
  8
画層2
 10
200.390275468002
  20
51.4525743572221
  0
SEQEND
100
AcDbEntity
  8
画層2
  0
POLYLINE
  8
画層2
  6
CONTINUOUS
 10
0.0
 20
0.0
 30
0.0
 66
1
 70
     1
  0
VERTEX
  8
画層2
 10
199.999998385026
  20
60.0067438297256
  0
VERTEX
  8
画層2
 10
200.388573913229
  20
58.5579481026194
  0
VERTEX
  8
画層2
 10
199.612116800186
  20
58.5577621610555
  0
SEQEND
100
AcDbEntity
  8
画層2
  0
TEXT
  8
画層2
 62
7
  6
CONTINUOUS
 62
7
 10
200.2499987552
 20
60.0052279843551
 40
9
  1
10
  7
Font_0
 50
-89.9862791305975
 72
1
 11
209.25119586886
 21
55.0073833968302
 73
3
  0
LINE
  8
画層2
  6
CONTINUOUS
 10
185.99760447319
 20
60.0033906155187
 11
202.999998299004
 21
60.0074622527607
  0
LINE
  8
画層2
  6
CONTINUOUS
 10
67.9997433099038
 20
55.0018084910948
 11
83
 21
55.0018084910948
  0
LINE
  8
画層2
  6
CONTINUOUS
 10
80
 20
55.0018084910948
 11
80
 21
45.0032167291689
  0
POLYLINE
  8
画層2
  6
CONTINUOUS
 10
0.0
 20
0.0
 30
0.0
 66
1
 70
     1
  0
VERTEX
  8
画層2
 10
80
  20
55.0018084910948
  0
VERTEX
  8
画層2
 10
80.3882285676538
  20
53.5529197516612
  0
VERTEX
  8
画層2
 10
79.6117714323462
  20
53.5529197516612
  0
SEQEND
100
AcDbEntity
  8
画層2
  0
POLYLINE
  8
画層2
  6
CONTINUOUS
 10
0.0
 20
0.0
 30
0.0
 66
1
 70
     1
  0
VERTEX
  8
画層2
 10
80
  20
45.0032167291689
  0
VERTEX
  8
画層2
 10
79.6117714323462
  20
46.4521054686025
  0
VERTEX
  8
画層2
 10
80.3882285676538
  20
46.4521054686025
  0
SEQEND
100
AcDbEntity
  8
画層2
  0
TEXT
  8
画層2
 62
7
  6
CONTINUOUS
 62
7
 10
79.75
 20
45.0025126101319
 40
9
  1
10
  7
Font_0
 50
90
 72
1
 11
70.75
 21
50.0025126101319
 73
3
  0
LINE
  8
画層2
  6
CONTINUOUS
 10
67.9997433099038
 20
45.0032167291689
 11
83
 21
45.0032167291689
  0
ENDSEC
  0
EOF
