999
Outputted By AR_CAD Ver.1.4.1
  0
SECTION
  2
HEADER
  9
$ACADVER
  1
AC1009
  9
$DWGCODEPAGE
  3
DOS932
  9
$EXTMIN
 10
0
 20
0
  9
$EXTMAX
 10
297
 20
210
  9
$INSBASE
 10
0.0
 20
0.0
 30
0.0
  9
$HANDLING
 70
     1
  9
$LTSCALE
 40
1
  0
ENDSEC
  0
SECTION
  2
TABLES
  0
TABLE
  2
LTYPE
 70
     7
  0
LTYPE
  2
BYBLOCK
 70
    64
 3

 72
    65
 73
    0
 40
    0
  0
LTYPE
  2
BYLAYER
 70
    64
 3

 72
    65
 73
    0
 40
    0
  0
LTYPE
  2
CONTINUOUS
 70
    64
 3
CONTINUOUS
 72
    65
 73
    0
 40
    0
  0
LTYPE
  2
DASHED
 70
    64
 3

 72
    65
 73
    2
 40
    3.5
 49
    2.91666666666667
 49
    -0.583333333333333
  0
LTYPE
  2
DOT
 70
    64
 3

 72
    65
 73
    2
 40
    0.5
 49
    0.25
 49
    -0.25
  0
LTYPE
  2
DASHDOT
 70
    64
 3

 72
    65
 73
    4
 40
    3.5
 49
    1.84210526315789
 49
    -0.552631578947368
 49
    0.552631578947368
 49
    -0.552631578947368
  0
LTYPE
  2
DIVIDE
 70
    64
 3

 72
    65
 73
    6
 40
    3.5
 49
    1.4
 49
    -0.42
 49
    0.42
 49
    -0.42
 49
    0.42
 49
    -0.42
  0
LTYPE
  2
HIDDEN
 70
    64
 3

 72
    65
 73
    2
 40
    4
 49
    2
 49
    -2
  0
ENDTAB
  0
TABLE
  2
LAYER
 70
   257
  0
LAYER
  2
画層0
 70
    4
 62
7
  6
CONTINUOUS
  0
LAYER
  2
画層1
 70
    0
 62
-150
  6
CONTINUOUS
  0
LAYER
  2
画層2
 70
    4
 62
7
  6
CONTINUOUS
  0
LAYER
  2
画層3
 70
    4
 62
7
  6
CONTINUOUS
  0
LAYER
  2
画層4
 70
    0
 62
-6
  6
CONTINUOUS
  0
LAYER
  2
画層5
 70
    0
 62
-1
  6
CONTINUOUS
  0
LAYER
  2
画層6
 70
    0
 62
-7
  6
CONTINUOUS
  0
LAYER
  2
画層7
 70
    0
 62
-51
  6
CONTINUOUS
  0
LAYER
  2
画層8
 70
    0
 62
-61
  6
CONTINUOUS
  0
LAYER
  2
画層9
 70
    0
 62
-111
  6
CONTINUOUS
  0
LAYER
  2
画層10
 70
    0
 62
-91
  6
CONTINUOUS
  0
LAYER
  2
画層11
 70
    0
 62
-131
  6
CONTINUOUS
  0
LAYER
  2
画層12
 70
    0
 62
-161
  6
CONTINUOUS
  0
LAYER
  2
画層13
 70
    0
 62
-5
  6
CONTINUOUS
  0
LAYER
  2
画層14
 70
    0
 62
-7
  6
CONTINUOUS
  0
LAYER
  2
画層15
 70
    0
 62
-11
  6
CONTINUOUS
  0
LAYER
  2
画層16
 70
    0
 62
7
  6
CONTINUOUS
  0
LAYER
  2
画層17
 70
    0
 62
70
  6
CONTINUOUS
  0
LAYER
  2
画層18
 70
    0
 62
211
  6
CONTINUOUS
  0
LAYER
  2
画層19
 70
    0
 62
137
  6
CONTINUOUS
  0
LAYER
  2
画層20
 70
    0
 62
4
  6
CONTINUOUS
  0
LAYER
  2
画層21
 70
    0
 62
131
  6
CONTINUOUS
  0
LAYER
  2
画層22
 70
    0
 62
4
  6
CONTINUOUS
  0
LAYER
  2
画層23
 70
    0
 62
4
  6
CONTINUOUS
  0
LAYER
  2
画層24
 70
    0
 62
7
  6
CONTINUOUS
  0
LAYER
  2
画層25
 70
    0
 62
7
  6
CONTINUOUS
  0
LAYER
  2
画層26
 70
    0
 62
7
  6
CONTINUOUS
  0
LAYER
  2
画層27
 70
    0
 62
7
  6
CONTINUOUS
  0
LAYER
  2
画層28
 70
    0
 62
7
  6
CONTINUOUS
  0
LAYER
  2
画層29
 70
    0
 62
7
  6
CONTINUOUS
  0
LAYER
  2
画層30
 70
    0
 62
7
  6
CONTINUOUS
  0
LAYER
  2
画層31
 70
    0
 62
7
  6
CONTINUOUS
  0
LAYER
  2
画層32
 70
    0
 62
7
  6
CONTINUOUS
  0
LAYER
  2
画層33
 70
    0
 62
7
  6
CONTINUOUS
  0
LAYER
  2
画層34
 70
    0
 62
7
  6
CONTINUOUS
  0
LAYER
  2
画層35
 70
    0
 62
7
  6
CONTINUOUS
  0
LAYER
  2
画層36
 70
    0
 62
7
  6
CONTINUOUS
  0
LAYER
  2
画層37
 70
    0
 62
7
  6
CONTINUOUS
  0
LAYER
  2
画層38
 70
    0
 62
7
  6
CONTINUOUS
  0
LAYER
  2
画層39
 70
    0
 62
7
  6
CONTINUOUS
  0
LAYER
  2
画層40
 70
    0
 62
7
  6
CONTINUOUS
  0
LAYER
  2
画層41
 70
    0
 62
7
  6
CONTINUOUS
  0
LAYER
  2
画層42
 70
    0
 62
7
  6
CONTINUOUS
  0
LAYER
  2
画層43
 70
    0
 62
7
  6
CONTINUOUS
  0
LAYER
  2
画層44
 70
    0
 62
7
  6
CONTINUOUS
  0
LAYER
  2
画層45
 70
    0
 62
7
  6
CONTINUOUS
  0
LAYER
  2
画層46
 70
    0
 62
7
  6
CONTINUOUS
  0
LAYER
  2
画層47
 70
    0
 62
7
  6
CONTINUOUS
  0
LAYER
  2
画層48
 70
    0
 62
7
  6
CONTINUOUS
  0
LAYER
  2
画層49
 70
    0
 62
7
  6
CONTINUOUS
  0
LAYER
  2
画層50
 70
    0
 62
7
  6
CONTINUOUS
  0
LAYER
  2
画層51
 70
    0
 62
7
  6
CONTINUOUS
  0
LAYER
  2
画層52
 70
    0
 62
7
  6
CONTINUOUS
  0
LAYER
  2
画層53
 70
    0
 62
7
  6
CONTINUOUS
  0
LAYER
  2
画層54
 70
    0
 62
7
  6
CONTINUOUS
  0
LAYER
  2
画層55
 70
    0
 62
7
  6
CONTINUOUS
  0
LAYER
  2
画層56
 70
    0
 62
7
  6
CONTINUOUS
  0
LAYER
  2
画層57
 70
    0
 62
7
  6
CONTINUOUS
  0
LAYER
  2
画層58
 70
    0
 62
7
  6
CONTINUOUS
  0
LAYER
  2
画層59
 70
    0
 62
7
  6
CONTINUOUS
  0
LAYER
  2
画層60
 70
    0
 62
7
  6
CONTINUOUS
  0
LAYER
  2
画層61
 70
    0
 62
7
  6
CONTINUOUS
  0
LAYER
  2
画層62
 70
    0
 62
7
  6
CONTINUOUS
  0
LAYER
  2
画層63
 70
    0
 62
7
  6
CONTINUOUS
  0
LAYER
  2
画層64
 70
    0
 62
7
  6
CONTINUOUS
  0
LAYER
  2
画層65
 70
    0
 62
7
  6
CONTINUOUS
  0
LAYER
  2
画層66
 70
    0
 62
7
  6
CONTINUOUS
  0
LAYER
  2
画層67
 70
    0
 62
7
  6
CONTINUOUS
  0
LAYER
  2
画層68
 70
    0
 62
7
  6
CONTINUOUS
  0
LAYER
  2
画層69
 70
    0
 62
7
  6
CONTINUOUS
  0
LAYER
  2
画層70
 70
    0
 62
7
  6
CONTINUOUS
  0
LAYER
  2
画層71
 70
    0
 62
7
  6
CONTINUOUS
  0
LAYER
  2
画層72
 70
    0
 62
7
  6
CONTINUOUS
  0
LAYER
  2
画層73
 70
    0
 62
7
  6
CONTINUOUS
  0
LAYER
  2
画層74
 70
    0
 62
7
  6
CONTINUOUS
  0
LAYER
  2
画層75
 70
    0
 62
7
  6
CONTINUOUS
  0
LAYER
  2
画層76
 70
    0
 62
7
  6
CONTINUOUS
  0
LAYER
  2
画層77
 70
    0
 62
7
  6
CONTINUOUS
  0
LAYER
  2
画層78
 70
    0
 62
7
  6
CONTINUOUS
  0
LAYER
  2
画層79
 70
    0
 62
7
  6
CONTINUOUS
  0
LAYER
  2
画層80
 70
    0
 62
7
  6
CONTINUOUS
  0
LAYER
  2
画層81
 70
    0
 62
7
  6
CONTINUOUS
  0
LAYER
  2
画層82
 70
    0
 62
7
  6
CONTINUOUS
  0
LAYER
  2
画層83
 70
    0
 62
7
  6
CONTINUOUS
  0
LAYER
  2
画層84
 70
    0
 62
7
  6
CONTINUOUS
  0
LAYER
  2
画層85
 70
    0
 62
7
  6
CONTINUOUS
  0
LAYER
  2
画層86
 70
    0
 62
7
  6
CONTINUOUS
  0
LAYER
  2
画層87
 70
    0
 62
7
  6
CONTINUOUS
  0
LAYER
  2
画層88
 70
    0
 62
7
  6
CONTINUOUS
  0
LAYER
  2
画層89
 70
    0
 62
7
  6
CONTINUOUS
  0
LAYER
  2
画層90
 70
    0
 62
7
  6
CONTINUOUS
  0
LAYER
  2
画層91
 70
    0
 62
7
  6
CONTINUOUS
  0
LAYER
  2
画層92
 70
    0
 62
7
  6
CONTINUOUS
  0
LAYER
  2
画層93
 70
    0
 62
7
  6
CONTINUOUS
  0
LAYER
  2
画層94
 70
    0
 62
7
  6
CONTINUOUS
  0
LAYER
  2
画層95
 70
    0
 62
7
  6
CONTINUOUS
  0
LAYER
  2
画層96
 70
    0
 62
7
  6
CONTINUOUS
  0
LAYER
  2
画層97
 70
    0
 62
7
  6
CONTINUOUS
  0
LAYER
  2
画層98
 70
    0
 62
7
  6
CONTINUOUS
  0
LAYER
  2
画層99
 70
    0
 62
7
  6
CONTINUOUS
  0
LAYER
  2
画層100
 70
    0
 62
7
  6
CONTINUOUS
  0
LAYER
  2
画層101
 70
    0
 62
7
  6
CONTINUOUS
  0
LAYER
  2
画層102
 70
    0
 62
7
  6
CONTINUOUS
  0
LAYER
  2
画層103
 70
    0
 62
7
  6
CONTINUOUS
  0
LAYER
  2
画層104
 70
    0
 62
7
  6
CONTINUOUS
  0
LAYER
  2
画層105
 70
    0
 62
7
  6
CONTINUOUS
  0
LAYER
  2
画層106
 70
    0
 62
7
  6
CONTINUOUS
  0
LAYER
  2
画層107
 70
    0
 62
7
  6
CONTINUOUS
  0
LAYER
  2
画層108
 70
    0
 62
7
  6
CONTINUOUS
  0
LAYER
  2
画層109
 70
    0
 62
7
  6
CONTINUOUS
  0
LAYER
  2
画層110
 70
    0
 62
7
  6
CONTINUOUS
  0
LAYER
  2
画層111
 70
    0
 62
7
  6
CONTINUOUS
  0
LAYER
  2
画層112
 70
    0
 62
7
  6
CONTINUOUS
  0
LAYER
  2
画層113
 70
    0
 62
7
  6
CONTINUOUS
  0
LAYER
  2
画層114
 70
    0
 62
7
  6
CONTINUOUS
  0
LAYER
  2
画層115
 70
    0
 62
7
  6
CONTINUOUS
  0
LAYER
  2
画層116
 70
    0
 62
7
  6
CONTINUOUS
  0
LAYER
  2
画層117
 70
    0
 62
7
  6
CONTINUOUS
  0
LAYER
  2
画層118
 70
    0
 62
7
  6
CONTINUOUS
  0
LAYER
  2
画層119
 70
    0
 62
7
  6
CONTINUOUS
  0
LAYER
  2
画層120
 70
    0
 62
7
  6
CONTINUOUS
  0
LAYER
  2
画層121
 70
    0
 62
7
  6
CONTINUOUS
  0
LAYER
  2
画層122
 70
    0
 62
7
  6
CONTINUOUS
  0
LAYER
  2
画層123
 70
    0
 62
7
  6
CONTINUOUS
  0
LAYER
  2
画層124
 70
    0
 62
7
  6
CONTINUOUS
  0
LAYER
  2
画層125
 70
    0
 62
7
  6
CONTINUOUS
  0
LAYER
  2
画層126
 70
    0
 62
7
  6
CONTINUOUS
  0
LAYER
  2
画層127
 70
    0
 62
7
  6
CONTINUOUS
  0
LAYER
  2
画層128
 70
    0
 62
7
  6
CONTINUOUS
  0
LAYER
  2
画層129
 70
    0
 62
7
  6
CONTINUOUS
  0
LAYER
  2
画層130
 70
    0
 62
7
  6
CONTINUOUS
  0
LAYER
  2
画層131
 70
    0
 62
7
  6
CONTINUOUS
  0
LAYER
  2
画層132
 70
    0
 62
7
  6
CONTINUOUS
  0
LAYER
  2
画層133
 70
    0
 62
7
  6
CONTINUOUS
  0
LAYER
  2
画層134
 70
    0
 62
7
  6
CONTINUOUS
  0
LAYER
  2
画層135
 70
    0
 62
7
  6
CONTINUOUS
  0
LAYER
  2
画層136
 70
    0
 62
7
  6
CONTINUOUS
  0
LAYER
  2
画層137
 70
    0
 62
7
  6
CONTINUOUS
  0
LAYER
  2
画層138
 70
    0
 62
7
  6
CONTINUOUS
  0
LAYER
  2
画層139
 70
    0
 62
7
  6
CONTINUOUS
  0
LAYER
  2
画層140
 70
    0
 62
7
  6
CONTINUOUS
  0
LAYER
  2
画層141
 70
    0
 62
7
  6
CONTINUOUS
  0
LAYER
  2
画層142
 70
    0
 62
7
  6
CONTINUOUS
  0
LAYER
  2
画層143
 70
    0
 62
7
  6
CONTINUOUS
  0
LAYER
  2
画層144
 70
    0
 62
7
  6
CONTINUOUS
  0
LAYER
  2
画層145
 70
    0
 62
7
  6
CONTINUOUS
  0
LAYER
  2
画層146
 70
    0
 62
7
  6
CONTINUOUS
  0
LAYER
  2
画層147
 70
    0
 62
7
  6
CONTINUOUS
  0
LAYER
  2
画層148
 70
    0
 62
7
  6
CONTINUOUS
  0
LAYER
  2
画層149
 70
    0
 62
7
  6
CONTINUOUS
  0
LAYER
  2
画層150
 70
    0
 62
7
  6
CONTINUOUS
  0
LAYER
  2
画層151
 70
    0
 62
7
  6
CONTINUOUS
  0
LAYER
  2
画層152
 70
    0
 62
7
  6
CONTINUOUS
  0
LAYER
  2
画層153
 70
    0
 62
7
  6
CONTINUOUS
  0
LAYER
  2
画層154
 70
    0
 62
7
  6
CONTINUOUS
  0
LAYER
  2
画層155
 70
    0
 62
7
  6
CONTINUOUS
  0
LAYER
  2
画層156
 70
    0
 62
7
  6
CONTINUOUS
  0
LAYER
  2
画層157
 70
    0
 62
7
  6
CONTINUOUS
  0
LAYER
  2
画層158
 70
    0
 62
7
  6
CONTINUOUS
  0
LAYER
  2
画層159
 70
    0
 62
7
  6
CONTINUOUS
  0
LAYER
  2
画層160
 70
    0
 62
7
  6
CONTINUOUS
  0
LAYER
  2
画層161
 70
    0
 62
7
  6
CONTINUOUS
  0
LAYER
  2
画層162
 70
    0
 62
7
  6
CONTINUOUS
  0
LAYER
  2
画層163
 70
    0
 62
7
  6
CONTINUOUS
  0
LAYER
  2
画層164
 70
    0
 62
7
  6
CONTINUOUS
  0
LAYER
  2
画層165
 70
    0
 62
7
  6
CONTINUOUS
  0
LAYER
  2
画層166
 70
    0
 62
7
  6
CONTINUOUS
  0
LAYER
  2
画層167
 70
    0
 62
7
  6
CONTINUOUS
  0
LAYER
  2
画層168
 70
    0
 62
7
  6
CONTINUOUS
  0
LAYER
  2
画層169
 70
    0
 62
7
  6
CONTINUOUS
  0
LAYER
  2
画層170
 70
    0
 62
7
  6
CONTINUOUS
  0
LAYER
  2
画層171
 70
    0
 62
7
  6
CONTINUOUS
  0
LAYER
  2
画層172
 70
    0
 62
7
  6
CONTINUOUS
  0
LAYER
  2
画層173
 70
    0
 62
7
  6
CONTINUOUS
  0
LAYER
  2
画層174
 70
    0
 62
7
  6
CONTINUOUS
  0
LAYER
  2
画層175
 70
    0
 62
7
  6
CONTINUOUS
  0
LAYER
  2
画層176
 70
    0
 62
7
  6
CONTINUOUS
  0
LAYER
  2
画層177
 70
    0
 62
7
  6
CONTINUOUS
  0
LAYER
  2
画層178
 70
    0
 62
7
  6
CONTINUOUS
  0
LAYER
  2
画層179
 70
    0
 62
7
  6
CONTINUOUS
  0
LAYER
  2
画層180
 70
    0
 62
7
  6
CONTINUOUS
  0
LAYER
  2
画層181
 70
    0
 62
7
  6
CONTINUOUS
  0
LAYER
  2
画層182
 70
    0
 62
7
  6
CONTINUOUS
  0
LAYER
  2
画層183
 70
    0
 62
7
  6
CONTINUOUS
  0
LAYER
  2
画層184
 70
    0
 62
7
  6
CONTINUOUS
  0
LAYER
  2
画層185
 70
    0
 62
7
  6
CONTINUOUS
  0
LAYER
  2
画層186
 70
    0
 62
7
  6
CONTINUOUS
  0
LAYER
  2
画層187
 70
    0
 62
7
  6
CONTINUOUS
  0
LAYER
  2
画層188
 70
    0
 62
7
  6
CONTINUOUS
  0
LAYER
  2
画層189
 70
    0
 62
7
  6
CONTINUOUS
  0
LAYER
  2
画層190
 70
    0
 62
7
  6
CONTINUOUS
  0
LAYER
  2
画層191
 70
    0
 62
7
  6
CONTINUOUS
  0
LAYER
  2
画層192
 70
    0
 62
7
  6
CONTINUOUS
  0
LAYER
  2
画層193
 70
    0
 62
7
  6
CONTINUOUS
  0
LAYER
  2
画層194
 70
    0
 62
7
  6
CONTINUOUS
  0
LAYER
  2
画層195
 70
    0
 62
7
  6
CONTINUOUS
  0
LAYER
  2
画層196
 70
    0
 62
7
  6
CONTINUOUS
  0
LAYER
  2
画層197
 70
    0
 62
7
  6
CONTINUOUS
  0
LAYER
  2
画層198
 70
    0
 62
7
  6
CONTINUOUS
  0
LAYER
  2
画層199
 70
    0
 62
7
  6
CONTINUOUS
  0
LAYER
  2
画層200
 70
    0
 62
7
  6
CONTINUOUS
  0
LAYER
  2
画層201
 70
    0
 62
7
  6
CONTINUOUS
  0
LAYER
  2
画層202
 70
    0
 62
7
  6
CONTINUOUS
  0
LAYER
  2
画層203
 70
    0
 62
7
  6
CONTINUOUS
  0
LAYER
  2
画層204
 70
    0
 62
7
  6
CONTINUOUS
  0
LAYER
  2
画層205
 70
    0
 62
7
  6
CONTINUOUS
  0
LAYER
  2
画層206
 70
    0
 62
7
  6
CONTINUOUS
  0
LAYER
  2
画層207
 70
    0
 62
7
  6
CONTINUOUS
  0
LAYER
  2
画層208
 70
    0
 62
7
  6
CONTINUOUS
  0
LAYER
  2
画層209
 70
    0
 62
7
  6
CONTINUOUS
  0
LAYER
  2
画層210
 70
    0
 62
7
  6
CONTINUOUS
  0
LAYER
  2
画層211
 70
    0
 62
7
  6
CONTINUOUS
  0
LAYER
  2
画層212
 70
    0
 62
7
  6
CONTINUOUS
  0
LAYER
  2
画層213
 70
    0
 62
7
  6
CONTINUOUS
  0
LAYER
  2
画層214
 70
    0
 62
7
  6
CONTINUOUS
  0
LAYER
  2
画層215
 70
    0
 62
7
  6
CONTINUOUS
  0
LAYER
  2
画層216
 70
    0
 62
7
  6
CONTINUOUS
  0
LAYER
  2
画層217
 70
    0
 62
7
  6
CONTINUOUS
  0
LAYER
  2
画層218
 70
    0
 62
7
  6
CONTINUOUS
  0
LAYER
  2
画層219
 70
    0
 62
7
  6
CONTINUOUS
  0
LAYER
  2
画層220
 70
    0
 62
7
  6
CONTINUOUS
  0
LAYER
  2
画層221
 70
    0
 62
7
  6
CONTINUOUS
  0
LAYER
  2
画層222
 70
    0
 62
7
  6
CONTINUOUS
  0
LAYER
  2
画層223
 70
    0
 62
7
  6
CONTINUOUS
  0
LAYER
  2
画層224
 70
    0
 62
7
  6
CONTINUOUS
  0
LAYER
  2
画層225
 70
    0
 62
7
  6
CONTINUOUS
  0
LAYER
  2
画層226
 70
    0
 62
7
  6
CONTINUOUS
  0
LAYER
  2
画層227
 70
    0
 62
7
  6
CONTINUOUS
  0
LAYER
  2
画層228
 70
    0
 62
7
  6
CONTINUOUS
  0
LAYER
  2
画層229
 70
    0
 62
7
  6
CONTINUOUS
  0
LAYER
  2
画層230
 70
    0
 62
7
  6
CONTINUOUS
  0
LAYER
  2
画層231
 70
    0
 62
7
  6
CONTINUOUS
  0
LAYER
  2
画層232
 70
    0
 62
7
  6
CONTINUOUS
  0
LAYER
  2
画層233
 70
    0
 62
7
  6
CONTINUOUS
  0
LAYER
  2
画層234
 70
    0
 62
7
  6
CONTINUOUS
  0
LAYER
  2
画層235
 70
    0
 62
7
  6
CONTINUOUS
  0
LAYER
  2
画層236
 70
    0
 62
7
  6
CONTINUOUS
  0
LAYER
  2
画層237
 70
    0
 62
7
  6
CONTINUOUS
  0
LAYER
  2
画層238
 70
    0
 62
7
  6
CONTINUOUS
  0
LAYER
  2
画層239
 70
    0
 62
7
  6
CONTINUOUS
  0
LAYER
  2
画層240
 70
    0
 62
7
  6
CONTINUOUS
  0
LAYER
  2
画層241
 70
    0
 62
7
  6
CONTINUOUS
  0
LAYER
  2
画層242
 70
    0
 62
7
  6
CONTINUOUS
  0
LAYER
  2
画層243
 70
    0
 62
7
  6
CONTINUOUS
  0
LAYER
  2
画層244
 70
    0
 62
7
  6
CONTINUOUS
  0
LAYER
  2
画層245
 70
    0
 62
7
  6
CONTINUOUS
  0
LAYER
  2
画層246
 70
    0
 62
7
  6
CONTINUOUS
  0
LAYER
  2
画層247
 70
    0
 62
7
  6
CONTINUOUS
  0
LAYER
  2
画層248
 70
    0
 62
7
  6
CONTINUOUS
  0
LAYER
  2
画層249
 70
    0
 62
7
  6
CONTINUOUS
  0
LAYER
  2
画層250
 70
    0
 62
7
  6
CONTINUOUS
  0
LAYER
  2
画層251
 70
    0
 62
7
  6
CONTINUOUS
  0
LAYER
  2
画層252
 70
    0
 62
7
  6
CONTINUOUS
  0
LAYER
  2
画層253
 70
    0
 62
7
  6
CONTINUOUS
  0
LAYER
  2
画層254
 70
    0
 62
7
  6
CONTINUOUS
  0
LAYER
  2
画層255
 70
    0
 62
7
  6
CONTINUOUS
  0
LAYER
  2
0
 70
   64
 62
    7
  6
CONTINUOUS
  0
ENDTAB
  0
TABLE
  2
STYLE
 70
     1
  0
STYLE
  2
Standard
 70
     0
 40
0.0
 41
1.0
 50
0.0
 71
     0
 42
3.2
  3
TXT
  4
BIGFONT
  0
STYLE
  2
Font_0
 70
     0
 40
0.0
 41
1.0
 50
0.0
 71
     0
 42
3.2
  3
txt
  4
BIGFONT
  0
ENDTAB
  0
ENDSEC
  0
SECTION
  2
ENTITIES
  0
LINE
  8
画層0
  6
CONTINUOUS
 10
210
 20
130
 11
368.000969847757
 21
130
  0
LINE
  8
画層0
  6
CONTINUOUS
 10
235
 20
148.994965766284
 11
235
 21
268.995624534599
  0
LINE
  8
画層0
  6
CONTINUOUS
 10
235
 20
268.995624534599
 11
210
 21
268.995624534599
  0
LINE
  8
画層0
  6
CONTINUOUS
 10
210
 20
268.995624534599
 11
210
 21
287.995296343972
  0
LINE
  8
画層0
  6
CONTINUOUS
 10
368.000969847757
 20
287.995296343972
 11
210
 21
287.995296343972
  0
LINE
  8
画層0
  6
CONTINUOUS
 10
368.000969847757
 20
268.995624534599
 11
368.000969847757
 21
287.995296343972
  0
LINE
  8
画層0
  6
CONTINUOUS
 10
342.998412790921
 20
268.995624534599
 11
368.000969847757
 21
268.995624534599
  0
LINE
  8
画層0
  6
CONTINUOUS
 10
210
 20
149.004050823209
 11
209.664944553682
 21
149.004050823209
  0
LINE
  8
画層0
  6
CONTINUOUS
 10
210
 20
149.004050823209
 11
210
 21
130
  0
LINE
  8
画層0
  6
CONTINUOUS
 10
210
 20
149.004050823209
 11
235
 21
149.004050823209
  0
LINE
  8
画層0
  6
CONTINUOUS
 10
368.000969847757
 20
130
 11
368.000969847757
 21
149.004050823209
  0
LINE
  8
画層0
  6
CONTINUOUS
 10
342.998412790921
 20
149.004050823209
 11
368.000969847757
 21
149.004050823209
  0
LINE
  8
画層0
  6
CONTINUOUS
 10
342.998412790921
 20
149.004050823209
 11
342.998412790921
 21
268.995624534599
  0
CIRCLE
  8
画層0
  6
CONTINUOUS
 10
214.002561965476
 20
133.997394034811
 40
1.50048227446724
  0
CIRCLE
  8
画層0
  6
CONTINUOUS
 10
364.005873282001
 20
133.997394034811
 40
1.50048227446724
  0
CIRCLE
  8
画層0
  6
CONTINUOUS
 10
224.99726048177
 20
143.997661352656
 40
1.50048227446724
  0
CIRCLE
  8
画層0
  6
CONTINUOUS
 10
352.997319911643
 20
143.997661352656
 40
1.50048227446724
  0
CIRCLE
  8
画層0
  6
CONTINUOUS
 10
246.495891157877
 20
143.997661352656
 40
1.50048227446724
  0
CIRCLE
  8
画層0
  6
CONTINUOUS
 10
331.503014694062
 20
143.997661352656
 40
1.50048227446724
  0
CIRCLE
  8
画層0
  6
CONTINUOUS
 10
331.503014694062
 20
205.995324830461
 40
1.50048227446724
  0
CIRCLE
  8
画層0
  6
CONTINUOUS
 10
246.495891157877
 20
205.995324830461
 40
1.50048227446724
  0
CIRCLE
  8
画層0
  6
CONTINUOUS
 10
255.992525201943
 20
232.99602447535
 40
1.50048227446724
  0
CIRCLE
  8
画層0
  6
CONTINUOUS
 10
321.99595377933
 20
232.99602447535
 40
1.50048227446724
  0
CIRCLE
  8
画層0
  6
CONTINUOUS
 10
255.992525201943
 20
273.995510098925
 40
1.50048227446724
  0
CIRCLE
  8
画層0
  6
CONTINUOUS
 10
321.99595377933
 20
273.995510098925
 40
1.50048227446724
  0
CIRCLE
  8
画層0
  6
CONTINUOUS
 10
224.99726048177
 20
273.995510098925
 40
1.50048227446724
  0
CIRCLE
  8
画層0
  6
CONTINUOUS
 10
352.997319911643
 20
273.995510098925
 40
1.50048227446724
  0
CIRCLE
  8
画層0
  6
CONTINUOUS
 10
364.005873282001
 20
283.992374400949
 40
1.50048227446724
  0
CIRCLE
  8
画層0
  6
CONTINUOUS
 10
214.002561965476
 20
283.992374400949
 40
1.50048227446724
  0
LINE
  8
画層3
  6
CONTINUOUS
 10
209
 20
268.995624534599
 11
197
 21
268.995624534599
  0
LINE
  8
画層3
  6
CONTINUOUS
 10
200
 20
268.995624534599
 11
200
 21
149.004050823209
  0
POLYLINE
  8
画層3
  6
CONTINUOUS
 10
0.0
 20
0.0
 30
0.0
 66
1
 70
     1
  0
VERTEX
  8
画層3
 10
200
  20
268.995624534599
  0
VERTEX
  8
画層3
 10
200.388228567654
  20
267.546735795165
  0
VERTEX
  8
画層3
 10
199.611771432346
  20
267.546735795165
  0
SEQEND
100
AcDbEntity
  8
画層3
  0
POLYLINE
  8
画層3
  6
CONTINUOUS
 10
0.0
 20
0.0
 30
0.0
 66
1
 70
     1
  0
VERTEX
  8
画層3
 10
200
  20
149.004050823209
  0
VERTEX
  8
画層3
 10
199.611771432346
  20
150.452939562643
  0
VERTEX
  8
画層3
 10
200.388228567654
  20
150.452939562643
  0
SEQEND
100
AcDbEntity
  8
画層3
  0
TEXT
  8
画層3
 62
7
  6
CONTINUOUS
 62
7
 10
199.75
 20
201.249837678904
 40
9
  1
120
  7
Font_0
 50
90
 72
1
 11
190.75
 21
208.999837678904
 73
3
  0
LINE
  8
画層3
  6
CONTINUOUS
 10
209
 20
149.004050823209
 11
197
 21
149.004050823209
  0
LINE
  8
画層2
  6
DASHDOT
 10
288.99920639546
 20
315.561358028363
 11
288.99920639546
 21
91.8268532825088
  0
LINE
  8
画層3
  6
CONTINUOUS
 10
255.992525201943
 20
274.995510098925
 11
255.992525201943
 21
303
  0
LINE
  8
画層3
  6
CONTINUOUS
 10
255.992525201943
 20
300
 11
321.99595377933
 21
300
  0
POLYLINE
  8
画層3
  6
CONTINUOUS
 10
0.0
 20
0.0
 30
0.0
 66
1
 70
     1
  0
VERTEX
  8
画層3
 10
255.992525201943
  20
300
  0
VERTEX
  8
画層3
 10
257.441413941376
  20
300.388228567654
  0
VERTEX
  8
画層3
 10
257.441413941376
  20
299.611771432346
  0
SEQEND
100
AcDbEntity
  8
画層3
  0
POLYLINE
  8
画層3
  6
CONTINUOUS
 10
0.0
 20
0.0
 30
0.0
 66
1
 70
     1
  0
VERTEX
  8
画層3
 10
321.99595377933
  20
300
  0
VERTEX
  8
画層3
 10
320.547065039896
  20
299.611771432346
  0
VERTEX
  8
画層3
 10
320.547065039896
  20
300.388228567654
  0
SEQEND
100
AcDbEntity
  8
画層3
  0
TEXT
  8
画層3
 62
7
  6
CONTINUOUS
 62
7
 10
283.994239490636
 20
300.25
 40
9
  1
66
  7
Font_0
 72
1
 11
288.994239490636
 21
309.25
 73
3
  0
LINE
  8
画層3
  6
CONTINUOUS
 10
321.99595377933
 20
274.995510098925
 11
321.99595377933
 21
303
  0
LINE
  8
画層3
  6
CONTINUOUS
 10
246.495891157877
 20
142.997661352656
 11
246.495891157877
 21
117
  0
LINE
  8
画層3
  6
CONTINUOUS
 10
246.495891157877
 20
120
 11
331.503014694062
 21
120
  0
POLYLINE
  8
画層3
  6
CONTINUOUS
 10
0.0
 20
0.0
 30
0.0
 66
1
 70
     1
  0
VERTEX
  8
画層3
 10
246.495891157877
  20
120
  0
VERTEX
  8
画層3
 10
247.944779897311
  20
120.388228567654
  0
VERTEX
  8
画層3
 10
247.944779897311
  20
119.611771432346
  0
SEQEND
100
AcDbEntity
  8
画層3
  0
POLYLINE
  8
画層3
  6
CONTINUOUS
 10
0.0
 20
0.0
 30
0.0
 66
1
 70
     1
  0
VERTEX
  8
画層3
 10
331.503014694062
  20
120
  0
VERTEX
  8
画層3
 10
330.054125954628
  20
119.611771432346
  0
VERTEX
  8
画層3
 10
330.054125954628
  20
120.388228567654
  0
SEQEND
100
AcDbEntity
  8
画層3
  0
TEXT
  8
画層3
 62
7
  6
CONTINUOUS
 62
7
 10
283.99945292597
 20
120.25
 40
9
  1
85
  7
Font_0
 72
1
 11
288.99945292597
 21
129.25
 73
3
  0
LINE
  8
画層3
  6
CONTINUOUS
 10
331.503014694062
 20
142.997661352656
 11
331.503014694062
 21
117
  0
LINE
  8
画層3
  6
CONTINUOUS
 10
210
 20
129
 11
210
 21
107
  0
LINE
  8
画層3
  6
CONTINUOUS
 10
210
 20
110
 11
368.000969847757
 21
110
  0
POLYLINE
  8
画層3
  6
CONTINUOUS
 10
0.0
 20
0.0
 30
0.0
 66
1
 70
     1
  0
VERTEX
  8
画層3
 10
210
  20
110
  0
VERTEX
  8
画層3
 10
211.448888739434
  20
110.388228567654
  0
VERTEX
  8
画層3
 10
211.448888739434
  20
109.611771432346
  0
SEQEND
100
AcDbEntity
  8
画層3
  0
POLYLINE
  8
画層3
  6
CONTINUOUS
 10
0.0
 20
0.0
 30
0.0
 66
1
 70
     1
  0
VERTEX
  8
画層3
 10
368.000969847757
  20
110
  0
VERTEX
  8
画層3
 10
366.552081108324
  20
109.611771432346
  0
VERTEX
  8
画層3
 10
366.552081108324
  20
110.388228567654
  0
SEQEND
100
AcDbEntity
  8
画層3
  0
TEXT
  8
画層3
 62
7
  6
CONTINUOUS
 62
7
 10
281.250484923879
 20
110.25
 40
9
  1
158
  7
Font_0
 72
1
 11
289.000484923879
 21
119.25
 73
3
  0
LINE
  8
画層3
  6
CONTINUOUS
 10
368.000969847757
 20
129
 11
368.000969847757
 21
107
  0
LINE
  8
画層3
  6
CONTINUOUS
 10
224.99726048177
 20
274.995510098925
 11
224.99726048177
 21
313
  0
LINE
  8
画層3
  6
CONTINUOUS
 10
224.99726048177
 20
310
 11
352.997319911643
 21
310
  0
POLYLINE
  8
画層3
  6
CONTINUOUS
 10
0.0
 20
0.0
 30
0.0
 66
1
 70
     1
  0
VERTEX
  8
画層3
 10
224.99726048177
  20
310
  0
VERTEX
  8
画層3
 10
226.446149221204
  20
310.388228567654
  0
VERTEX
  8
画層3
 10
226.446149221204
  20
309.611771432346
  0
SEQEND
100
AcDbEntity
  8
画層3
  0
POLYLINE
  8
画層3
  6
CONTINUOUS
 10
0.0
 20
0.0
 30
0.0
 66
1
 70
     1
  0
VERTEX
  8
画層3
 10
352.997319911643
  20
310
  0
VERTEX
  8
画層3
 10
351.548431172209
  20
309.611771432346
  0
VERTEX
  8
画層3
 10
351.548431172209
  20
310.388228567654
  0
SEQEND
100
AcDbEntity
  8
画層3
  0
TEXT
  8
画層3
 62
7
  6
CONTINUOUS
 62
7
 10
281.247290196706
 20
310.25
 40
9
  1
128
  7
Font_0
 50
360
 72
1
 11
288.997290196706
 21
319.25
 73
3
  0
LINE
  8
画層3
  6
CONTINUOUS
 10
352.997319911643
 20
274.995510098925
 11
352.997319911643
 21
313
  0
LINE
  8
画層3
  6
CONTINUOUS
 10
214.002561965476
 20
284.992374400949
 11
214.002561965476
 21
323
  0
LINE
  8
画層3
  6
CONTINUOUS
 10
214.002561965476
 20
320
 11
364.005873282001
 21
320
  0
POLYLINE
  8
画層3
  6
CONTINUOUS
 10
0.0
 20
0.0
 30
0.0
 66
1
 70
     1
  0
VERTEX
  8
画層3
 10
214.002561965476
  20
320
  0
VERTEX
  8
画層3
 10
215.451450704909
  20
320.388228567654
  0
VERTEX
  8
画層3
 10
215.451450704909
  20
319.611771432346
  0
SEQEND
100
AcDbEntity
  8
画層3
  0
POLYLINE
  8
画層3
  6
CONTINUOUS
 10
0.0
 20
0.0
 30
0.0
 66
1
 70
     1
  0
VERTEX
  8
画層3
 10
364.005873282001
  20
320
  0
VERTEX
  8
画層3
 10
362.556984542567
  20
319.611771432346
  0
VERTEX
  8
画層3
 10
362.556984542567
  20
320.388228567654
  0
SEQEND
100
AcDbEntity
  8
画層3
  0
TEXT
  8
画層3
 62
7
  6
CONTINUOUS
 62
7
 10
281.254217623738
 20
320.25
 40
9
  1
150
  7
Font_0
 50
360
 72
1
 11
289.004217623738
 21
329.25
 73
3
  0
LINE
  8
画層3
  6
CONTINUOUS
 10
364.005873282001
 20
284.992374400949
 11
364.005873282001
 21
323
  0
LINE
  8
画層3
  6
CONTINUOUS
 10
209
 20
287.995296343972
 11
187
 21
287.995296343972
  0
LINE
  8
画層3
  6
CONTINUOUS
 10
190
 20
287.995296343972
 11
190
 21
130
  0
POLYLINE
  8
画層3
  6
CONTINUOUS
 10
0.0
 20
0.0
 30
0.0
 66
1
 70
     1
  0
VERTEX
  8
画層3
 10
190
  20
287.995296343972
  0
VERTEX
  8
画層3
 10
190.388228567654
  20
286.546407604538
  0
VERTEX
  8
画層3
 10
189.611771432346
  20
286.546407604538
  0
SEQEND
100
AcDbEntity
  8
画層3
  0
POLYLINE
  8
画層3
  6
CONTINUOUS
 10
0.0
 20
0.0
 30
0.0
 66
1
 70
     1
  0
VERTEX
  8
画層3
 10
190
  20
130
  0
VERTEX
  8
画層3
 10
189.611771432346
  20
131.448888739434
  0
VERTEX
  8
画層3
 10
190.388228567654
  20
131.448888739434
  0
SEQEND
100
AcDbEntity
  8
画層3
  0
TEXT
  8
画層3
 62
7
  6
CONTINUOUS
 62
7
 10
189.75
 20
201.247648171986
 40
9
  1
158
  7
Font_0
 50
90
 72
1
 11
180.75
 21
208.997648171986
 73
3
  0
LINE
  8
画層3
  6
CONTINUOUS
 10
209
 20
130
 11
187
 21
130
  0
LINE
  8
画層3
  6
CONTINUOUS
 10
365.005873282001
 20
283.992374400949
 11
383.000000000001
 21
283.992374400949
  0
LINE
  8
画層3
  6
CONTINUOUS
 10
380.000000000001
 20
283.992374400949
 11
380.000000000001
 21
287.995296343972
  0
POLYLINE
  8
画層3
  6
CONTINUOUS
 10
0.0
 20
0.0
 30
0.0
 66
1
 70
     1
  0
VERTEX
  8
画層3
 10
380.000000000001
  20
283.992374400949
  0
VERTEX
  8
画層3
 10
379.611771432347
  20
285.441263140383
  0
VERTEX
  8
画層3
 10
380.388228567655
  20
285.441263140383
  0
SEQEND
100
AcDbEntity
  8
画層3
  0
POLYLINE
  8
画層3
  6
CONTINUOUS
 10
0.0
 20
0.0
 30
0.0
 66
1
 70
     1
  0
VERTEX
  8
画層3
 10
380.000000000001
  20
287.995296343972
  0
VERTEX
  8
画層3
 10
380.388228567655
  20
286.546407604538
  0
VERTEX
  8
画層3
 10
379.611771432347
  20
286.546407604538
  0
SEQEND
100
AcDbEntity
  8
画層3
  0
TEXT
  8
画層3
 62
7
  6
CONTINUOUS
 62
7
 10
379.750000000001
 20
283.74383537246
 40
9
  1
4
  7
Font_0
 50
90
 72
1
 11
370.750000000001
 21
285.99383537246
 73
3
  0
LINE
  8
画層3
  6
CONTINUOUS
 10
365.005873282001
 20
287.995296343972
 11
383.000000000001
 21
287.995296343972
  0
LINE
  8
画層3
  6
CONTINUOUS
 10
353.997319813855
 20
143.997219114012
 11
383.001762345752
 21
143.984392227413
  0
LINE
  8
画層3
  6
CONTINUOUS
 10
380.001762639114
 20
143.985718943346
 11
379.995572331729
 21
129.98805759069
  0
POLYLINE
  8
画層3
  6
CONTINUOUS
 10
0.0
 20
0.0
 30
0.0
 66
1
 70
     1
  0
VERTEX
  8
画層3
 10
380.001762639114
  20
143.985718943346
  0
VERTEX
  8
画層3
 10
380.389350414212
  20
142.53665865592
  0
VERTEX
  8
画層3
 10
379.612893354833
  20
142.537002035271
  0
SEQEND
100
AcDbEntity
  8
画層3
  0
POLYLINE
  8
画層3
  6
CONTINUOUS
 10
0.0
 20
0.0
 30
0.0
 66
1
 70
     1
  0
VERTEX
  8
画層3
 10
379.995572331729
  20
129.98805759069
  0
VERTEX
  8
画層3
 10
379.607984556631
  20
131.437117878116
  0
VERTEX
  8
画層3
 10
380.384441616011
  20
131.436774498765
  0
SEQEND
100
AcDbEntity
  8
画層3
  0
TEXT
  8
画層3
 62
7
  6
CONTINUOUS
 62
7
 10
379.746456316647
 20
131.986999315616
 40
9
  1
14
  7
Font_0
 50
89.9746615913173
 72
1
 11
370.748668389956
 21
136.990978974478
 73
3
  0
LINE
  8
画層3
  6
CONTINUOUS
 10
353.99112950647
 20
129.999557761356
 11
382.995572038366
 21
129.986730874757
  0
LINE
  8
画層3
  6
CONTINUOUS
 10
332.503014694062
 20
205.995324830461
 11
383
 21
205.995324830461
  0
LINE
  8
画層3
  6
CONTINUOUS
 10
380
 20
205.995324830461
 11
380
 21
143.997661352656
  0
POLYLINE
  8
画層3
  6
CONTINUOUS
 10
0.0
 20
0.0
 30
0.0
 66
1
 70
     1
  0
VERTEX
  8
画層3
 10
380
  20
205.995324830461
  0
VERTEX
  8
画層3
 10
380.388228567654
  20
204.546436091028
  0
VERTEX
  8
画層3
 10
379.611771432346
  20
204.546436091028
  0
SEQEND
100
AcDbEntity
  8
画層3
  0
POLYLINE
  8
画層3
  6
CONTINUOUS
 10
0.0
 20
0.0
 30
0.0
 66
1
 70
     1
  0
VERTEX
  8
画層3
 10
380
  20
143.997661352656
  0
VERTEX
  8
画層3
 10
379.611771432346
  20
145.446550092089
  0
VERTEX
  8
画層3
 10
380.388228567654
  20
145.446550092089
  0
SEQEND
100
AcDbEntity
  8
画層3
  0
TEXT
  8
画層3
 62
7
  6
CONTINUOUS
 62
7
 10
379.75
 20
169.996493091558
 40
9
  1
62
  7
Font_0
 50
90
 72
1
 11
370.75
 21
174.996493091558
 73
3
  0
LINE
  8
画層3
  6
CONTINUOUS
 10
332.503014694062
 20
143.997661352656
 11
383
 21
143.997661352656
  0
LINE
  8
画層3
  6
CONTINUOUS
 10
322.99595377933
 20
232.99602447535
 11
383
 21
232.99602447535
  0
LINE
  8
画層3
  6
CONTINUOUS
 10
380
 20
232.99602447535
 11
380
 21
273.995510098925
  0
POLYLINE
  8
画層3
  6
CONTINUOUS
 10
0.0
 20
0.0
 30
0.0
 66
1
 70
     1
  0
VERTEX
  8
画層3
 10
380
  20
232.99602447535
  0
VERTEX
  8
画層3
 10
379.611771432346
  20
234.444913214783
  0
VERTEX
  8
画層3
 10
380.388228567654
  20
234.444913214783
  0
SEQEND
100
AcDbEntity
  8
画層3
  0
POLYLINE
  8
画層3
  6
CONTINUOUS
 10
0.0
 20
0.0
 30
0.0
 66
1
 70
     1
  0
VERTEX
  8
画層3
 10
380
  20
273.995510098925
  0
VERTEX
  8
画層3
 10
380.388228567654
  20
272.546621359491
  0
VERTEX
  8
画層3
 10
379.611771432346
  20
272.546621359491
  0
SEQEND
100
AcDbEntity
  8
画層3
  0
TEXT
  8
画層3
 62
7
  6
CONTINUOUS
 62
7
 10
379.75
 20
248.495767287137
 40
9
  1
41
  7
Font_0
 50
90
 72
1
 11
370.75
 21
253.495767287137
 73
3
  0
LINE
  8
画層3
  6
CONTINUOUS
 10
322.99595377933
 20
273.995510098925
 11
383
 21
273.995510098925
  0
LINE
  8
画層3
  6
CONTINUOUS
 10
369.000969847757
 20
283.992374400949
 11
383
 21
283.992374400949
  0
LINE
  8
画層3
  6
CONTINUOUS
 10
380
 20
283.992374400949
 11
380
 21
273.995510098925
  0
POLYLINE
  8
画層3
  6
CONTINUOUS
 10
0.0
 20
0.0
 30
0.0
 66
1
 70
     1
  0
VERTEX
  8
画層3
 10
380
  20
283.992374400949
  0
VERTEX
  8
画層3
 10
380.388228567654
  20
282.543485661515
  0
VERTEX
  8
画層3
 10
379.611771432347
  20
282.543485661515
  0
SEQEND
100
AcDbEntity
  8
画層3
  0
POLYLINE
  8
画層3
  6
CONTINUOUS
 10
0.0
 20
0.0
 30
0.0
 66
1
 70
     1
  0
VERTEX
  8
画層3
 10
380
  20
273.995510098925
  0
VERTEX
  8
画層3
 10
379.611771432347
  20
275.444398838358
  0
VERTEX
  8
画層3
 10
380.388228567654
  20
275.444398838358
  0
SEQEND
100
AcDbEntity
  8
画層3
  0
TEXT
  8
画層3
 62
7
  6
CONTINUOUS
 62
7
 10
379.75
 20
273.993942249937
 40
9
  1
10
  7
Font_0
 50
90
 72
1
 11
370.75
 21
278.993942249937
 73
3
  0
LINE
  8
画層3
  6
CONTINUOUS
 10
369.000969847757
 20
273.995510098925
 11
383
 21
273.995510098925
  0
ENDSEC
  0
EOF
