999
Outputted By AR_CAD Ver.1.4.0
  0
SECTION
  2
HEADER
  9
$ACADVER
  1
AC1009
  9
$DWGCODEPAGE
  3
DOS932
  9
$EXTMIN
 10
0
 20
0
  9
$EXTMAX
 10
297
 20
210
  9
$INSBASE
 10
0.0
 20
0.0
 30
0.0
  9
$HANDLING
 70
     1
  9
$LTSCALE
 40
1
  0
ENDSEC
  0
SECTION
  2
TABLES
  0
TABLE
  2
LTYPE
 70
     7
  0
LTYPE
  2
BYBLOCK
 70
    64
 3

 72
    65
 73
    0
 40
    0
  0
LTYPE
  2
BYLAYER
 70
    64
 3

 72
    65
 73
    0
 40
    0
  0
LTYPE
  2
CONTINUOUS
 70
    64
 3
CONTINUOUS
 72
    65
 73
    0
 40
    0
  0
LTYPE
  2
DASHED
 70
    64
 3

 72
    65
 73
    2
 40
    3.5
 49
    2.91666666666667
 49
    -0.583333333333333
  0
LTYPE
  2
DOT
 70
    64
 3

 72
    65
 73
    2
 40
    0.5
 49
    0.25
 49
    -0.25
  0
LTYPE
  2
DASHDOT
 70
    64
 3

 72
    65
 73
    4
 40
    3.5
 49
    1.84210526315789
 49
    -0.552631578947368
 49
    0.552631578947368
 49
    -0.552631578947368
  0
LTYPE
  2
DIVIDE
 70
    64
 3

 72
    65
 73
    6
 40
    3.5
 49
    1.4
 49
    -0.42
 49
    0.42
 49
    -0.42
 49
    0.42
 49
    -0.42
  0
LTYPE
  2
HIDDEN
 70
    64
 3

 72
    65
 73
    2
 40
    4
 49
    2
 49
    -2
  0
ENDTAB
  0
TABLE
  2
LAYER
 70
   257
  0
LAYER
  2
画層0
 70
    4
 62
7
  6
CONTINUOUS
  0
LAYER
  2
画層1
 70
    0
 62
-150
  6
CONTINUOUS
  0
LAYER
  2
画層2
 70
    4
 62
7
  6
CONTINUOUS
  0
LAYER
  2
画層3
 70
    4
 62
7
  6
CONTINUOUS
  0
LAYER
  2
画層4
 70
    0
 62
-6
  6
CONTINUOUS
  0
LAYER
  2
画層5
 70
    0
 62
-1
  6
CONTINUOUS
  0
LAYER
  2
画層6
 70
    0
 62
-7
  6
CONTINUOUS
  0
LAYER
  2
画層7
 70
    0
 62
-51
  6
CONTINUOUS
  0
LAYER
  2
画層8
 70
    0
 62
-7
  6
CONTINUOUS
  0
LAYER
  2
画層9
 70
    0
 62
-111
  6
CONTINUOUS
  0
LAYER
  2
画層10
 70
    0
 62
-91
  6
CONTINUOUS
  0
LAYER
  2
画層11
 70
    0
 62
-131
  6
CONTINUOUS
  0
LAYER
  2
画層12
 70
    0
 62
-161
  6
CONTINUOUS
  0
LAYER
  2
画層13
 70
    0
 62
-5
  6
CONTINUOUS
  0
LAYER
  2
画層14
 70
    0
 62
-7
  6
CONTINUOUS
  0
LAYER
  2
画層15
 70
    0
 62
-11
  6
CONTINUOUS
  0
LAYER
  2
画層16
 70
    0
 62
7
  6
CONTINUOUS
  0
LAYER
  2
画層17
 70
    0
 62
70
  6
CONTINUOUS
  0
LAYER
  2
画層18
 70
    0
 62
211
  6
CONTINUOUS
  0
LAYER
  2
画層19
 70
    0
 62
137
  6
CONTINUOUS
  0
LAYER
  2
画層20
 70
    0
 62
4
  6
CONTINUOUS
  0
LAYER
  2
画層21
 70
    0
 62
131
  6
CONTINUOUS
  0
LAYER
  2
画層22
 70
    0
 62
4
  6
CONTINUOUS
  0
LAYER
  2
画層23
 70
    0
 62
4
  6
CONTINUOUS
  0
LAYER
  2
画層24
 70
    0
 62
7
  6
CONTINUOUS
  0
LAYER
  2
画層25
 70
    0
 62
7
  6
CONTINUOUS
  0
LAYER
  2
画層26
 70
    0
 62
7
  6
CONTINUOUS
  0
LAYER
  2
画層27
 70
    0
 62
7
  6
CONTINUOUS
  0
LAYER
  2
画層28
 70
    0
 62
7
  6
CONTINUOUS
  0
LAYER
  2
画層29
 70
    0
 62
7
  6
CONTINUOUS
  0
LAYER
  2
画層30
 70
    0
 62
7
  6
CONTINUOUS
  0
LAYER
  2
画層31
 70
    0
 62
7
  6
CONTINUOUS
  0
LAYER
  2
画層32
 70
    0
 62
7
  6
CONTINUOUS
  0
LAYER
  2
画層33
 70
    0
 62
7
  6
CONTINUOUS
  0
LAYER
  2
画層34
 70
    0
 62
7
  6
CONTINUOUS
  0
LAYER
  2
画層35
 70
    0
 62
7
  6
CONTINUOUS
  0
LAYER
  2
画層36
 70
    0
 62
7
  6
CONTINUOUS
  0
LAYER
  2
画層37
 70
    0
 62
7
  6
CONTINUOUS
  0
LAYER
  2
画層38
 70
    0
 62
7
  6
CONTINUOUS
  0
LAYER
  2
画層39
 70
    0
 62
7
  6
CONTINUOUS
  0
LAYER
  2
画層40
 70
    0
 62
7
  6
CONTINUOUS
  0
LAYER
  2
画層41
 70
    0
 62
7
  6
CONTINUOUS
  0
LAYER
  2
画層42
 70
    0
 62
7
  6
CONTINUOUS
  0
LAYER
  2
画層43
 70
    0
 62
7
  6
CONTINUOUS
  0
LAYER
  2
画層44
 70
    0
 62
7
  6
CONTINUOUS
  0
LAYER
  2
画層45
 70
    0
 62
7
  6
CONTINUOUS
  0
LAYER
  2
画層46
 70
    0
 62
7
  6
CONTINUOUS
  0
LAYER
  2
画層47
 70
    0
 62
7
  6
CONTINUOUS
  0
LAYER
  2
画層48
 70
    0
 62
7
  6
CONTINUOUS
  0
LAYER
  2
画層49
 70
    0
 62
7
  6
CONTINUOUS
  0
LAYER
  2
画層50
 70
    0
 62
7
  6
CONTINUOUS
  0
LAYER
  2
画層51
 70
    0
 62
7
  6
CONTINUOUS
  0
LAYER
  2
画層52
 70
    0
 62
7
  6
CONTINUOUS
  0
LAYER
  2
画層53
 70
    0
 62
7
  6
CONTINUOUS
  0
LAYER
  2
画層54
 70
    0
 62
7
  6
CONTINUOUS
  0
LAYER
  2
画層55
 70
    0
 62
7
  6
CONTINUOUS
  0
LAYER
  2
画層56
 70
    0
 62
7
  6
CONTINUOUS
  0
LAYER
  2
画層57
 70
    0
 62
7
  6
CONTINUOUS
  0
LAYER
  2
画層58
 70
    0
 62
7
  6
CONTINUOUS
  0
LAYER
  2
画層59
 70
    0
 62
7
  6
CONTINUOUS
  0
LAYER
  2
画層60
 70
    0
 62
7
  6
CONTINUOUS
  0
LAYER
  2
画層61
 70
    0
 62
7
  6
CONTINUOUS
  0
LAYER
  2
画層62
 70
    0
 62
7
  6
CONTINUOUS
  0
LAYER
  2
画層63
 70
    0
 62
7
  6
CONTINUOUS
  0
LAYER
  2
画層64
 70
    0
 62
7
  6
CONTINUOUS
  0
LAYER
  2
画層65
 70
    0
 62
7
  6
CONTINUOUS
  0
LAYER
  2
画層66
 70
    0
 62
7
  6
CONTINUOUS
  0
LAYER
  2
画層67
 70
    0
 62
7
  6
CONTINUOUS
  0
LAYER
  2
画層68
 70
    0
 62
7
  6
CONTINUOUS
  0
LAYER
  2
画層69
 70
    0
 62
7
  6
CONTINUOUS
  0
LAYER
  2
画層70
 70
    0
 62
7
  6
CONTINUOUS
  0
LAYER
  2
画層71
 70
    0
 62
7
  6
CONTINUOUS
  0
LAYER
  2
画層72
 70
    0
 62
7
  6
CONTINUOUS
  0
LAYER
  2
画層73
 70
    0
 62
7
  6
CONTINUOUS
  0
LAYER
  2
画層74
 70
    0
 62
7
  6
CONTINUOUS
  0
LAYER
  2
画層75
 70
    0
 62
7
  6
CONTINUOUS
  0
LAYER
  2
画層76
 70
    0
 62
7
  6
CONTINUOUS
  0
LAYER
  2
画層77
 70
    0
 62
7
  6
CONTINUOUS
  0
LAYER
  2
画層78
 70
    0
 62
7
  6
CONTINUOUS
  0
LAYER
  2
画層79
 70
    0
 62
7
  6
CONTINUOUS
  0
LAYER
  2
画層80
 70
    0
 62
7
  6
CONTINUOUS
  0
LAYER
  2
画層81
 70
    0
 62
7
  6
CONTINUOUS
  0
LAYER
  2
画層82
 70
    0
 62
7
  6
CONTINUOUS
  0
LAYER
  2
画層83
 70
    0
 62
7
  6
CONTINUOUS
  0
LAYER
  2
画層84
 70
    0
 62
7
  6
CONTINUOUS
  0
LAYER
  2
画層85
 70
    0
 62
7
  6
CONTINUOUS
  0
LAYER
  2
画層86
 70
    0
 62
7
  6
CONTINUOUS
  0
LAYER
  2
画層87
 70
    0
 62
7
  6
CONTINUOUS
  0
LAYER
  2
画層88
 70
    0
 62
7
  6
CONTINUOUS
  0
LAYER
  2
画層89
 70
    0
 62
7
  6
CONTINUOUS
  0
LAYER
  2
画層90
 70
    0
 62
7
  6
CONTINUOUS
  0
LAYER
  2
画層91
 70
    0
 62
7
  6
CONTINUOUS
  0
LAYER
  2
画層92
 70
    0
 62
7
  6
CONTINUOUS
  0
LAYER
  2
画層93
 70
    0
 62
7
  6
CONTINUOUS
  0
LAYER
  2
画層94
 70
    0
 62
7
  6
CONTINUOUS
  0
LAYER
  2
画層95
 70
    0
 62
7
  6
CONTINUOUS
  0
LAYER
  2
画層96
 70
    0
 62
7
  6
CONTINUOUS
  0
LAYER
  2
画層97
 70
    0
 62
7
  6
CONTINUOUS
  0
LAYER
  2
画層98
 70
    0
 62
7
  6
CONTINUOUS
  0
LAYER
  2
画層99
 70
    0
 62
7
  6
CONTINUOUS
  0
LAYER
  2
画層100
 70
    0
 62
7
  6
CONTINUOUS
  0
LAYER
  2
画層101
 70
    0
 62
7
  6
CONTINUOUS
  0
LAYER
  2
画層102
 70
    0
 62
7
  6
CONTINUOUS
  0
LAYER
  2
画層103
 70
    0
 62
7
  6
CONTINUOUS
  0
LAYER
  2
画層104
 70
    0
 62
7
  6
CONTINUOUS
  0
LAYER
  2
画層105
 70
    0
 62
7
  6
CONTINUOUS
  0
LAYER
  2
画層106
 70
    0
 62
7
  6
CONTINUOUS
  0
LAYER
  2
画層107
 70
    0
 62
7
  6
CONTINUOUS
  0
LAYER
  2
画層108
 70
    0
 62
7
  6
CONTINUOUS
  0
LAYER
  2
画層109
 70
    0
 62
7
  6
CONTINUOUS
  0
LAYER
  2
画層110
 70
    0
 62
7
  6
CONTINUOUS
  0
LAYER
  2
画層111
 70
    0
 62
7
  6
CONTINUOUS
  0
LAYER
  2
画層112
 70
    0
 62
7
  6
CONTINUOUS
  0
LAYER
  2
画層113
 70
    0
 62
7
  6
CONTINUOUS
  0
LAYER
  2
画層114
 70
    0
 62
7
  6
CONTINUOUS
  0
LAYER
  2
画層115
 70
    0
 62
7
  6
CONTINUOUS
  0
LAYER
  2
画層116
 70
    0
 62
7
  6
CONTINUOUS
  0
LAYER
  2
画層117
 70
    0
 62
7
  6
CONTINUOUS
  0
LAYER
  2
画層118
 70
    0
 62
7
  6
CONTINUOUS
  0
LAYER
  2
画層119
 70
    0
 62
7
  6
CONTINUOUS
  0
LAYER
  2
画層120
 70
    0
 62
7
  6
CONTINUOUS
  0
LAYER
  2
画層121
 70
    0
 62
7
  6
CONTINUOUS
  0
LAYER
  2
画層122
 70
    0
 62
7
  6
CONTINUOUS
  0
LAYER
  2
画層123
 70
    0
 62
7
  6
CONTINUOUS
  0
LAYER
  2
画層124
 70
    0
 62
7
  6
CONTINUOUS
  0
LAYER
  2
画層125
 70
    0
 62
7
  6
CONTINUOUS
  0
LAYER
  2
画層126
 70
    0
 62
7
  6
CONTINUOUS
  0
LAYER
  2
画層127
 70
    0
 62
7
  6
CONTINUOUS
  0
LAYER
  2
画層128
 70
    0
 62
7
  6
CONTINUOUS
  0
LAYER
  2
画層129
 70
    0
 62
7
  6
CONTINUOUS
  0
LAYER
  2
画層130
 70
    0
 62
7
  6
CONTINUOUS
  0
LAYER
  2
画層131
 70
    0
 62
7
  6
CONTINUOUS
  0
LAYER
  2
画層132
 70
    0
 62
7
  6
CONTINUOUS
  0
LAYER
  2
画層133
 70
    0
 62
7
  6
CONTINUOUS
  0
LAYER
  2
画層134
 70
    0
 62
7
  6
CONTINUOUS
  0
LAYER
  2
画層135
 70
    0
 62
7
  6
CONTINUOUS
  0
LAYER
  2
画層136
 70
    0
 62
7
  6
CONTINUOUS
  0
LAYER
  2
画層137
 70
    0
 62
7
  6
CONTINUOUS
  0
LAYER
  2
画層138
 70
    0
 62
7
  6
CONTINUOUS
  0
LAYER
  2
画層139
 70
    0
 62
7
  6
CONTINUOUS
  0
LAYER
  2
画層140
 70
    0
 62
7
  6
CONTINUOUS
  0
LAYER
  2
画層141
 70
    0
 62
7
  6
CONTINUOUS
  0
LAYER
  2
画層142
 70
    0
 62
7
  6
CONTINUOUS
  0
LAYER
  2
画層143
 70
    0
 62
7
  6
CONTINUOUS
  0
LAYER
  2
画層144
 70
    0
 62
7
  6
CONTINUOUS
  0
LAYER
  2
画層145
 70
    0
 62
7
  6
CONTINUOUS
  0
LAYER
  2
画層146
 70
    0
 62
7
  6
CONTINUOUS
  0
LAYER
  2
画層147
 70
    0
 62
7
  6
CONTINUOUS
  0
LAYER
  2
画層148
 70
    0
 62
7
  6
CONTINUOUS
  0
LAYER
  2
画層149
 70
    0
 62
7
  6
CONTINUOUS
  0
LAYER
  2
画層150
 70
    0
 62
7
  6
CONTINUOUS
  0
LAYER
  2
画層151
 70
    0
 62
7
  6
CONTINUOUS
  0
LAYER
  2
画層152
 70
    0
 62
7
  6
CONTINUOUS
  0
LAYER
  2
画層153
 70
    0
 62
7
  6
CONTINUOUS
  0
LAYER
  2
画層154
 70
    0
 62
7
  6
CONTINUOUS
  0
LAYER
  2
画層155
 70
    0
 62
7
  6
CONTINUOUS
  0
LAYER
  2
画層156
 70
    0
 62
7
  6
CONTINUOUS
  0
LAYER
  2
画層157
 70
    0
 62
7
  6
CONTINUOUS
  0
LAYER
  2
画層158
 70
    0
 62
7
  6
CONTINUOUS
  0
LAYER
  2
画層159
 70
    0
 62
7
  6
CONTINUOUS
  0
LAYER
  2
画層160
 70
    0
 62
7
  6
CONTINUOUS
  0
LAYER
  2
画層161
 70
    0
 62
7
  6
CONTINUOUS
  0
LAYER
  2
画層162
 70
    0
 62
7
  6
CONTINUOUS
  0
LAYER
  2
画層163
 70
    0
 62
7
  6
CONTINUOUS
  0
LAYER
  2
画層164
 70
    0
 62
7
  6
CONTINUOUS
  0
LAYER
  2
画層165
 70
    0
 62
7
  6
CONTINUOUS
  0
LAYER
  2
画層166
 70
    0
 62
7
  6
CONTINUOUS
  0
LAYER
  2
画層167
 70
    0
 62
7
  6
CONTINUOUS
  0
LAYER
  2
画層168
 70
    0
 62
7
  6
CONTINUOUS
  0
LAYER
  2
画層169
 70
    0
 62
7
  6
CONTINUOUS
  0
LAYER
  2
画層170
 70
    0
 62
7
  6
CONTINUOUS
  0
LAYER
  2
画層171
 70
    0
 62
7
  6
CONTINUOUS
  0
LAYER
  2
画層172
 70
    0
 62
7
  6
CONTINUOUS
  0
LAYER
  2
画層173
 70
    0
 62
7
  6
CONTINUOUS
  0
LAYER
  2
画層174
 70
    0
 62
7
  6
CONTINUOUS
  0
LAYER
  2
画層175
 70
    0
 62
7
  6
CONTINUOUS
  0
LAYER
  2
画層176
 70
    0
 62
7
  6
CONTINUOUS
  0
LAYER
  2
画層177
 70
    0
 62
7
  6
CONTINUOUS
  0
LAYER
  2
画層178
 70
    0
 62
7
  6
CONTINUOUS
  0
LAYER
  2
画層179
 70
    0
 62
7
  6
CONTINUOUS
  0
LAYER
  2
画層180
 70
    0
 62
7
  6
CONTINUOUS
  0
LAYER
  2
画層181
 70
    0
 62
7
  6
CONTINUOUS
  0
LAYER
  2
画層182
 70
    0
 62
7
  6
CONTINUOUS
  0
LAYER
  2
画層183
 70
    0
 62
7
  6
CONTINUOUS
  0
LAYER
  2
画層184
 70
    0
 62
7
  6
CONTINUOUS
  0
LAYER
  2
画層185
 70
    0
 62
7
  6
CONTINUOUS
  0
LAYER
  2
画層186
 70
    0
 62
7
  6
CONTINUOUS
  0
LAYER
  2
画層187
 70
    0
 62
7
  6
CONTINUOUS
  0
LAYER
  2
画層188
 70
    0
 62
7
  6
CONTINUOUS
  0
LAYER
  2
画層189
 70
    0
 62
7
  6
CONTINUOUS
  0
LAYER
  2
画層190
 70
    0
 62
7
  6
CONTINUOUS
  0
LAYER
  2
画層191
 70
    0
 62
7
  6
CONTINUOUS
  0
LAYER
  2
画層192
 70
    0
 62
7
  6
CONTINUOUS
  0
LAYER
  2
画層193
 70
    0
 62
7
  6
CONTINUOUS
  0
LAYER
  2
画層194
 70
    0
 62
7
  6
CONTINUOUS
  0
LAYER
  2
画層195
 70
    0
 62
7
  6
CONTINUOUS
  0
LAYER
  2
画層196
 70
    0
 62
7
  6
CONTINUOUS
  0
LAYER
  2
画層197
 70
    0
 62
7
  6
CONTINUOUS
  0
LAYER
  2
画層198
 70
    0
 62
7
  6
CONTINUOUS
  0
LAYER
  2
画層199
 70
    0
 62
7
  6
CONTINUOUS
  0
LAYER
  2
画層200
 70
    0
 62
7
  6
CONTINUOUS
  0
LAYER
  2
画層201
 70
    0
 62
7
  6
CONTINUOUS
  0
LAYER
  2
画層202
 70
    0
 62
7
  6
CONTINUOUS
  0
LAYER
  2
画層203
 70
    0
 62
7
  6
CONTINUOUS
  0
LAYER
  2
画層204
 70
    0
 62
7
  6
CONTINUOUS
  0
LAYER
  2
画層205
 70
    0
 62
7
  6
CONTINUOUS
  0
LAYER
  2
画層206
 70
    0
 62
7
  6
CONTINUOUS
  0
LAYER
  2
画層207
 70
    0
 62
7
  6
CONTINUOUS
  0
LAYER
  2
画層208
 70
    0
 62
7
  6
CONTINUOUS
  0
LAYER
  2
画層209
 70
    0
 62
7
  6
CONTINUOUS
  0
LAYER
  2
画層210
 70
    0
 62
7
  6
CONTINUOUS
  0
LAYER
  2
画層211
 70
    0
 62
7
  6
CONTINUOUS
  0
LAYER
  2
画層212
 70
    0
 62
7
  6
CONTINUOUS
  0
LAYER
  2
画層213
 70
    0
 62
7
  6
CONTINUOUS
  0
LAYER
  2
画層214
 70
    0
 62
7
  6
CONTINUOUS
  0
LAYER
  2
画層215
 70
    0
 62
7
  6
CONTINUOUS
  0
LAYER
  2
画層216
 70
    0
 62
7
  6
CONTINUOUS
  0
LAYER
  2
画層217
 70
    0
 62
7
  6
CONTINUOUS
  0
LAYER
  2
画層218
 70
    0
 62
7
  6
CONTINUOUS
  0
LAYER
  2
画層219
 70
    0
 62
7
  6
CONTINUOUS
  0
LAYER
  2
画層220
 70
    0
 62
7
  6
CONTINUOUS
  0
LAYER
  2
画層221
 70
    0
 62
7
  6
CONTINUOUS
  0
LAYER
  2
画層222
 70
    0
 62
7
  6
CONTINUOUS
  0
LAYER
  2
画層223
 70
    0
 62
7
  6
CONTINUOUS
  0
LAYER
  2
画層224
 70
    0
 62
7
  6
CONTINUOUS
  0
LAYER
  2
画層225
 70
    0
 62
7
  6
CONTINUOUS
  0
LAYER
  2
画層226
 70
    0
 62
7
  6
CONTINUOUS
  0
LAYER
  2
画層227
 70
    0
 62
7
  6
CONTINUOUS
  0
LAYER
  2
画層228
 70
    0
 62
7
  6
CONTINUOUS
  0
LAYER
  2
画層229
 70
    0
 62
7
  6
CONTINUOUS
  0
LAYER
  2
画層230
 70
    0
 62
7
  6
CONTINUOUS
  0
LAYER
  2
画層231
 70
    0
 62
7
  6
CONTINUOUS
  0
LAYER
  2
画層232
 70
    0
 62
7
  6
CONTINUOUS
  0
LAYER
  2
画層233
 70
    0
 62
7
  6
CONTINUOUS
  0
LAYER
  2
画層234
 70
    0
 62
7
  6
CONTINUOUS
  0
LAYER
  2
画層235
 70
    0
 62
7
  6
CONTINUOUS
  0
LAYER
  2
画層236
 70
    0
 62
7
  6
CONTINUOUS
  0
LAYER
  2
画層237
 70
    0
 62
7
  6
CONTINUOUS
  0
LAYER
  2
画層238
 70
    0
 62
7
  6
CONTINUOUS
  0
LAYER
  2
画層239
 70
    0
 62
7
  6
CONTINUOUS
  0
LAYER
  2
画層240
 70
    0
 62
7
  6
CONTINUOUS
  0
LAYER
  2
画層241
 70
    0
 62
7
  6
CONTINUOUS
  0
LAYER
  2
画層242
 70
    0
 62
7
  6
CONTINUOUS
  0
LAYER
  2
画層243
 70
    0
 62
7
  6
CONTINUOUS
  0
LAYER
  2
画層244
 70
    0
 62
7
  6
CONTINUOUS
  0
LAYER
  2
画層245
 70
    0
 62
7
  6
CONTINUOUS
  0
LAYER
  2
画層246
 70
    0
 62
7
  6
CONTINUOUS
  0
LAYER
  2
画層247
 70
    0
 62
7
  6
CONTINUOUS
  0
LAYER
  2
画層248
 70
    0
 62
7
  6
CONTINUOUS
  0
LAYER
  2
画層249
 70
    0
 62
7
  6
CONTINUOUS
  0
LAYER
  2
画層250
 70
    0
 62
7
  6
CONTINUOUS
  0
LAYER
  2
画層251
 70
    0
 62
7
  6
CONTINUOUS
  0
LAYER
  2
画層252
 70
    0
 62
7
  6
CONTINUOUS
  0
LAYER
  2
画層253
 70
    0
 62
7
  6
CONTINUOUS
  0
LAYER
  2
画層254
 70
    0
 62
7
  6
CONTINUOUS
  0
LAYER
  2
画層255
 70
    0
 62
7
  6
CONTINUOUS
  0
LAYER
  2
0
 70
   64
 62
    7
  6
CONTINUOUS
  0
ENDTAB
  0
TABLE
  2
STYLE
 70
     1
  0
STYLE
  2
Standard
 70
     0
 40
0.0
 41
1.0
 50
0.0
 71
     0
 42
3.2
  3
TXT
  4
BIGFONT
  0
STYLE
  2
Font_0
 70
     0
 40
0.0
 41
1.0
 50
0.0
 71
     0
 42
3.2
  3
txt
  4
BIGFONT
  0
ENDTAB
  0
ENDSEC
  0
SECTION
  2
ENTITIES
  0
LINE
  8
画層0
  6
CONTINUOUS
 10
170
 20
219.997785679954
 11
170
 21
228.995078302425
  0
LINE
  8
画層0
  6
CONTINUOUS
 10
170
 20
228.995078302425
 11
171.80002520295
 21
228.995078302425
  0
LINE
  8
画層0
  6
CONTINUOUS
 10
171.80002520295
 20
228.995078302425
 11
171.80002520295
 21
227.196937680065
  0
LINE
  8
画層0
  6
CONTINUOUS
 10
171.80002520295
 20
227.196937680065
 11
173.195226006205
 21
227.196937680065
  0
LINE
  8
画層0
  6
CONTINUOUS
 10
173.195226006205
 20
227.196937680065
 11
173.195226006205
 21
240
  0
LINE
  8
画層0
  6
CONTINUOUS
 10
173.195226006205
 20
240
 11
174.995012136397
 21
240
  0
LINE
  8
画層0
  6
CONTINUOUS
 10
174.995012136397
 20
240
 11
174.995012136397
 21
227.196937680065
  0
LINE
  8
画層0
  6
CONTINUOUS
 10
177.196849034785
 20
225.002469477762
 11
189.995590250619
 21
225.002469477762
  0
LINE
  8
画層0
  6
CONTINUOUS
 10
189.995590250619
 20
225.002469477762
 11
189.995590250619
 21
223.1976557735
  0
LINE
  8
画層0
  6
CONTINUOUS
 10
189.995590250619
 20
223.1976557735
 11
177.196849034785
 21
223.1976557735
  0
LINE
  8
画層0
  6
CONTINUOUS
 10
177.196849034785
 20
223.1976557735
 11
177.196849034785
 21
221.797168278258
  0
LINE
  8
画層0
  6
CONTINUOUS
 10
177.196849034785
 20
221.797168278258
 11
178.996200012698
 21
221.797168278258
  0
LINE
  8
画層0
  6
CONTINUOUS
 10
178.996200012698
 20
221.797168278258
 11
178.996200012698
 21
219.997785679954
  0
LINE
  8
画層0
  6
CONTINUOUS
 10
178.996200012698
 20
219.997785679954
 11
170
 21
219.997785679954
  0
LINE
  8
画層0
  6
CONTINUOUS
 10
190
 20
200
 11
190
 21
60
  0
LINE
  8
画層0
  6
CONTINUOUS
 10
190
 20
60
 11
170
 21
60
  0
LINE
  8
画層0
  6
CONTINUOUS
 10
170
 20
200
 11
190
 21
200
  0
LINE
  8
画層0
  6
CONTINUOUS
 10
178.996200012698
 20
200
 11
178.996200012698
 21
60
  0
LINE
  8
画層0
  6
CONTINUOUS
 10
170
 20
200
 11
170
 21
60
  0
LINE
  8
画層0
  6
CONTINUOUS
 10
220
 20
200
 11
220
 21
60
  0
LINE
  8
画層0
  6
CONTINUOUS
 10
220
 20
60
 11
240
 21
60
  0
LINE
  8
画層0
  6
CONTINUOUS
 10
240
 20
60
 11
240
 21
200
  0
LINE
  8
画層0
  6
CONTINUOUS
 10
240
 20
200
 11
220
 21
200
  0
LINE
  8
画層0
  6
CONTINUOUS
 10
221.798275438281
 20
200
 11
221.798275438281
 21
60
  0
LINE
  8
画層0
  6
CONTINUOUS
 10
223.198762933523
 20
200
 11
223.198762933523
 21
60
  0
LINE
  8
画層0
  6
CONTINUOUS
 10
225.003576637785
 20
200
 11
225.003576637785
 21
60
  0
LINE
  8
画層0
  6
CONTINUOUS
 10
227.198044840088
 20
200
 11
227.198044840088
 21
60
  0
CIRCLE
  8
画層0
  6
CONTINUOUS
 10
173.987159545035
 20
224.002792588487
 40
1.20001716252427
  0
LINE
  8
画層0
  6
CONTINUOUS
 10
174.348253629806
 20
225.14719297834
 11
174.995012136397
 21
227.196937680065
  0
LINE
  8
画層0
  6
CONTINUOUS
 10
175.132891937229
 20
224.359637759158
 11
177.196849034785
 21
225.002469477762
  0
LINE
  8
画層2
  6
DOT
 10
175.18717670756
 20
200
 11
175.18717670756
 21
60
  0
LINE
  8
画層2
  6
DOT
 10
172.787142382511
 20
200
 11
172.787142382511
 21
60
  0
LINE
  8
画層0
  6
CONTINUOUS
 10
219.998892839977
 20
239.997795125309
 11
228.996185462448
 21
239.997795125309
  0
LINE
  8
画層0
  6
CONTINUOUS
 10
228.996185462448
 20
239.997795125309
 11
228.996185462448
 21
238.19776992236
  0
LINE
  8
画層0
  6
CONTINUOUS
 10
228.996185462448
 20
238.19776992236
 11
227.198044840088
 21
238.19776992236
  0
LINE
  8
画層0
  6
CONTINUOUS
 10
227.198044840088
 20
238.19776992236
 11
227.198044840088
 21
236.802569119104
  0
LINE
  8
画層0
  6
CONTINUOUS
 10
227.198044840088
 20
236.802569119104
 11
240.001107160023
 21
236.802569119104
  0
LINE
  8
画層0
  6
CONTINUOUS
 10
240.001107160023
 20
236.802569119104
 11
240.001107160023
 21
235.002782988913
  0
LINE
  8
画層0
  6
CONTINUOUS
 10
240.001107160023
 20
235.002782988913
 11
227.198044840088
 21
235.002782988913
  0
LINE
  8
画層0
  6
CONTINUOUS
 10
225.003576637785
 20
232.800946090524
 11
225.003576637785
 21
220.002204874691
  0
LINE
  8
画層0
  6
CONTINUOUS
 10
225.003576637785
 20
220.002204874691
 11
223.198762933523
 21
220.002204874691
  0
LINE
  8
画層0
  6
CONTINUOUS
 10
223.198762933523
 20
220.002204874691
 11
223.198762933523
 21
232.800946090524
  0
LINE
  8
画層0
  6
CONTINUOUS
 10
223.198762933523
 20
232.800946090524
 11
221.798275438281
 21
232.800946090524
  0
LINE
  8
画層0
  6
CONTINUOUS
 10
221.798275438281
 20
232.800946090524
 11
221.798275438281
 21
231.001595112611
  0
LINE
  8
画層0
  6
CONTINUOUS
 10
221.798275438281
 20
231.001595112611
 11
219.998892839977
 21
231.001595112611
  0
LINE
  8
画層0
  6
CONTINUOUS
 10
219.998892839977
 20
231.001595112611
 11
219.998892839977
 21
239.997795125309
  0
CIRCLE
  8
画層0
  6
CONTINUOUS
 10
224.00389974851
 20
236.010635580274
 40
1.20001716252427
  0
LINE
  8
画層0
  6
CONTINUOUS
 10
225.148300138363
 20
235.649541495503
 11
227.198044840088
 21
235.002782988913
  0
LINE
  8
画層0
  6
CONTINUOUS
 10
224.36074491918
 20
234.864903188081
 11
225.003576637785
 21
232.800946090524
  0
LINE
  8
画層2
  6
DOT
 10
222.803882585985
 20
200
 11
222.803882585985
 21
60
  0
LINE
  8
画層2
  6
DOT
 10
225.203916911034
 20
200
 11
225.203916911034
 21
60
  0
CIRCLE
  8
画層0
  6
CONTINUOUS
 10
184.002848229602
 20
170
 40
1.49930095113992
  0
CIRCLE
  8
画層0
  6
CONTINUOUS
 10
184.002848229602
 20
100
 40
1.49930095113992
  0
CIRCLE
  8
画層0
  6
CONTINUOUS
 10
184.002848229602
 20
80
 40
1.49930095113992
  0
CIRCLE
  8
画層0
  6
CONTINUOUS
 10
233.999621101542
 20
80
 40
1.49930095113992
  0
CIRCLE
  8
画層0
  6
CONTINUOUS
 10
233.999621101542
 20
100
 40
1.49930095113992
  0
CIRCLE
  8
画層0
  6
CONTINUOUS
 10
233.999621101542
 20
170
 40
1.49930095113992
  0
CIRCLE
  8
画層0
  6
CONTINUOUS
 10
233.999621101542
 20
190
 40
1.49930095113992
  0
CIRCLE
  8
画層0
  6
CONTINUOUS
 10
184.002848229602
 20
190
 40
1.49930095113992
  0
LINE
  8
画層2
  6
DOT
 10
182.503547278462
 20
223.1976557735
 11
182.503547278462
 21
225.002469477762
  0
LINE
  8
画層2
  6
DOT
 10
185.502149180742
 20
223.1976557735
 11
185.502149180742
 21
225.002469477762
  0
LINE
  8
画層2
  6
DOT
 10
235.498922052682
 20
235.002782988913
 11
235.498922052682
 21
236.802569119104
  0
LINE
  8
画層2
  6
DOT
 10
232.500320150402
 20
235.002782988913
 11
232.500320150402
 21
236.802569119104
  0
LINE
  8
画層2
  6
DOT
 10
173.195226006205
 20
235.495252105319
 11
174.995012136397
 21
235.495252105319
  0
LINE
  8
画層2
  6
DOT
 10
173.195226006205
 20
232.495889123721
 11
174.995012136397
 21
232.495889123721
  0
LINE
  8
画層2
  6
DOT
 10
225.003576637785
 20
224.498229323781
 11
223.198762933523
 21
224.498229323781
  0
LINE
  8
画層2
  6
DOT
 10
225.003576637785
 20
227.49744029013
 11
223.198762933523
 21
227.49744029013
  0
LINE
  8
画層3
  6
CONTINUOUS
 10
185.002848229602
 20
190
 11
203
 21
190
  0
LINE
  8
画層3
  6
CONTINUOUS
 10
200
 20
190
 11
200
 21
170
  0
POLYLINE
  8
画層3
  6
CONTINUOUS
 10
0.0
 20
0.0
 30
0.0
 66
1
 70
     1
  0
VERTEX
  8
画層3
 10
200
  20
190
  0
VERTEX
  8
画層3
 10
200.388228567654
  20
188.551111260566
  0
VERTEX
  8
画層3
 10
199.611771432346
  20
188.551111260566
  0
SEQEND
100
AcDbEntity
  8
画層3
  0
POLYLINE
  8
画層3
  6
CONTINUOUS
 10
0.0
 20
0.0
 30
0.0
 66
1
 70
     1
  0
VERTEX
  8
画層3
 10
200
  20
170
  0
VERTEX
  8
画層3
 10
199.611771432346
  20
171.448888739434
  0
VERTEX
  8
画層3
 10
200.388228567654
  20
171.448888739434
  0
SEQEND
100
AcDbEntity
  8
画層3
  0
TEXT
  8
画層3
 62
7
  6
CONTINUOUS
 62
7
 10
199.75
 20
175
 40
9
  1
20
  7
Font_0
 50
90
 72
1
 11
190.75
 21
180
 73
3
  0
LINE
  8
画層3
  6
CONTINUOUS
 10
185.002848229602
 20
170
 11
203
 21
170
  0
LINE
  8
画層3
  6
CONTINUOUS
 10
191
 20
200
 11
203
 21
200
  0
LINE
  8
画層3
  6
CONTINUOUS
 10
200
 20
200
 11
200
 21
190
  0
POLYLINE
  8
画層3
  6
CONTINUOUS
 10
0.0
 20
0.0
 30
0.0
 66
1
 70
     1
  0
VERTEX
  8
画層3
 10
200
  20
200
  0
VERTEX
  8
画層3
 10
200.388228567654
  20
198.551111260566
  0
VERTEX
  8
画層3
 10
199.611771432346
  20
198.551111260566
  0
SEQEND
100
AcDbEntity
  8
画層3
  0
POLYLINE
  8
画層3
  6
CONTINUOUS
 10
0.0
 20
0.0
 30
0.0
 66
1
 70
     1
  0
VERTEX
  8
画層3
 10
200
  20
190
  0
VERTEX
  8
画層3
 10
199.611771432346
  20
191.448888739434
  0
VERTEX
  8
画層3
 10
200.388228567654
  20
191.448888739434
  0
SEQEND
100
AcDbEntity
  8
画層3
  0
TEXT
  8
画層3
 62
7
  6
CONTINUOUS
 62
7
 10
199.75
 20
190
 40
9
  1
10
  7
Font_0
 50
90
 72
1
 11
190.75
 21
195
 73
3
  0
LINE
  8
画層3
  6
CONTINUOUS
 10
191
 20
190
 11
203
 21
190
  0
LINE
  8
画層3
  6
CONTINUOUS
 10
185.002848229602
 20
80
 11
203
 21
80
  0
LINE
  8
画層3
  6
CONTINUOUS
 10
200
 20
80
 11
200
 21
100
  0
POLYLINE
  8
画層3
  6
CONTINUOUS
 10
0.0
 20
0.0
 30
0.0
 66
1
 70
     1
  0
VERTEX
  8
画層3
 10
200
  20
80
  0
VERTEX
  8
画層3
 10
199.611771432346
  20
81.4488887394336
  0
VERTEX
  8
画層3
 10
200.388228567654
  20
81.4488887394336
  0
SEQEND
100
AcDbEntity
  8
画層3
  0
POLYLINE
  8
画層3
  6
CONTINUOUS
 10
0.0
 20
0.0
 30
0.0
 66
1
 70
     1
  0
VERTEX
  8
画層3
 10
200
  20
100
  0
VERTEX
  8
画層3
 10
200.388228567654
  20
98.5511112605664
  0
VERTEX
  8
画層3
 10
199.611771432346
  20
98.5511112605664
  0
SEQEND
100
AcDbEntity
  8
画層3
  0
TEXT
  8
画層3
 62
7
  6
CONTINUOUS
 62
7
 10
199.75
 20
85
 40
9
  1
20
  7
Font_0
 50
90
 72
1
 11
190.75
 21
90
 73
3
  0
LINE
  8
画層3
  6
CONTINUOUS
 10
185.002848229602
 20
100
 11
203
 21
100
  0
LINE
  8
画層3
  6
CONTINUOUS
 10
191
 20
80
 11
203
 21
80
  0
LINE
  8
画層3
  6
CONTINUOUS
 10
200
 20
80
 11
200
 21
60
  0
POLYLINE
  8
画層3
  6
CONTINUOUS
 10
0.0
 20
0.0
 30
0.0
 66
1
 70
     1
  0
VERTEX
  8
画層3
 10
200
  20
80
  0
VERTEX
  8
画層3
 10
200.388228567654
  20
78.5511112605664
  0
VERTEX
  8
画層3
 10
199.611771432346
  20
78.5511112605664
  0
SEQEND
100
AcDbEntity
  8
画層3
  0
POLYLINE
  8
画層3
  6
CONTINUOUS
 10
0.0
 20
0.0
 30
0.0
 66
1
 70
     1
  0
VERTEX
  8
画層3
 10
200
  20
60
  0
VERTEX
  8
画層3
 10
199.611771432346
  20
61.4488887394336
  0
VERTEX
  8
画層3
 10
200.388228567654
  20
61.4488887394336
  0
SEQEND
100
AcDbEntity
  8
画層3
  0
TEXT
  8
画層3
 62
7
  6
CONTINUOUS
 62
7
 10
199.75
 20
65
 40
9
  1
20
  7
Font_0
 50
90
 72
1
 11
190.75
 21
70
 73
3
  0
LINE
  8
画層3
  6
CONTINUOUS
 10
191
 20
60
 11
203
 21
60
  0
LINE
  8
画層3
  6
CONTINUOUS
 10
233.999621101542
 20
191
 11
233.999621101542
 21
213
  0
LINE
  8
画層3
  6
CONTINUOUS
 10
233.999621101542
 20
210
 11
240
 21
210
  0
POLYLINE
  8
画層3
  6
CONTINUOUS
 10
0.0
 20
0.0
 30
0.0
 66
1
 70
     1
  0
VERTEX
  8
画層3
 10
233.999621101542
  20
210
  0
VERTEX
  8
画層3
 10
235.448509840975
  20
210.388228567654
  0
VERTEX
  8
画層3
 10
235.448509840975
  20
209.611771432346
  0
SEQEND
100
AcDbEntity
  8
画層3
  0
POLYLINE
  8
画層3
  6
CONTINUOUS
 10
0.0
 20
0.0
 30
0.0
 66
1
 70
     1
  0
VERTEX
  8
画層3
 10
240
  20
210
  0
VERTEX
  8
画層3
 10
238.551111260566
  20
209.611771432346
  0
VERTEX
  8
画層3
 10
238.551111260566
  20
210.388228567654
  0
SEQEND
100
AcDbEntity
  8
画層3
  0
TEXT
  8
画層3
 62
7
  6
CONTINUOUS
 62
7
 10
234.749810550771
 20
210.25
 40
9
  1
6
  7
Font_0
 72
1
 11
236.999810550771
 21
219.25
 73
3
  0
LINE
  8
画層3
  6
CONTINUOUS
 10
240
 20
191
 11
240
 21
213
  0
LINE
  8
画層3
  6
CONTINUOUS
 10
169
 20
200
 11
157
 21
200
  0
LINE
  8
画層3
  6
CONTINUOUS
 10
160
 20
200
 11
160
 21
60
  0
POLYLINE
  8
画層3
  6
CONTINUOUS
 10
0.0
 20
0.0
 30
0.0
 66
1
 70
     1
  0
VERTEX
  8
画層3
 10
160
  20
200
  0
VERTEX
  8
画層3
 10
160.388228567654
  20
198.551111260566
  0
VERTEX
  8
画層3
 10
159.611771432346
  20
198.551111260566
  0
SEQEND
100
AcDbEntity
  8
画層3
  0
POLYLINE
  8
画層3
  6
CONTINUOUS
 10
0.0
 20
0.0
 30
0.0
 66
1
 70
     1
  0
VERTEX
  8
画層3
 10
160
  20
60
  0
VERTEX
  8
画層3
 10
159.611771432346
  20
61.4488887394336
  0
VERTEX
  8
画層3
 10
160.388228567654
  20
61.4488887394336
  0
SEQEND
100
AcDbEntity
  8
画層3
  0
TEXT
  8
画層3
 62
7
  6
CONTINUOUS
 62
7
 10
159.75
 20
122.25
 40
9
  1
140
  7
Font_0
 50
90
 72
1
 11
150.75
 21
130
 73
3
  0
LINE
  8
画層3
  6
CONTINUOUS
 10
169
 20
60
 11
157
 21
60
  0
LINE
  8
画層3
  6
CONTINUOUS
 10
215
 20
115
 11
195.788083602987
 21
115
  0
LINE
  8
画層3
  6
CONTINUOUS
 10
184.929125396699
 20
101.178946119127
 11
195.788083602987
 21
115
  0
POLYLINE
  8
画層3
  6
CONTINUOUS
 10
0.0
 20
0.0
 30
0.0
 66
1
 70
     1
  0
VERTEX
  8
画層3
 10
184.929125396699
  20
101.178946119127
  0
VERTEX
  8
画層3
 10
186.108837839566
  20
103.937256934127
  0
VERTEX
  8
画層3
 10
187.329941748882
  20
102.977857135017
  0
SEQEND
100
AcDbEntity
  8
画層3
  0
TEXT
  8
画層3
 62
7
  6
CONTINUOUS
 62
7
 10
195.110253424175
 20
115.141066942568
 40
9
  1
3キリ
  7
Font_0
 11
195.110253424175
 21
124.141066942568
 73
3
  0
LINE
  8
画層3
  6
CONTINUOUS
 10
174.022342980948
 20
200
 11
179.18553936846
 21
205.149772370348
  0
POLYLINE
  8
画層3
  6
CONTINUOUS
 10
0.0
 20
0.0
 30
0.0
 66
1
 70
     1
  0
VERTEX
  8
画層3
 10
174.022342980948
  20
200
  0
VERTEX
  8
画層3
 10
175.525723528856
  20
202.59612151645
  0
VERTEX
  8
画層3
 10
176.622369485216
  20
201.496616910603
  0
SEQEND
100
AcDbEntity
  8
画層3
  0
LINE
  8
画層3
  6
CONTINUOUS
 10
214.18553936846
 20
205.149772370348
 11
179.18553936846
 21
205.149772370348
  0
LINE
  8
画層3
  6
CONTINUOUS
 10
174.075360319792
 20
60
 11
180
 21
50
  0
POLYLINE
  8
画層3
  6
CONTINUOUS
 10
0.0
 20
0.0
 30
0.0
 66
1
 70
     1
  0
VERTEX
  8
画層3
 10
174.075360319792
  20
60
  0
VERTEX
  8
画層3
 10
176.220434050489
  20
57.9027020502864
  0
VERTEX
  8
画層3
 10
174.88439968871
  20
57.1111498308944
  0
SEQEND
100
AcDbEntity
  8
画層3
  0
TEXT
  8
画層3
 62
7
  6
CONTINUOUS
 62
7
 10
182.089821275453
 20
49.6539068166915
 40
9
  1
M3深サ25
  7
Font_0
 11
182.089821275453
 21
58.6539068166915
 73
3
  0
TEXT
  8
画層3
 62
7
  6
CONTINUOUS
 62
7
 10
179.22498727325
 20
205.389740564233
 40
9
  1
M3深サ25
  7
Font_0
 11
179.22498727325
 21
214.389740564233
 73
3
  0
LINE
  8
画層3
  6
CONTINUOUS
 10
180
 20
50
 11
220
 21
50
  0
LINE
  8
画層3
  6
CONTINUOUS
 10
172.195227329813
 20
240.001627025823
 11
157.032579374791
 21
240.026297078248
  0
LINE
  8
画層3
  6
CONTINUOUS
 10
160.032575403969
 20
240.021416000779
 11
160.000031241672
 21
220.019201680733
  0
POLYLINE
  8
画層3
  6
CONTINUOUS
 10
0.0
 20
0.0
 30
0.0
 66
1
 70
     1
  0
VERTEX
  8
画層3
 10
160.032575403969
  20
240.021416000779
  0
VERTEX
  8
画層3
 10
160.418446078366
  20
238.5718975212
  0
VERTEX
  8
画層3
 10
159.641989970783
  20
238.57316083701
  0
SEQEND
100
AcDbEntity
  8
画層3
  0
POLYLINE
  8
画層3
  6
CONTINUOUS
 10
0.0
 20
0.0
 30
0.0
 66
1
 70
     1
  0
VERTEX
  8
画層3
 10
160.000031241672
  20
220.019201680733
  0
VERTEX
  8
画層3
 10
159.614160567275
  20
221.468720160312
  0
VERTEX
  8
画層3
 10
160.390616674858
  20
221.467456844502
  0
SEQEND
100
AcDbEntity
  8
画層3
  0
TEXT
  8
画層3
 62
7
  6
CONTINUOUS
 62
7
 10
159.758168524606
 20
225.020722215249
 40
9
  1
20
  7
Font_0
 50
89.9067782460396
 72
1
 11
150.766315566189
 21
230.035358829621
 73
3
  0
LINE
  8
画層3
  6
CONTINUOUS
 10
172.162683167516
 20
219.999412705778
 11
157.000035212494
 21
220.024082758203
  0
LINE
  8
画層3
  6
CONTINUOUS
 10
189.995862180459
 20
226.00246944079
 11
190.003202875226
 21
252.997279941462
  0
LINE
  8
画層3
  6
CONTINUOUS
 10
190.002387085706
 20
249.997280052381
 11
170.006796835087
 21
250.002717450236
  0
POLYLINE
  8
画層3
  6
CONTINUOUS
 10
0.0
 20
0.0
 30
0.0
 66
1
 70
     1
  0
VERTEX
  8
画層3
 10
190.002387085706
  20
249.997280052381
  0
VERTEX
  8
画層3
 10
188.55339282891
  20
249.609445495164
  0
VERTEX
  8
画層3
 10
188.553603970774
  20
250.385902601764
  0
SEQEND
100
AcDbEntity
  8
画層3
  0
POLYLINE
  8
画層3
  6
CONTINUOUS
 10
0.0
 20
0.0
 30
0.0
 66
1
 70
     1
  0
VERTEX
  8
画層3
 10
170.006796835087
  20
250.002717450236
  0
VERTEX
  8
画層3
 10
171.455791091883
  20
250.390552007453
  0
VERTEX
  8
画層3
 10
171.455579950019
  20
249.614094900854
  0
SEQEND
100
AcDbEntity
  8
画層3
  0
TEXT
  8
画層3
 62
7
  6
CONTINUOUS
 62
7
 10
175.004660127721
 20
250.251358391265
 40
9
  1
20
  7
Font_0
 50
-0.0155804323376003
 72
1
 11
180.007107311415
 21
259.249998409309
 73
3
  0
LINE
  8
画層3
  6
CONTINUOUS
 10
170.00027192984
 20
226.007906838645
 11
170.007612624607
 21
253.002717339317
  0
ENDSEC
  0
EOF
