999
Outputted By AR_CAD Ver.1.4.1
  0
SECTION
  2
HEADER
  9
$ACADVER
  1
AC1009
  9
$DWGCODEPAGE
  3
DOS932
  9
$EXTMIN
 10
0
 20
0
  9
$EXTMAX
 10
297
 20
210
  9
$INSBASE
 10
0.0
 20
0.0
 30
0.0
  9
$HANDLING
 70
     1
  9
$LTSCALE
 40
1
  0
ENDSEC
  0
SECTION
  2
TABLES
  0
TABLE
  2
LTYPE
 70
     7
  0
LTYPE
  2
BYBLOCK
 70
    64
 3

 72
    65
 73
    0
 40
    0
  0
LTYPE
  2
BYLAYER
 70
    64
 3

 72
    65
 73
    0
 40
    0
  0
LTYPE
  2
CONTINUOUS
 70
    64
 3
CONTINUOUS
 72
    65
 73
    0
 40
    0
  0
LTYPE
  2
DASHED
 70
    64
 3

 72
    65
 73
    2
 40
    3.5
 49
    2.91666666666667
 49
    -0.583333333333333
  0
LTYPE
  2
DOT
 70
    64
 3

 72
    65
 73
    2
 40
    0.5
 49
    0.25
 49
    -0.25
  0
LTYPE
  2
DASHDOT
 70
    64
 3

 72
    65
 73
    4
 40
    3.5
 49
    1.84210526315789
 49
    -0.552631578947368
 49
    0.552631578947368
 49
    -0.552631578947368
  0
LTYPE
  2
DIVIDE
 70
    64
 3

 72
    65
 73
    6
 40
    3.5
 49
    1.4
 49
    -0.42
 49
    0.42
 49
    -0.42
 49
    0.42
 49
    -0.42
  0
LTYPE
  2
HIDDEN
 70
    64
 3

 72
    65
 73
    2
 40
    4
 49
    2
 49
    -2
  0
ENDTAB
  0
TABLE
  2
LAYER
 70
   257
  0
LAYER
  2
画層0
 70
    0
 62
-7
  6
CONTINUOUS
  0
LAYER
  2
画層1
 70
    0
 62
-3
  6
CONTINUOUS
  0
LAYER
  2
画層2
 70
    0
 62
-9
  6
CONTINUOUS
  0
LAYER
  2
画層3
 70
    0
 62
-7
  6
CONTINUOUS
  0
LAYER
  2
画層4
 70
    4
 62
7
  6
CONTINUOUS
  0
LAYER
  2
画層5
 70
    4
 62
7
  6
CONTINUOUS
  0
LAYER
  2
画層6
 70
    0
 62
-253
  6
CONTINUOUS
  0
LAYER
  2
画層7
 70
    0
 62
-7
  6
CONTINUOUS
  0
LAYER
  2
画層8
 70
    0
 62
-7
  6
CONTINUOUS
  0
LAYER
  2
画層9
 70
    4
 62
7
  6
CONTINUOUS
  0
LAYER
  2
画層10
 70
    0
 62
-190
  6
CONTINUOUS
  0
LAYER
  2
画層11
 70
    4
 62
7
  6
CONTINUOUS
  0
LAYER
  2
画層12
 70
    0
 62
-161
  6
CONTINUOUS
  0
LAYER
  2
画層13
 70
    0
 62
-5
  6
CONTINUOUS
  0
LAYER
  2
画層14
 70
    0
 62
-150
  6
CONTINUOUS
  0
LAYER
  2
画層15
 70
    4
 62
7
  6
CONTINUOUS
  0
LAYER
  2
画層16
 70
    0
 62
7
  6
CONTINUOUS
  0
LAYER
  2
画層17
 70
    0
 62
70
  6
CONTINUOUS
  0
LAYER
  2
画層18
 70
    0
 62
211
  6
CONTINUOUS
  0
LAYER
  2
画層19
 70
    0
 62
137
  6
CONTINUOUS
  0
LAYER
  2
画層20
 70
    0
 62
4
  6
CONTINUOUS
  0
LAYER
  2
画層21
 70
    0
 62
131
  6
CONTINUOUS
  0
LAYER
  2
画層22
 70
    0
 62
4
  6
CONTINUOUS
  0
LAYER
  2
画層23
 70
    0
 62
4
  6
CONTINUOUS
  0
LAYER
  2
画層24
 70
    0
 62
7
  6
CONTINUOUS
  0
LAYER
  2
画層25
 70
    0
 62
7
  6
CONTINUOUS
  0
LAYER
  2
画層26
 70
    0
 62
7
  6
CONTINUOUS
  0
LAYER
  2
画層27
 70
    0
 62
7
  6
CONTINUOUS
  0
LAYER
  2
画層28
 70
    0
 62
7
  6
CONTINUOUS
  0
LAYER
  2
画層29
 70
    0
 62
7
  6
CONTINUOUS
  0
LAYER
  2
画層30
 70
    0
 62
7
  6
CONTINUOUS
  0
LAYER
  2
画層31
 70
    0
 62
7
  6
CONTINUOUS
  0
LAYER
  2
画層32
 70
    0
 62
7
  6
CONTINUOUS
  0
LAYER
  2
画層33
 70
    0
 62
7
  6
CONTINUOUS
  0
LAYER
  2
画層34
 70
    0
 62
7
  6
CONTINUOUS
  0
LAYER
  2
画層35
 70
    0
 62
7
  6
CONTINUOUS
  0
LAYER
  2
画層36
 70
    0
 62
7
  6
CONTINUOUS
  0
LAYER
  2
画層37
 70
    0
 62
7
  6
CONTINUOUS
  0
LAYER
  2
画層38
 70
    0
 62
7
  6
CONTINUOUS
  0
LAYER
  2
画層39
 70
    0
 62
7
  6
CONTINUOUS
  0
LAYER
  2
画層40
 70
    0
 62
7
  6
CONTINUOUS
  0
LAYER
  2
画層41
 70
    0
 62
7
  6
CONTINUOUS
  0
LAYER
  2
画層42
 70
    0
 62
7
  6
CONTINUOUS
  0
LAYER
  2
画層43
 70
    0
 62
7
  6
CONTINUOUS
  0
LAYER
  2
画層44
 70
    0
 62
7
  6
CONTINUOUS
  0
LAYER
  2
画層45
 70
    0
 62
7
  6
CONTINUOUS
  0
LAYER
  2
画層46
 70
    0
 62
7
  6
CONTINUOUS
  0
LAYER
  2
画層47
 70
    0
 62
7
  6
CONTINUOUS
  0
LAYER
  2
画層48
 70
    0
 62
7
  6
CONTINUOUS
  0
LAYER
  2
画層49
 70
    0
 62
7
  6
CONTINUOUS
  0
LAYER
  2
画層50
 70
    0
 62
7
  6
CONTINUOUS
  0
LAYER
  2
画層51
 70
    0
 62
7
  6
CONTINUOUS
  0
LAYER
  2
画層52
 70
    0
 62
7
  6
CONTINUOUS
  0
LAYER
  2
画層53
 70
    0
 62
7
  6
CONTINUOUS
  0
LAYER
  2
画層54
 70
    0
 62
7
  6
CONTINUOUS
  0
LAYER
  2
画層55
 70
    0
 62
7
  6
CONTINUOUS
  0
LAYER
  2
画層56
 70
    0
 62
7
  6
CONTINUOUS
  0
LAYER
  2
画層57
 70
    0
 62
7
  6
CONTINUOUS
  0
LAYER
  2
画層58
 70
    0
 62
7
  6
CONTINUOUS
  0
LAYER
  2
画層59
 70
    0
 62
7
  6
CONTINUOUS
  0
LAYER
  2
画層60
 70
    0
 62
7
  6
CONTINUOUS
  0
LAYER
  2
画層61
 70
    0
 62
7
  6
CONTINUOUS
  0
LAYER
  2
画層62
 70
    0
 62
7
  6
CONTINUOUS
  0
LAYER
  2
画層63
 70
    0
 62
7
  6
CONTINUOUS
  0
LAYER
  2
画層64
 70
    0
 62
7
  6
CONTINUOUS
  0
LAYER
  2
画層65
 70
    0
 62
7
  6
CONTINUOUS
  0
LAYER
  2
画層66
 70
    0
 62
7
  6
CONTINUOUS
  0
LAYER
  2
画層67
 70
    0
 62
7
  6
CONTINUOUS
  0
LAYER
  2
画層68
 70
    0
 62
7
  6
CONTINUOUS
  0
LAYER
  2
画層69
 70
    0
 62
7
  6
CONTINUOUS
  0
LAYER
  2
画層70
 70
    0
 62
7
  6
CONTINUOUS
  0
LAYER
  2
画層71
 70
    0
 62
7
  6
CONTINUOUS
  0
LAYER
  2
画層72
 70
    0
 62
7
  6
CONTINUOUS
  0
LAYER
  2
画層73
 70
    0
 62
7
  6
CONTINUOUS
  0
LAYER
  2
画層74
 70
    0
 62
7
  6
CONTINUOUS
  0
LAYER
  2
画層75
 70
    0
 62
7
  6
CONTINUOUS
  0
LAYER
  2
画層76
 70
    0
 62
7
  6
CONTINUOUS
  0
LAYER
  2
画層77
 70
    0
 62
7
  6
CONTINUOUS
  0
LAYER
  2
画層78
 70
    0
 62
7
  6
CONTINUOUS
  0
LAYER
  2
画層79
 70
    0
 62
7
  6
CONTINUOUS
  0
LAYER
  2
画層80
 70
    0
 62
7
  6
CONTINUOUS
  0
LAYER
  2
画層81
 70
    0
 62
7
  6
CONTINUOUS
  0
LAYER
  2
画層82
 70
    0
 62
7
  6
CONTINUOUS
  0
LAYER
  2
画層83
 70
    0
 62
7
  6
CONTINUOUS
  0
LAYER
  2
画層84
 70
    0
 62
7
  6
CONTINUOUS
  0
LAYER
  2
画層85
 70
    0
 62
7
  6
CONTINUOUS
  0
LAYER
  2
画層86
 70
    0
 62
7
  6
CONTINUOUS
  0
LAYER
  2
画層87
 70
    0
 62
7
  6
CONTINUOUS
  0
LAYER
  2
画層88
 70
    0
 62
7
  6
CONTINUOUS
  0
LAYER
  2
画層89
 70
    0
 62
7
  6
CONTINUOUS
  0
LAYER
  2
画層90
 70
    0
 62
7
  6
CONTINUOUS
  0
LAYER
  2
画層91
 70
    0
 62
7
  6
CONTINUOUS
  0
LAYER
  2
画層92
 70
    0
 62
7
  6
CONTINUOUS
  0
LAYER
  2
画層93
 70
    0
 62
7
  6
CONTINUOUS
  0
LAYER
  2
画層94
 70
    0
 62
7
  6
CONTINUOUS
  0
LAYER
  2
画層95
 70
    0
 62
7
  6
CONTINUOUS
  0
LAYER
  2
画層96
 70
    0
 62
7
  6
CONTINUOUS
  0
LAYER
  2
画層97
 70
    0
 62
7
  6
CONTINUOUS
  0
LAYER
  2
画層98
 70
    0
 62
7
  6
CONTINUOUS
  0
LAYER
  2
画層99
 70
    0
 62
7
  6
CONTINUOUS
  0
LAYER
  2
画層100
 70
    0
 62
7
  6
CONTINUOUS
  0
LAYER
  2
画層101
 70
    0
 62
7
  6
CONTINUOUS
  0
LAYER
  2
画層102
 70
    0
 62
7
  6
CONTINUOUS
  0
LAYER
  2
画層103
 70
    0
 62
7
  6
CONTINUOUS
  0
LAYER
  2
画層104
 70
    0
 62
7
  6
CONTINUOUS
  0
LAYER
  2
画層105
 70
    0
 62
7
  6
CONTINUOUS
  0
LAYER
  2
画層106
 70
    0
 62
7
  6
CONTINUOUS
  0
LAYER
  2
画層107
 70
    0
 62
7
  6
CONTINUOUS
  0
LAYER
  2
画層108
 70
    0
 62
7
  6
CONTINUOUS
  0
LAYER
  2
画層109
 70
    0
 62
7
  6
CONTINUOUS
  0
LAYER
  2
画層110
 70
    0
 62
7
  6
CONTINUOUS
  0
LAYER
  2
画層111
 70
    0
 62
7
  6
CONTINUOUS
  0
LAYER
  2
画層112
 70
    0
 62
7
  6
CONTINUOUS
  0
LAYER
  2
画層113
 70
    0
 62
7
  6
CONTINUOUS
  0
LAYER
  2
画層114
 70
    0
 62
7
  6
CONTINUOUS
  0
LAYER
  2
画層115
 70
    0
 62
7
  6
CONTINUOUS
  0
LAYER
  2
画層116
 70
    0
 62
7
  6
CONTINUOUS
  0
LAYER
  2
画層117
 70
    0
 62
7
  6
CONTINUOUS
  0
LAYER
  2
画層118
 70
    0
 62
7
  6
CONTINUOUS
  0
LAYER
  2
画層119
 70
    0
 62
7
  6
CONTINUOUS
  0
LAYER
  2
画層120
 70
    0
 62
7
  6
CONTINUOUS
  0
LAYER
  2
画層121
 70
    0
 62
7
  6
CONTINUOUS
  0
LAYER
  2
画層122
 70
    0
 62
7
  6
CONTINUOUS
  0
LAYER
  2
画層123
 70
    0
 62
7
  6
CONTINUOUS
  0
LAYER
  2
画層124
 70
    0
 62
7
  6
CONTINUOUS
  0
LAYER
  2
画層125
 70
    0
 62
7
  6
CONTINUOUS
  0
LAYER
  2
画層126
 70
    0
 62
7
  6
CONTINUOUS
  0
LAYER
  2
画層127
 70
    0
 62
7
  6
CONTINUOUS
  0
LAYER
  2
画層128
 70
    0
 62
7
  6
CONTINUOUS
  0
LAYER
  2
画層129
 70
    0
 62
7
  6
CONTINUOUS
  0
LAYER
  2
画層130
 70
    0
 62
7
  6
CONTINUOUS
  0
LAYER
  2
画層131
 70
    0
 62
7
  6
CONTINUOUS
  0
LAYER
  2
画層132
 70
    0
 62
7
  6
CONTINUOUS
  0
LAYER
  2
画層133
 70
    0
 62
7
  6
CONTINUOUS
  0
LAYER
  2
画層134
 70
    0
 62
7
  6
CONTINUOUS
  0
LAYER
  2
画層135
 70
    0
 62
7
  6
CONTINUOUS
  0
LAYER
  2
画層136
 70
    0
 62
7
  6
CONTINUOUS
  0
LAYER
  2
画層137
 70
    0
 62
7
  6
CONTINUOUS
  0
LAYER
  2
画層138
 70
    0
 62
7
  6
CONTINUOUS
  0
LAYER
  2
画層139
 70
    0
 62
7
  6
CONTINUOUS
  0
LAYER
  2
画層140
 70
    0
 62
7
  6
CONTINUOUS
  0
LAYER
  2
画層141
 70
    0
 62
7
  6
CONTINUOUS
  0
LAYER
  2
画層142
 70
    0
 62
7
  6
CONTINUOUS
  0
LAYER
  2
画層143
 70
    0
 62
7
  6
CONTINUOUS
  0
LAYER
  2
画層144
 70
    0
 62
7
  6
CONTINUOUS
  0
LAYER
  2
画層145
 70
    0
 62
7
  6
CONTINUOUS
  0
LAYER
  2
画層146
 70
    0
 62
7
  6
CONTINUOUS
  0
LAYER
  2
画層147
 70
    0
 62
7
  6
CONTINUOUS
  0
LAYER
  2
画層148
 70
    0
 62
7
  6
CONTINUOUS
  0
LAYER
  2
画層149
 70
    0
 62
7
  6
CONTINUOUS
  0
LAYER
  2
画層150
 70
    0
 62
7
  6
CONTINUOUS
  0
LAYER
  2
画層151
 70
    0
 62
7
  6
CONTINUOUS
  0
LAYER
  2
画層152
 70
    0
 62
7
  6
CONTINUOUS
  0
LAYER
  2
画層153
 70
    0
 62
7
  6
CONTINUOUS
  0
LAYER
  2
画層154
 70
    0
 62
7
  6
CONTINUOUS
  0
LAYER
  2
画層155
 70
    0
 62
7
  6
CONTINUOUS
  0
LAYER
  2
画層156
 70
    0
 62
7
  6
CONTINUOUS
  0
LAYER
  2
画層157
 70
    0
 62
7
  6
CONTINUOUS
  0
LAYER
  2
画層158
 70
    0
 62
7
  6
CONTINUOUS
  0
LAYER
  2
画層159
 70
    0
 62
7
  6
CONTINUOUS
  0
LAYER
  2
画層160
 70
    0
 62
7
  6
CONTINUOUS
  0
LAYER
  2
画層161
 70
    0
 62
7
  6
CONTINUOUS
  0
LAYER
  2
画層162
 70
    0
 62
7
  6
CONTINUOUS
  0
LAYER
  2
画層163
 70
    0
 62
7
  6
CONTINUOUS
  0
LAYER
  2
画層164
 70
    0
 62
7
  6
CONTINUOUS
  0
LAYER
  2
画層165
 70
    0
 62
7
  6
CONTINUOUS
  0
LAYER
  2
画層166
 70
    0
 62
7
  6
CONTINUOUS
  0
LAYER
  2
画層167
 70
    0
 62
7
  6
CONTINUOUS
  0
LAYER
  2
画層168
 70
    0
 62
7
  6
CONTINUOUS
  0
LAYER
  2
画層169
 70
    0
 62
7
  6
CONTINUOUS
  0
LAYER
  2
画層170
 70
    0
 62
7
  6
CONTINUOUS
  0
LAYER
  2
画層171
 70
    0
 62
7
  6
CONTINUOUS
  0
LAYER
  2
画層172
 70
    0
 62
7
  6
CONTINUOUS
  0
LAYER
  2
画層173
 70
    0
 62
7
  6
CONTINUOUS
  0
LAYER
  2
画層174
 70
    0
 62
7
  6
CONTINUOUS
  0
LAYER
  2
画層175
 70
    0
 62
7
  6
CONTINUOUS
  0
LAYER
  2
画層176
 70
    0
 62
7
  6
CONTINUOUS
  0
LAYER
  2
画層177
 70
    0
 62
7
  6
CONTINUOUS
  0
LAYER
  2
画層178
 70
    0
 62
7
  6
CONTINUOUS
  0
LAYER
  2
画層179
 70
    0
 62
7
  6
CONTINUOUS
  0
LAYER
  2
画層180
 70
    0
 62
7
  6
CONTINUOUS
  0
LAYER
  2
画層181
 70
    0
 62
7
  6
CONTINUOUS
  0
LAYER
  2
画層182
 70
    0
 62
7
  6
CONTINUOUS
  0
LAYER
  2
画層183
 70
    0
 62
7
  6
CONTINUOUS
  0
LAYER
  2
画層184
 70
    0
 62
7
  6
CONTINUOUS
  0
LAYER
  2
画層185
 70
    0
 62
7
  6
CONTINUOUS
  0
LAYER
  2
画層186
 70
    0
 62
7
  6
CONTINUOUS
  0
LAYER
  2
画層187
 70
    0
 62
7
  6
CONTINUOUS
  0
LAYER
  2
画層188
 70
    0
 62
7
  6
CONTINUOUS
  0
LAYER
  2
画層189
 70
    0
 62
7
  6
CONTINUOUS
  0
LAYER
  2
画層190
 70
    0
 62
7
  6
CONTINUOUS
  0
LAYER
  2
画層191
 70
    0
 62
7
  6
CONTINUOUS
  0
LAYER
  2
画層192
 70
    0
 62
7
  6
CONTINUOUS
  0
LAYER
  2
画層193
 70
    0
 62
7
  6
CONTINUOUS
  0
LAYER
  2
画層194
 70
    0
 62
7
  6
CONTINUOUS
  0
LAYER
  2
画層195
 70
    0
 62
7
  6
CONTINUOUS
  0
LAYER
  2
画層196
 70
    0
 62
7
  6
CONTINUOUS
  0
LAYER
  2
画層197
 70
    0
 62
7
  6
CONTINUOUS
  0
LAYER
  2
画層198
 70
    0
 62
7
  6
CONTINUOUS
  0
LAYER
  2
画層199
 70
    0
 62
7
  6
CONTINUOUS
  0
LAYER
  2
画層200
 70
    0
 62
7
  6
CONTINUOUS
  0
LAYER
  2
画層201
 70
    0
 62
7
  6
CONTINUOUS
  0
LAYER
  2
画層202
 70
    0
 62
7
  6
CONTINUOUS
  0
LAYER
  2
画層203
 70
    0
 62
7
  6
CONTINUOUS
  0
LAYER
  2
画層204
 70
    0
 62
7
  6
CONTINUOUS
  0
LAYER
  2
画層205
 70
    0
 62
7
  6
CONTINUOUS
  0
LAYER
  2
画層206
 70
    0
 62
7
  6
CONTINUOUS
  0
LAYER
  2
画層207
 70
    0
 62
7
  6
CONTINUOUS
  0
LAYER
  2
画層208
 70
    0
 62
7
  6
CONTINUOUS
  0
LAYER
  2
画層209
 70
    0
 62
7
  6
CONTINUOUS
  0
LAYER
  2
画層210
 70
    0
 62
7
  6
CONTINUOUS
  0
LAYER
  2
画層211
 70
    0
 62
7
  6
CONTINUOUS
  0
LAYER
  2
画層212
 70
    0
 62
7
  6
CONTINUOUS
  0
LAYER
  2
画層213
 70
    0
 62
7
  6
CONTINUOUS
  0
LAYER
  2
画層214
 70
    0
 62
7
  6
CONTINUOUS
  0
LAYER
  2
画層215
 70
    0
 62
7
  6
CONTINUOUS
  0
LAYER
  2
画層216
 70
    0
 62
7
  6
CONTINUOUS
  0
LAYER
  2
画層217
 70
    0
 62
7
  6
CONTINUOUS
  0
LAYER
  2
画層218
 70
    0
 62
7
  6
CONTINUOUS
  0
LAYER
  2
画層219
 70
    0
 62
7
  6
CONTINUOUS
  0
LAYER
  2
画層220
 70
    0
 62
7
  6
CONTINUOUS
  0
LAYER
  2
画層221
 70
    0
 62
7
  6
CONTINUOUS
  0
LAYER
  2
画層222
 70
    0
 62
7
  6
CONTINUOUS
  0
LAYER
  2
画層223
 70
    0
 62
7
  6
CONTINUOUS
  0
LAYER
  2
画層224
 70
    0
 62
7
  6
CONTINUOUS
  0
LAYER
  2
画層225
 70
    0
 62
7
  6
CONTINUOUS
  0
LAYER
  2
画層226
 70
    0
 62
7
  6
CONTINUOUS
  0
LAYER
  2
画層227
 70
    0
 62
7
  6
CONTINUOUS
  0
LAYER
  2
画層228
 70
    0
 62
7
  6
CONTINUOUS
  0
LAYER
  2
画層229
 70
    0
 62
7
  6
CONTINUOUS
  0
LAYER
  2
画層230
 70
    0
 62
7
  6
CONTINUOUS
  0
LAYER
  2
画層231
 70
    0
 62
7
  6
CONTINUOUS
  0
LAYER
  2
画層232
 70
    0
 62
7
  6
CONTINUOUS
  0
LAYER
  2
画層233
 70
    0
 62
7
  6
CONTINUOUS
  0
LAYER
  2
画層234
 70
    0
 62
7
  6
CONTINUOUS
  0
LAYER
  2
画層235
 70
    0
 62
7
  6
CONTINUOUS
  0
LAYER
  2
画層236
 70
    0
 62
7
  6
CONTINUOUS
  0
LAYER
  2
画層237
 70
    0
 62
7
  6
CONTINUOUS
  0
LAYER
  2
画層238
 70
    0
 62
7
  6
CONTINUOUS
  0
LAYER
  2
画層239
 70
    0
 62
7
  6
CONTINUOUS
  0
LAYER
  2
画層240
 70
    0
 62
7
  6
CONTINUOUS
  0
LAYER
  2
画層241
 70
    0
 62
7
  6
CONTINUOUS
  0
LAYER
  2
画層242
 70
    0
 62
7
  6
CONTINUOUS
  0
LAYER
  2
画層243
 70
    0
 62
7
  6
CONTINUOUS
  0
LAYER
  2
画層244
 70
    0
 62
7
  6
CONTINUOUS
  0
LAYER
  2
画層245
 70
    0
 62
7
  6
CONTINUOUS
  0
LAYER
  2
画層246
 70
    0
 62
7
  6
CONTINUOUS
  0
LAYER
  2
画層247
 70
    0
 62
7
  6
CONTINUOUS
  0
LAYER
  2
画層248
 70
    0
 62
7
  6
CONTINUOUS
  0
LAYER
  2
画層249
 70
    0
 62
7
  6
CONTINUOUS
  0
LAYER
  2
画層250
 70
    0
 62
7
  6
CONTINUOUS
  0
LAYER
  2
画層251
 70
    0
 62
7
  6
CONTINUOUS
  0
LAYER
  2
画層252
 70
    0
 62
7
  6
CONTINUOUS
  0
LAYER
  2
画層253
 70
    0
 62
7
  6
CONTINUOUS
  0
LAYER
  2
画層254
 70
    0
 62
7
  6
CONTINUOUS
  0
LAYER
  2
画層255
 70
    0
 62
7
  6
CONTINUOUS
  0
LAYER
  2
0
 70
   64
 62
    7
  6
CONTINUOUS
  0
ENDTAB
  0
TABLE
  2
STYLE
 70
     1
  0
STYLE
  2
Standard
 70
     0
 40
0.0
 41
1.0
 50
0.0
 71
     0
 42
3.2
  3
TXT
  4
BIGFONT
  0
STYLE
  2
Font_0
 70
     0
 40
0.0
 41
1.0
 50
0.0
 71
     0
 42
3.2
  3
txt
  4
BIGFONT
  0
ENDTAB
  0
ENDSEC
  0
SECTION
  2
ENTITIES
  0
LINE
  8
画層15
  6
CONTINUOUS
 10
250
 20
380
 11
250
 21
375
  0
LINE
  8
画層15
  6
CONTINUOUS
 10
250
 20
375
 11
310
 21
375
  0
LINE
  8
画層15
  6
CONTINUOUS
 10
310
 20
375
 11
310
 21
235
  0
LINE
  8
画層15
  6
CONTINUOUS
 10
310
 20
235
 11
250
 21
235
  0
LINE
  8
画層15
  6
CONTINUOUS
 10
350
 20
130
 11
500
 21
130
  0
LINE
  8
画層15
  6
CONTINUOUS
 10
600
 20
230
 11
600
 21
235
  0
LINE
  8
画層15
  6
CONTINUOUS
 10
600
 20
235
 11
540
 21
235
  0
LINE
  8
画層15
  6
CONTINUOUS
 10
540
 20
235
 11
540
 21
375
  0
LINE
  8
画層15
  6
CONTINUOUS
 10
540
 20
375
 11
600
 21
375
  0
LINE
  8
画層15
  6
CONTINUOUS
 10
600
 20
375
 11
600
 21
380
  0
LINE
  8
画層15
  6
CONTINUOUS
 10
350
 20
480
 11
500
 21
480
  0
LINE
  8
画層15
  6
CONTINUOUS
 10
504.998356104543
 20
130
 11
600
 21
224.996771034067
  0
LINE
  8
画層15
  6
CONTINUOUS
 10
600
 20
384.996334906118
 11
504.997549275172
 21
480
  0
LINE
  8
画層15
  6
CONTINUOUS
 10
250
 20
224.998807336096
 11
345.002885458578
 21
130
  0
LINE
  8
画層15
  6
CONTINUOUS
 10
600
 20
224.996771034067
 11
600
 21
230
  0
LINE
  8
画層15
  6
CONTINUOUS
 10
504.998356104543
 20
130
 11
500
 21
130
  0
LINE
  8
画層15
  6
CONTINUOUS
 10
345.002885458578
 20
130
 11
350
 21
130
  0
LINE
  8
画層15
  6
CONTINUOUS
 10
250
 20
224.998807336096
 11
250
 21
230
  0
LINE
  8
画層15
  6
CONTINUOUS
 10
250
 20
230
 11
250
 21
235
  0
LINE
  8
画層15
  6
CONTINUOUS
 10
250
 20
380
 11
250
 21
385.002455342156
  0
LINE
  8
画層15
  6
CONTINUOUS
 10
350
 20
480
 11
345.000495294151
 21
480
  0
LINE
  8
画層15
  6
CONTINUOUS
 10
345.000495294151
 20
480
 11
250
 21
385.002455342156
  0
LINE
  8
画層15
  6
CONTINUOUS
 10
504.997549275172
 20
480
 11
500
 21
480
  0
LINE
  8
画層15
  6
CONTINUOUS
 10
600
 20
384.996334906118
 11
600
 21
380
  0
CIRCLE
  8
画層5
  6
CONTINUOUS
 10
317.502906825184
 20
297.500196471095
 40
1.50452157225885
  0
CIRCLE
  8
画層5
  6
CONTINUOUS
 10
317.502906825184
 20
237.502161824606
 40
1.49747861080067
  0
CIRCLE
  8
画層5
  6
CONTINUOUS
 10
332.500616481085
 20
297.500196471095
 40
1.49747861080067
  0
CIRCLE
  8
画層5
  6
CONTINUOUS
 10
332.500616481085
 20
237.502161824606
 40
1.49747861080067
  0
CIRCLE
  8
画層5
  6
CONTINUOUS
 10
392.504453997318
 20
297.500196471095
 40
1.49747861080067
  0
CIRCLE
  8
画層5
  6
CONTINUOUS
 10
392.504453997318
 20
237.502161824606
 40
1.49747861080067
  0
CIRCLE
  8
画層5
  6
CONTINUOUS
 10
407.507311058499
 20
237.502161824606
 40
1.49747861080067
  0
CIRCLE
  8
画層5
  6
CONTINUOUS
 10
407.507311058499
 20
297.500196471095
 40
1.49747861080067
  0
CIRCLE
  8
画層5
  6
CONTINUOUS
 10
442.51679451265
 20
237.502161824606
 40
1.49747861080067
  0
CIRCLE
  8
画層5
  6
CONTINUOUS
 10
457.513261345705
 20
237.502161824606
 40
1.49747861080067
  0
CIRCLE
  8
画層5
  6
CONTINUOUS
 10
442.51679451265
 20
297.500196471095
 40
1.49747861080067
  0
CIRCLE
  8
画層5
  6
CONTINUOUS
 10
457.513261345705
 20
297.500196471095
 40
1.49747861080067
  0
CIRCLE
  8
画層5
  6
CONTINUOUS
 10
517.506871614843
 20
237.502161824606
 40
1.49747861080067
  0
CIRCLE
  8
画層5
  6
CONTINUOUS
 10
532.504631667311
 20
237.498554623069
 40
1.49747861080067
  0
CIRCLE
  8
画層5
  6
CONTINUOUS
 10
517.506871614843
 20
297.500196471095
 40
1.49747861080067
  0
CIRCLE
  8
画層5
  6
CONTINUOUS
 10
532.504631667311
 20
297.500196471095
 40
1.49747861080067
  0
CIRCLE
  8
画層5
  6
CONTINUOUS
 10
532.504631667311
 20
312.495974783109
 40
1.49747861080067
  0
CIRCLE
  8
画層5
  6
CONTINUOUS
 10
517.506871614843
 20
312.495974783109
 40
1.49747861080067
  0
CIRCLE
  8
画層5
  6
CONTINUOUS
 10
457.513261345705
 20
312.495974783109
 40
1.49747861080067
  0
CIRCLE
  8
画層5
  6
CONTINUOUS
 10
442.51679451265
 20
312.495974783109
 40
1.49747861080067
  0
CIRCLE
  8
画層5
  6
CONTINUOUS
 10
457.513261345705
 20
372.496602370964
 40
1.49747861080067
  0
CIRCLE
  8
画層5
  6
CONTINUOUS
 10
442.51679451265
 20
372.496602370964
 40
1.49747861080067
  0
CIRCLE
  8
画層5
  6
CONTINUOUS
 10
532.504631667311
 20
372.496602370964
 40
1.49747861080067
  0
CIRCLE
  8
画層5
  6
CONTINUOUS
 10
517.506871614843
 20
372.496602370964
 40
1.49747861080067
  0
CIRCLE
  8
画層5
  6
CONTINUOUS
 10
407.507311058499
 20
372.496602370964
 40
1.49747861080067
  0
CIRCLE
  8
画層5
  6
CONTINUOUS
 10
407.507311058499
 20
312.495974783109
 40
1.49747861080067
  0
CIRCLE
  8
画層5
  6
CONTINUOUS
 10
392.504453997318
 20
312.495974783109
 40
1.49747861080067
  0
CIRCLE
  8
画層5
  6
CONTINUOUS
 10
392.504453997318
 20
372.496602370964
 40
1.49747861080067
  0
CIRCLE
  8
画層5
  6
CONTINUOUS
 10
332.500616481085
 20
312.495974783109
 40
1.49747861080067
  0
CIRCLE
  8
画層5
  6
CONTINUOUS
 10
332.500616481085
 20
372.496602370964
 40
1.49747861080067
  0
CIRCLE
  8
画層5
  6
CONTINUOUS
 10
317.502906825184
 20
372.496602370964
 40
1.49747861080067
  0
CIRCLE
  8
画層5
  6
CONTINUOUS
 10
317.502906825184
 20
312.495974783109
 40
1.49747861080067
  0
CIRCLE
  8
画層5
  6
CONTINUOUS
 10
429.999278373289
 20
135.004456063269
 40
1.0034795888814
  0
CIRCLE
  8
画層5
  6
CONTINUOUS
 10
420.001278987124
 20
135.004456063269
 40
1.0034795888814
  0
CIRCLE
  8
画層5
  6
CONTINUOUS
 10
400
 20
135.004456063269
 40
1.0034795888814
  0
CIRCLE
  8
画層5
  6
CONTINUOUS
 10
390
 20
135.004456063269
 40
1.0034795888814
  0
CIRCLE
  8
画層5
  6
CONTINUOUS
 10
370
 20
135.004456063269
 40
1.0034795888814
  0
CIRCLE
  8
画層5
  6
CONTINUOUS
 10
360
 20
135.004456063269
 40
1.0034795888814
  0
CIRCLE
  8
画層5
  6
CONTINUOUS
 10
450
 20
135.004456063269
 40
1.0034795888814
  0
CIRCLE
  8
画層5
  6
CONTINUOUS
 10
460
 20
135.004456063269
 40
1.0034795888814
  0
CIRCLE
  8
画層5
  6
CONTINUOUS
 10
480
 20
135.004456063269
 40
1.0034795888814
  0
CIRCLE
  8
画層5
  6
CONTINUOUS
 10
490
 20
135.004456063269
 40
1.0034795888814
  0
CIRCLE
  8
画層5
  6
CONTINUOUS
 10
304.581705223187
 20
177.505126414823
 40
1.0034795888814
  0
CIRCLE
  8
画層5
  6
CONTINUOUS
 10
318.723096940342
 20
163.360896430773
 40
1.0034795888814
  0
CIRCLE
  8
画層5
  6
CONTINUOUS
 10
325.794942273564
 20
156.287631733397
 40
1.0034795888814
  0
CIRCLE
  8
画層5
  6
CONTINUOUS
 10
297.509936452097
 20
184.576205280328
 40
1.0034795888814
  0
CIRCLE
  8
画層5
  6
CONTINUOUS
 10
283.363413776784
 20
198.717125970149
 40
1.0034795888814
  0
CIRCLE
  8
画層5
  6
CONTINUOUS
 10
276.287761065556
 20
205.789976741653
 40
1.0034795888814
  0
CIRCLE
  8
画層5
  6
CONTINUOUS
 10
545.445614605582
 20
177.510544443038
 40
1.0034795888814
  0
CIRCLE
  8
画層5
  6
CONTINUOUS
 10
552.512583295007
 20
184.576205280328
 40
1.0034795888814
  0
CIRCLE
  8
画層5
  6
CONTINUOUS
 10
524.215841702904
 20
156.287631733397
 40
1.0034795888814
  0
CIRCLE
  8
画層5
  6
CONTINUOUS
 10
531.291392795267
 20
163.360896430773
 40
1.0034795888814
  0
CIRCLE
  8
画層5
  6
CONTINUOUS
 10
566.65418193174
 20
198.717125970149
 40
1.0034795888814
  0
CIRCLE
  8
画層5
  6
CONTINUOUS
 10
573.727371791303
 20
205.789976741653
 40
1.0034795888814
  0
CIRCLE
  8
画層5
  6
CONTINUOUS
 10
573.727371791303
 20
404.187013354816
 40
1.0034795888814
  0
CIRCLE
  8
画層5
  6
CONTINUOUS
 10
566.65418193174
 20
411.25678612603
 40
1.0034795888814
  0
CIRCLE
  8
画層5
  6
CONTINUOUS
 10
552.512583295007
 20
425.391552895829
 40
1.0034795888814
  0
CIRCLE
  8
画層5
  6
CONTINUOUS
 10
545.440194826018
 20
432.488378088728
 40
1.0034795888814
  0
CIRCLE
  8
画層5
  6
CONTINUOUS
 10
531.291392795267
 20
446.619055423172
 40
1.0034795888814
  0
CIRCLE
  8
画層5
  6
CONTINUOUS
 10
524.215841702904
 20
453.697824702668
 40
1.0034795888814
  0
CIRCLE
  8
画層5
  6
CONTINUOUS
 10
276.287761065556
 20
404.203826359506
 40
1.0034795888814
  0
CIRCLE
  8
画層5
  6
CONTINUOUS
 10
283.363413776783
 20
411.274906764531
 40
1.0034795888814
  0
CIRCLE
  8
画層5
  6
CONTINUOUS
 10
297.509936452097
 20
425.412287918061
 40
1.0034795888814
  0
CIRCLE
  8
画層5
  6
CONTINUOUS
 10
304.581705223187
 20
432.488378088728
 40
1.0034795888814
  0
CIRCLE
  8
画層5
  6
CONTINUOUS
 10
318.723096940342
 20
446.632986161759
 40
1.0034795888814
  0
CIRCLE
  8
画層5
  6
CONTINUOUS
 10
325.794942273564
 20
453.708763412288
 40
1.0034795888814
  0
CIRCLE
  8
画層5
  6
CONTINUOUS
 10
360
 20
475.00228415045
 40
1.0034795888814
  0
CIRCLE
  8
画層5
  6
CONTINUOUS
 10
370
 20
475.00228415045
 40
1.0034795888814
  0
CIRCLE
  8
画層5
  6
CONTINUOUS
 10
390
 20
475.00228415045
 40
1.0034795888814
  0
CIRCLE
  8
画層5
  6
CONTINUOUS
 10
400
 20
475.00228415045
 40
1.0034795888814
  0
CIRCLE
  8
画層5
  6
CONTINUOUS
 10
420
 20
475.00228415045
 40
1.0034795888814
  0
CIRCLE
  8
画層5
  6
CONTINUOUS
 10
430
 20
475.00228415045
 40
1.0034795888814
  0
CIRCLE
  8
画層5
  6
CONTINUOUS
 10
450
 20
475.00228415045
 40
1.0034795888814
  0
CIRCLE
  8
画層5
  6
CONTINUOUS
 10
460
 20
475.00228415045
 40
1.0034795888814
  0
CIRCLE
  8
画層5
  6
CONTINUOUS
 10
480
 20
475.00228415045
 40
1.0034795888814
  0
CIRCLE
  8
画層5
  6
CONTINUOUS
 10
490
 20
475.00228415045
 40
1.0034795888814
  0
CIRCLE
  8
画層4
  6
CONTINUOUS
 10
522.497663147269
 20
212.487982280684
 40
4.24789250391279
  0
CIRCLE
  8
画層4
  6
CONTINUOUS
 10
561.497797301026
 20
212.487982280684
 40
6.4973774459693
  0
CIRCLE
  8
画層5
  6
CONTINUOUS
 10
537.499349297231
 20
212.487982280684
 40
1.50114585100812
  0
CIRCLE
  8
画層5
  6
CONTINUOUS
 10
537.499349297231
 20
197.490046399679
 40
1.50114585100812
  0
CIRCLE
  8
画層5
  6
CONTINUOUS
 10
522.497663147269
 20
182.492179144637
 40
1.50114585100812
  0
CIRCLE
  8
画層5
  6
CONTINUOUS
 10
522.497663147269
 20
197.490046399679
 40
1.50114585100812
  0
CIRCLE
  8
画層5
  6
CONTINUOUS
 10
507.498708524005
 20
182.492179144637
 40
1.50114585100812
  0
CIRCLE
  8
画層5
  6
CONTINUOUS
 10
492.499753900742
 20
182.492179144637
 40
1.50114585100812
  0
CIRCLE
  8
画層5
  6
CONTINUOUS
 10
462.496828216617
 20
182.492179144637
 40
1.50114585100812
  0
CIRCLE
  8
画層5
  6
CONTINUOUS
 10
477.498291058679
 20
182.492179144637
 40
1.50114585100812
  0
CIRCLE
  8
画層5
  6
CONTINUOUS
 10
462.496828216617
 20
152.495738250105
 40
1.50114585100812
  0
CIRCLE
  8
画層5
  6
CONTINUOUS
 10
477.498291058679
 20
152.495738250105
 40
1.50114585100812
  0
CIRCLE
  8
画層4
  6
CONTINUOUS
 10
507.498708524005
 20
158.491548911314
 40
6.4973774459693
  0
CIRCLE
  8
画層5
  6
CONTINUOUS
 10
492.499753900742
 20
152.495738250105
 40
1.50114585100812
  0
CIRCLE
  8
画層4
  6
CONTINUOUS
 10
288.506087294967
 20
212.487982280684
 40
6.4973774459693
  0
CIRCLE
  8
画層4
  6
CONTINUOUS
 10
327.507185974146
 20
212.487982280684
 40
4.24789250391279
  0
CIRCLE
  8
画層4
  6
CONTINUOUS
 10
342.505484938259
 20
158.490815653046
 40
6.4973774459693
  0
CIRCLE
  8
画層5
  6
CONTINUOUS
 10
507.498708524005
 20
212.487982280684
 40
1.50114585100812
  0
CIRCLE
  8
画層5
  6
CONTINUOUS
 10
492.499753900742
 20
212.487982280684
 40
1.50114585100812
  0
CIRCLE
  8
画層5
  6
CONTINUOUS
 10
477.498291058679
 20
212.487982280684
 40
1.50114585100812
  0
CIRCLE
  8
画層5
  6
CONTINUOUS
 10
462.496828216617
 20
212.487982280684
 40
1.50114585100812
  0
CIRCLE
  8
画層5
  6
CONTINUOUS
 10
387.501876744008
 20
212.487982280684
 40
1.50114585100812
  0
CIRCLE
  8
画層5
  6
CONTINUOUS
 10
372.50283032319
 20
212.487982280684
 40
1.50114585100812
  0
CIRCLE
  8
画層5
  6
CONTINUOUS
 10
357.503783902371
 20
212.487982280684
 40
1.50114585100812
  0
CIRCLE
  8
画層5
  6
CONTINUOUS
 10
342.505484938259
 20
212.487982280684
 40
1.50114585100812
  0
CIRCLE
  8
画層5
  6
CONTINUOUS
 10
312.507744577311
 20
212.487982280684
 40
1.50114585100812
  0
CIRCLE
  8
画層5
  6
CONTINUOUS
 10
312.507744577311
 20
197.490046399679
 40
1.50114585100812
  0
CIRCLE
  8
画層5
  6
CONTINUOUS
 10
327.507185974146
 20
197.490046399679
 40
1.50114585100812
  0
CIRCLE
  8
画層5
  6
CONTINUOUS
 10
327.507185974146
 20
182.492179144637
 40
1.50114585100812
  0
CIRCLE
  8
画層5
  6
CONTINUOUS
 10
342.505484938259
 20
182.492179144637
 40
1.50114585100812
  0
CIRCLE
  8
画層5
  6
CONTINUOUS
 10
357.503783902371
 20
182.492179144637
 40
1.50114585100812
  0
CIRCLE
  8
画層5
  6
CONTINUOUS
 10
372.50283032319
 20
182.492179144637
 40
1.50114585100812
  0
CIRCLE
  8
画層5
  6
CONTINUOUS
 10
357.503783902371
 20
152.495738250105
 40
1.50114585100812
  0
CIRCLE
  8
画層5
  6
CONTINUOUS
 10
372.50283032319
 20
152.495738250105
 40
1.50114585100812
  0
CIRCLE
  8
画層5
  6
CONTINUOUS
 10
387.501876744008
 20
152.495738250105
 40
1.50114585100812
  0
CIRCLE
  8
画層5
  6
CONTINUOUS
 10
387.501876744008
 20
182.492179144637
 40
1.50114585100812
  0
CIRCLE
  8
画層5
  6
CONTINUOUS
 10
432.495415714525
 20
212.487982280684
 40
1.50114585100812
  0
CIRCLE
  8
画層5
  6
CONTINUOUS
 10
417.503587744126
 20
212.487982280684
 40
1.50114585100812
  0
CIRCLE
  8
画層4
  6
CONTINUOUS
 10
522.497663147269
 20
397.502087767994
 40
4.24789250391279
  0
CIRCLE
  8
画層4
  6
CONTINUOUS
 10
327.507185974146
 20
397.502087767994
 40
4.24789250391279
  0
CIRCLE
  8
画層4
  6
CONTINUOUS
 10
561.501274787797
 20
397.502087767994
 40
6.4973774459693
  0
CIRCLE
  8
画層4
  6
CONTINUOUS
 10
507.498708524005
 20
451.499108605684
 40
6.4973774459693
  0
CIRCLE
  8
画層4
  6
CONTINUOUS
 10
288.50998031435
 20
397.502087767994
 40
6.4973774459693
  0
CIRCLE
  8
画層4
  6
CONTINUOUS
 10
342.505484938259
 20
451.493718381649
 40
6.4973774459693
  0
CIRCLE
  8
画層5
  6
CONTINUOUS
 10
537.499349297231
 20
397.502087767994
 40
1.50114585100812
  0
CIRCLE
  8
画層5
  6
CONTINUOUS
 10
537.499349297231
 20
412.499955049102
 40
1.50114585100812
  0
CIRCLE
  8
画層5
  6
CONTINUOUS
 10
522.497663147269
 20
427.497729511692
 40
1.50114585100812
  0
CIRCLE
  8
画層5
  6
CONTINUOUS
 10
522.497663147269
 20
412.499955049102
 40
1.50114585100812
  0
CIRCLE
  8
画層5
  6
CONTINUOUS
 10
507.498708524005
 20
397.502087767994
 40
1.50114585100812
  0
CIRCLE
  8
画層5
  6
CONTINUOUS
 10
507.498708524005
 20
427.497729511692
 40
1.50114585100812
  0
CIRCLE
  8
画層5
  6
CONTINUOUS
 10
492.499753900742
 20
457.4965629891
 40
1.50114585100812
  0
CIRCLE
  8
画層5
  6
CONTINUOUS
 10
477.498291058679
 20
457.4965629891
 40
1.50114585100812
  0
CIRCLE
  8
画層5
  6
CONTINUOUS
 10
462.496828216617
 20
457.4965629891
 40
1.50114585100812
  0
CIRCLE
  8
画層5
  6
CONTINUOUS
 10
462.496828216617
 20
427.497729511692
 40
1.50114585100812
  0
CIRCLE
  8
画層5
  6
CONTINUOUS
 10
477.498291058679
 20
427.497729511692
 40
1.50114585100812
  0
CIRCLE
  8
画層5
  6
CONTINUOUS
 10
492.499753900742
 20
427.497729511692
 40
1.50114585100812
  0
CIRCLE
  8
画層5
  6
CONTINUOUS
 10
492.499753900742
 20
397.502087767994
 40
1.50114585100812
  0
CIRCLE
  8
画層5
  6
CONTINUOUS
 10
477.498291058679
 20
397.502087767994
 40
1.50114585100812
  0
CIRCLE
  8
画層5
  6
CONTINUOUS
 10
462.496828216617
 20
397.502087767994
 40
1.50114585100812
  0
CIRCLE
  8
画層5
  6
CONTINUOUS
 10
432.495415714525
 20
397.502087767994
 40
1.50114585100812
  0
CIRCLE
  8
画層5
  6
CONTINUOUS
 10
417.503587744126
 20
397.502087767994
 40
1.50114585100812
  0
CIRCLE
  8
画層5
  6
CONTINUOUS
 10
387.501876744008
 20
397.502087767994
 40
1.50114585100812
  0
CIRCLE
  8
画層5
  6
CONTINUOUS
 10
372.50283032319
 20
397.502087767994
 40
1.50114585100812
  0
CIRCLE
  8
画層5
  6
CONTINUOUS
 10
357.503783902371
 20
397.502087767994
 40
1.50114585100812
  0
CIRCLE
  8
画層5
  6
CONTINUOUS
 10
342.505484938259
 20
397.502087767994
 40
1.50114585100812
  0
CIRCLE
  8
画層5
  6
CONTINUOUS
 10
372.50283032319
 20
427.497729511692
 40
1.50114585100812
  0
CIRCLE
  8
画層5
  6
CONTINUOUS
 10
387.501876744008
 20
427.497729511692
 40
1.50114585100812
  0
CIRCLE
  8
画層5
  6
CONTINUOUS
 10
387.501876744008
 20
457.4965629891
 40
1.50114585100812
  0
CIRCLE
  8
画層5
  6
CONTINUOUS
 10
372.50283032319
 20
457.4965629891
 40
1.50114585100812
  0
CIRCLE
  8
画層5
  6
CONTINUOUS
 10
357.503783902371
 20
457.4965629891
 40
1.50114585100812
  0
CIRCLE
  8
画層5
  6
CONTINUOUS
 10
357.503783902371
 20
427.497729511692
 40
1.50114585100812
  0
CIRCLE
  8
画層5
  6
CONTINUOUS
 10
342.505484938259
 20
427.497729511692
 40
1.50114585100812
  0
CIRCLE
  8
画層5
  6
CONTINUOUS
 10
327.507185974146
 20
427.497729511692
 40
1.50114585100812
  0
CIRCLE
  8
画層5
  6
CONTINUOUS
 10
327.507185974146
 20
412.499955049102
 40
1.50114585100812
  0
CIRCLE
  8
画層5
  6
CONTINUOUS
 10
312.507744577311
 20
412.499955049102
 40
1.50114585100812
  0
CIRCLE
  8
画層5
  6
CONTINUOUS
 10
312.507744577311
 20
397.502087767994
 40
1.50114585100812
  0
LINE
  8
画層15
  6
CONTINUOUS
 10
410
 20
230
 11
410
 21
220
  0
LINE
  8
画層15
  6
CONTINUOUS
 10
410
 20
220
 11
350
 21
220
  0
LINE
  8
画層15
  6
CONTINUOUS
 10
350
 20
220
 11
350
 21
230
  0
LINE
  8
画層15
  6
CONTINUOUS
 10
350
 20
230
 11
410
 21
230
  0
LINE
  8
画層15
  6
CONTINUOUS
 10
440
 20
230
 11
440
 21
220
  0
LINE
  8
画層15
  6
CONTINUOUS
 10
440
 20
220
 11
500
 21
220
  0
LINE
  8
画層15
  6
CONTINUOUS
 10
500
 20
230
 11
500
 21
220
  0
LINE
  8
画層15
  6
CONTINUOUS
 10
500
 20
230
 11
440
 21
230
  0
LINE
  8
画層15
  6
CONTINUOUS
 10
440
 20
390
 11
440
 21
380
  0
LINE
  8
画層15
  6
CONTINUOUS
 10
440
 20
380
 11
500
 21
380
  0
LINE
  8
画層15
  6
CONTINUOUS
 10
500
 20
380
 11
500
 21
390
  0
LINE
  8
画層15
  6
CONTINUOUS
 10
500
 20
390
 11
440
 21
390
  0
LINE
  8
画層15
  6
CONTINUOUS
 10
410
 20
390
 11
410
 21
380
  0
LINE
  8
画層15
  6
CONTINUOUS
 10
410
 20
380
 11
350
 21
380
  0
LINE
  8
画層15
  6
CONTINUOUS
 10
350
 20
380
 11
350
 21
390
  0
LINE
  8
画層15
  6
CONTINUOUS
 10
350
 20
390
 11
410
 21
390
  0
LINE
  8
画層9
  6
CONTINUOUS
 10
312.507744577311
 20
398.502087767994
 11
312.507744577311
 21
513
  0
LINE
  8
画層9
  6
CONTINUOUS
 10
312.507744577311
 20
510
 11
537.499349297231
 21
510
  0
POLYLINE
  8
画層9
  6
CONTINUOUS
 10
0.0
 20
0.0
 30
0.0
 66
1
 70
     1
  0
VERTEX
  8
画層9
 10
312.507744577311
  20
510
  0
VERTEX
  8
画層9
 10
313.956633316744
  20
510.388228567654
  0
VERTEX
  8
画層9
 10
313.956633316744
  20
509.611771432346
  0
SEQEND
100
AcDbEntity
  8
画層9
  0
POLYLINE
  8
画層9
  6
CONTINUOUS
 10
0.0
 20
0.0
 30
0.0
 66
1
 70
     1
  0
VERTEX
  8
画層9
 10
537.499349297231
  20
510
  0
VERTEX
  8
画層9
 10
536.050460557797
  20
509.611771432346
  0
VERTEX
  8
画層9
 10
536.050460557797
  20
510.388228567654
  0
SEQEND
100
AcDbEntity
  8
画層9
  0
TEXT
  8
画層9
 62
7
  6
CONTINUOUS
 62
7
 10
416.503546937271
 20
510.25
 40
10
  1
225
  7
Font_0
 50
360
 72
1
 11
425.003546937271
 21
520.25
 73
3
  0
LINE
  8
画層9
  6
CONTINUOUS
 10
537.499349297231
 20
398.502087767994
 11
537.499349297231
 21
513
  0
LINE
  8
画層9
  6
CONTINUOUS
 10
433.495415714525
 20
397.502087767994
 11
613
 21
397.502087767994
  0
LINE
  8
画層9
  6
CONTINUOUS
 10
610
 20
397.502087767994
 11
610
 21
212.487982280684
  0
POLYLINE
  8
画層9
  6
CONTINUOUS
 10
0.0
 20
0.0
 30
0.0
 66
1
 70
     1
  0
VERTEX
  8
画層9
 10
610
  20
397.502087767994
  0
VERTEX
  8
画層9
 10
610.388228567654
  20
396.05319902856
  0
VERTEX
  8
画層9
 10
609.611771432346
  20
396.05319902856
  0
SEQEND
100
AcDbEntity
  8
画層9
  0
POLYLINE
  8
画層9
  6
CONTINUOUS
 10
0.0
 20
0.0
 30
0.0
 66
1
 70
     1
  0
VERTEX
  8
画層9
 10
610
  20
212.487982280684
  0
VERTEX
  8
画層9
 10
609.611771432346
  20
213.936871020118
  0
VERTEX
  8
画層9
 10
610.388228567654
  20
213.936871020118
  0
SEQEND
100
AcDbEntity
  8
画層9
  0
TEXT
  8
画層9
 62
7
  6
CONTINUOUS
 62
7
 10
609.75
 20
296.495035024339
 40
10
  1
185
  7
Font_0
 50
90
 72
1
 11
599.75
 21
304.995035024339
 73
3
  0
LINE
  8
画層9
  6
CONTINUOUS
 10
433.495415714525
 20
212.487982280684
 11
613
 21
212.487982280684
  0
LINE
  8
画層9
  6
CONTINUOUS
 10
463.496828216617
 20
457.4965629891
 11
633
 21
457.4965629891
  0
LINE
  8
画層9
  6
CONTINUOUS
 10
630
 20
457.4965629891
 11
630
 21
152.495738250105
  0
POLYLINE
  8
画層9
  6
CONTINUOUS
 10
0.0
 20
0.0
 30
0.0
 66
1
 70
     1
  0
VERTEX
  8
画層9
 10
630
  20
457.4965629891
  0
VERTEX
  8
画層9
 10
630.388228567654
  20
456.047674249666
  0
VERTEX
  8
画層9
 10
629.611771432346
  20
456.047674249666
  0
SEQEND
100
AcDbEntity
  8
画層9
  0
POLYLINE
  8
画層9
  6
CONTINUOUS
 10
0.0
 20
0.0
 30
0.0
 66
1
 70
     1
  0
VERTEX
  8
画層9
 10
630
  20
152.495738250105
  0
VERTEX
  8
画層9
 10
629.611771432346
  20
153.944626989539
  0
VERTEX
  8
画層9
 10
630.388228567654
  20
153.944626989539
  0
SEQEND
100
AcDbEntity
  8
画層9
  0
TEXT
  8
画層9
 62
7
  6
CONTINUOUS
 62
7
 10
629.75
 20
296.496150619602
 40
10
  1
305
  7
Font_0
 50
90
 72
1
 11
619.75
 21
304.996150619602
 73
3
  0
LINE
  8
画層9
  6
CONTINUOUS
 10
463.496828216617
 20
152.495738250105
 11
633
 21
152.495738250105
  0
LINE
  8
画層9
  6
CONTINUOUS
 10
538.499349297231
 20
212.487982280684
 11
613.000000000001
 21
212.487982280684
  0
LINE
  8
画層9
  6
CONTINUOUS
 10
610.000000000001
 20
212.487982280684
 11
610.000000000001
 21
197.490046399679
  0
POLYLINE
  8
画層9
  6
CONTINUOUS
 10
0.0
 20
0.0
 30
0.0
 66
1
 70
     1
  0
VERTEX
  8
画層9
 10
610.000000000001
  20
212.487982280684
  0
VERTEX
  8
画層9
 10
610.388228567654
  20
211.039093541251
  0
VERTEX
  8
画層9
 10
609.611771432347
  20
211.039093541251
  0
SEQEND
100
AcDbEntity
  8
画層9
  0
POLYLINE
  8
画層9
  6
CONTINUOUS
 10
0.0
 20
0.0
 30
0.0
 66
1
 70
     1
  0
VERTEX
  8
画層9
 10
610.000000000001
  20
197.490046399679
  0
VERTEX
  8
画層9
 10
609.611771432347
  20
198.938935139112
  0
VERTEX
  8
画層9
 10
610.388228567654
  20
198.938935139112
  0
SEQEND
100
AcDbEntity
  8
画層9
  0
TEXT
  8
画層9
 62
7
  6
CONTINUOUS
 62
7
 10
609.750000000001
 20
199.489014340182
 40
10
  1
15
  7
Font_0
 50
90
 72
1
 11
599.750000000001
 21
204.989014340182
 73
3
  0
LINE
  8
画層9
  6
CONTINUOUS
 10
538.499349297231
 20
197.490046399679
 11
613.000000000001
 21
197.490046399679
  0
LINE
  8
画層9
  6
CONTINUOUS
 10
610
 20
197.490046399679
 11
610
 21
182.492179144637
  0
POLYLINE
  8
画層9
  6
CONTINUOUS
 10
0.0
 20
0.0
 30
0.0
 66
1
 70
     1
  0
VERTEX
  8
画層9
 10
610
  20
197.490046399679
  0
VERTEX
  8
画層9
 10
610.388228567654
  20
196.041157660245
  0
VERTEX
  8
画層9
 10
609.611771432346
  20
196.041157660245
  0
SEQEND
100
AcDbEntity
  8
画層9
  0
POLYLINE
  8
画層9
  6
CONTINUOUS
 10
0.0
 20
0.0
 30
0.0
 66
1
 70
     1
  0
VERTEX
  8
画層9
 10
610
  20
182.492179144637
  0
VERTEX
  8
画層9
 10
609.611771432346
  20
183.941067884071
  0
VERTEX
  8
画層9
 10
610.388228567654
  20
183.941067884071
  0
SEQEND
100
AcDbEntity
  8
画層9
  0
TEXT
  8
画層9
 62
7
  6
CONTINUOUS
 62
7
 10
609.75
 20
184.491112772158
 40
10
  1
15
  7
Font_0
 50
90
 72
1
 11
599.75
 21
189.991112772158
 73
3
  0
LINE
  8
画層9
  6
CONTINUOUS
 10
523.497663147269
 20
182.492179144637
 11
613
 21
182.492179144637
  0
LINE
  8
画層9
  6
CONTINUOUS
 10
523.497663006468
 20
182.491648482515
 11
613.011910682578
 21
182.444146655179
  0
LINE
  8
画層9
  6
CONTINUOUS
 10
610.011911104981
 20
182.445738641546
 11
609.995993127753
 21
152.449297747014
  0
POLYLINE
  8
画層9
  6
CONTINUOUS
 10
0.0
 20
0.0
 30
0.0
 66
1
 70
     1
  0
VERTEX
  8
画層9
 10
610.011911104981
  20
182.445738641546
  0
VERTEX
  8
画層9
 10
610.399370747598
  20
180.996644087922
  0
VERTEX
  8
画層9
 10
609.622913721617
  20
180.997056124313
  0
SEQEND
100
AcDbEntity
  8
画層9
  0
POLYLINE
  8
画層9
  6
CONTINUOUS
 10
0.0
 20
0.0
 30
0.0
 66
1
 70
     1
  0
VERTEX
  8
画層9
 10
609.995993127753
  20
152.449297747014
  0
VERTEX
  8
画層9
 10
609.608533485136
  20
153.898392300638
  0
VERTEX
  8
画層9
 10
610.384990511118
  20
153.897980264247
  0
SEQEND
100
AcDbEntity
  8
画層9
  0
TEXT
  8
画層9
 62
7
  6
CONTINUOUS
 62
7
 10
609.751033509895
 20
161.947651634217
 40
10
  1
30
  7
Font_0
 50
89.969595298618
 72
1
 11
599.753953559579
 21
167.452957481033
 73
3
  0
LINE
  8
画層9
  6
CONTINUOUS
 10
523.481745029241
 20
152.495207587983
 11
612.99599270535
 21
152.447705760647
  0
LINE
  8
画層9
  6
CONTINUOUS
 10
522.497663147269
 20
428.497729511692
 11
522.497663147269
 21
492.999999999999
  0
LINE
  8
画層9
  6
CONTINUOUS
 10
522.497663147269
 20
489.999999999999
 11
507.498708524005
 21
489.999999999999
  0
POLYLINE
  8
画層9
  6
CONTINUOUS
 10
0.0
 20
0.0
 30
0.0
 66
1
 70
     1
  0
VERTEX
  8
画層9
 10
522.497663147269
  20
489.999999999999
  0
VERTEX
  8
画層9
 10
521.048774407836
  20
489.611771432346
  0
VERTEX
  8
画層9
 10
521.048774407836
  20
490.388228567653
  0
SEQEND
100
AcDbEntity
  8
画層9
  0
POLYLINE
  8
画層9
  6
CONTINUOUS
 10
0.0
 20
0.0
 30
0.0
 66
1
 70
     1
  0
VERTEX
  8
画層9
 10
507.498708524005
  20
489.999999999999
  0
VERTEX
  8
画層9
 10
508.947597263439
  20
490.388228567653
  0
VERTEX
  8
画層9
 10
508.947597263439
  20
489.611771432346
  0
SEQEND
100
AcDbEntity
  8
画層9
  0
TEXT
  8
画層9
 62
7
  6
CONTINUOUS
 62
7
 10
509.498185835637
 20
490.249999999999
 40
10
  1
15
  7
Font_0
 72
1
 11
514.998185835637
 21
500.249999999999
 73
3
  0
LINE
  8
画層9
  6
CONTINUOUS
 10
507.498708524005
 20
428.497729511692
 11
507.498708524005
 21
492.999999999999
  0
LINE
  8
画層9
  6
CONTINUOUS
 10
492.499753900742
 20
458.4965629891
 11
492.499753900742
 21
493
  0
LINE
  8
画層9
  6
CONTINUOUS
 10
492.499753900742
 20
490
 11
507.498708524005
 21
490
  0
POLYLINE
  8
画層9
  6
CONTINUOUS
 10
0.0
 20
0.0
 30
0.0
 66
1
 70
     1
  0
VERTEX
  8
画層9
 10
492.499753900742
  20
490
  0
VERTEX
  8
画層9
 10
493.948642640175
  20
490.388228567654
  0
VERTEX
  8
画層9
 10
493.948642640175
  20
489.611771432347
  0
SEQEND
100
AcDbEntity
  8
画層9
  0
POLYLINE
  8
画層9
  6
CONTINUOUS
 10
0.0
 20
0.0
 30
0.0
 66
1
 70
     1
  0
VERTEX
  8
画層9
 10
507.498708524005
  20
490
  0
VERTEX
  8
画層9
 10
506.049819784572
  20
489.611771432347
  0
VERTEX
  8
画層9
 10
506.049819784572
  20
490.388228567654
  0
SEQEND
100
AcDbEntity
  8
画層9
  0
TEXT
  8
画層9
 62
7
  6
CONTINUOUS
 62
7
 10
494.499231212374
 20
490.25
 40
10
  1
15
  7
Font_0
 72
1
 11
499.999231212374
 21
500.25
 73
3
  0
LINE
  8
画層9
  6
CONTINUOUS
 10
507.498708524005
 20
458.4965629891
 11
507.498708524005
 21
493
  0
LINE
  8
画層9
  6
CONTINUOUS
 10
477.498291058679
 20
458.4965629891
 11
477.498291058679
 21
493
  0
LINE
  8
画層9
  6
CONTINUOUS
 10
477.498291058679
 20
490
 11
492.499753900742
 21
490
  0
POLYLINE
  8
画層9
  6
CONTINUOUS
 10
0.0
 20
0.0
 30
0.0
 66
1
 70
     1
  0
VERTEX
  8
画層9
 10
477.498291058679
  20
490
  0
VERTEX
  8
画層9
 10
478.947179798113
  20
490.388228567654
  0
VERTEX
  8
画層9
 10
478.947179798113
  20
489.611771432347
  0
SEQEND
100
AcDbEntity
  8
画層9
  0
POLYLINE
  8
画層9
  6
CONTINUOUS
 10
0.0
 20
0.0
 30
0.0
 66
1
 70
     1
  0
VERTEX
  8
画層9
 10
492.499753900742
  20
490
  0
VERTEX
  8
画層9
 10
491.050865161308
  20
489.611771432347
  0
VERTEX
  8
画層9
 10
491.050865161308
  20
490.388228567654
  0
SEQEND
100
AcDbEntity
  8
画層9
  0
TEXT
  8
画層9
 62
7
  6
CONTINUOUS
 62
7
 10
479.499022479711
 20
490.25
 40
10
  1
15
  7
Font_0
 72
1
 11
484.999022479711
 21
500.25
 73
3
  0
LINE
  8
画層9
  6
CONTINUOUS
 10
492.499753900742
 20
458.4965629891
 11
492.499753900742
 21
493
  0
LINE
  8
画層9
  6
CONTINUOUS
 10
392.504453997318
 20
236.502161824606
 11
392.504453997318
 21
117
  0
LINE
  8
画層9
  6
CONTINUOUS
 10
392.504453997318
 20
120
 11
407.507311058499
 21
120
  0
POLYLINE
  8
画層9
  6
CONTINUOUS
 10
0.0
 20
0.0
 30
0.0
 66
1
 70
     1
  0
VERTEX
  8
画層9
 10
392.504453997318
  20
120
  0
VERTEX
  8
画層9
 10
393.953342736752
  20
120.388228567654
  0
VERTEX
  8
画層9
 10
393.953342736752
  20
119.611771432346
  0
SEQEND
100
AcDbEntity
  8
画層9
  0
POLYLINE
  8
画層9
  6
CONTINUOUS
 10
0.0
 20
0.0
 30
0.0
 66
1
 70
     1
  0
VERTEX
  8
画層9
 10
407.507311058499
  20
120
  0
VERTEX
  8
画層9
 10
406.058422319066
  20
119.611771432346
  0
VERTEX
  8
画層9
 10
406.058422319066
  20
120.388228567654
  0
SEQEND
100
AcDbEntity
  8
画層9
  0
TEXT
  8
画層9
 62
7
  6
CONTINUOUS
 62
7
 10
394.505882527909
 20
120.25
 40
10
  1
15
  7
Font_0
 50
360
 72
1
 11
400.005882527909
 21
130.25
 73
3
  0
LINE
  8
画層9
  6
CONTINUOUS
 10
407.507311058499
 20
236.502161824606
 11
407.507311058499
 21
117
  0
LINE
  8
画層9
  6
CONTINUOUS
 10
332.500616481085
 20
236.502161824606
 11
332.500616481085
 21
117
  0
LINE
  8
画層9
  6
CONTINUOUS
 10
317.502906825184
 20
236.502161824606
 11
317.502906825184
 21
117
  0
LINE
  8
画層9
  6
CONTINUOUS
 10
317.502906825184
 20
120
 11
332.500616481085
 21
120
  0
POLYLINE
  8
画層9
  6
CONTINUOUS
 10
0.0
 20
0.0
 30
0.0
 66
1
 70
     1
  0
VERTEX
  8
画層9
 10
317.502906825184
  20
120
  0
VERTEX
  8
画層9
 10
318.951795564618
  20
120.388228567654
  0
VERTEX
  8
画層9
 10
318.951795564618
  20
119.611771432346
  0
SEQEND
100
AcDbEntity
  8
画層9
  0
POLYLINE
  8
画層9
  6
CONTINUOUS
 10
0.0
 20
0.0
 30
0.0
 66
1
 70
     1
  0
VERTEX
  8
画層9
 10
332.500616481085
  20
120
  0
VERTEX
  8
画層9
 10
331.051727741652
  20
119.611771432346
  0
VERTEX
  8
画層9
 10
331.051727741652
  20
120.388228567654
  0
SEQEND
100
AcDbEntity
  8
画層9
  0
TEXT
  8
画層9
 62
7
  6
CONTINUOUS
 62
7
 10
319.501761653135
 20
120.25
 40
10
  1
15
  7
Font_0
 72
1
 11
325.001761653135
 21
130.25
 73
3
  0
LINE
  8
画層9
  6
CONTINUOUS
 10
317.502890047637
 20
236.502161824747
 11
317.500549586491
 21
97.00255856627
  0
LINE
  8
画層9
  6
CONTINUOUS
 10
317.500599919132
 20
100.002558565848
 11
532.502324761259
 21
99.9989513643105
  0
POLYLINE
  8
画層9
  6
CONTINUOUS
 10
0.0
 20
0.0
 30
0.0
 66
1
 70
     1
  0
VERTEX
  8
画層9
 10
317.500599919132
  20
100.002558565848
  0
VERTEX
  8
画層9
 10
318.949495171885
  20
100.390762824648
  0
VERTEX
  8
画層9
 10
318.949482144839
  20
99.6143056894498
  0
SEQEND
100
AcDbEntity
  8
画層9
  0
POLYLINE
  8
画層9
  6
CONTINUOUS
 10
0.0
 20
0.0
 30
0.0
 66
1
 70
     1
  0
VERTEX
  8
画層9
 10
532.502324761259
  20
99.9989513643105
  0
VERTEX
  8
画層9
 10
531.053429508507
  20
99.6107471055103
  0
VERTEX
  8
画層9
 10
531.053442535553
  20
100.387204240709
  0
SEQEND
100
AcDbEntity
  8
画層9
  0
TEXT
  8
画層9
 62
7
  6
CONTINUOUS
 62
7
 10
416.501466535779
 20
100.250897574193
 40
10
  1
215
  7
Font_0
 50
359.999038717368
 72
1
 11
425.001634310052
 21
110.250754963637
 73
3
  0
LINE
  8
画層9
  6
CONTINUOUS
 10
532.504614889765
 20
236.49855462321
 11
532.502274428619
 21
96.9989513647328
  0
LINE
  8
画層9
  6
CONTINUOUS
 10
316.502906825184
 20
372.496602370964
 11
217
 21
372.496602370964
  0
LINE
  8
画層9
  6
CONTINUOUS
 10
220
 20
372.496602370964
 11
220
 21
237.502161824606
  0
POLYLINE
  8
画層9
  6
CONTINUOUS
 10
0.0
 20
0.0
 30
0.0
 66
1
 70
     1
  0
VERTEX
  8
画層9
 10
220
  20
372.496602370964
  0
VERTEX
  8
画層9
 10
220.388228567654
  20
371.04771363153
  0
VERTEX
  8
画層9
 10
219.611771432346
  20
371.04771363153
  0
SEQEND
100
AcDbEntity
  8
画層9
  0
POLYLINE
  8
画層9
  6
CONTINUOUS
 10
0.0
 20
0.0
 30
0.0
 66
1
 70
     1
  0
VERTEX
  8
画層9
 10
220
  20
237.502161824606
  0
VERTEX
  8
画層9
 10
219.611771432346
  20
238.95105056404
  0
VERTEX
  8
画層9
 10
220.388228567654
  20
238.95105056404
  0
SEQEND
100
AcDbEntity
  8
画層9
  0
TEXT
  8
画層9
 62
7
  6
CONTINUOUS
 62
7
 10
219.75
 20
296.499382097785
 40
10
  1
135
  7
Font_0
 50
90
 72
1
 11
209.75
 21
304.999382097785
 73
3
  0
LINE
  8
画層9
  6
CONTINUOUS
 10
316.502906825184
 20
237.502161824606
 11
217
 21
237.502161824606
  0
CIRCLE
  8
画層5
  6
CONTINUOUS
 10
265.005722274852
 20
230
 40
1.49747861080067
  0
CIRCLE
  8
画層5
  6
CONTINUOUS
 10
295.00475602414
 20
230
 40
1.49747861080067
  0
CIRCLE
  8
画層5
  6
CONTINUOUS
 10
265.005722274852
 20
380
 40
1.49747861080067
  0
CIRCLE
  8
画層5
  6
CONTINUOUS
 10
295.00475602414
 20
380
 40
1.49747861080067
  0
CIRCLE
  8
画層5
  6
CONTINUOUS
 10
555.004580514641
 20
380
 40
1.49747861080067
  0
CIRCLE
  8
画層5
  6
CONTINUOUS
 10
585.002806035034
 20
380
 40
1.49747861080067
  0
CIRCLE
  8
画層5
  6
CONTINUOUS
 10
555.004580514641
 20
230
 40
1.49747861080067
  0
CIRCLE
  8
画層5
  6
CONTINUOUS
 10
585.002806035034
 20
230
 40
1.49747861080067
  0
LINE
  8
画層9
  6
CONTINUOUS
 10
555.004580514641
 20
229
 11
555.004580514641
 21
77
  0
LINE
  8
画層9
  6
CONTINUOUS
 10
555.004580514641
 20
80
 11
295.00475602414
 21
80
  0
POLYLINE
  8
画層9
  6
CONTINUOUS
 10
0.0
 20
0.0
 30
0.0
 66
1
 70
     1
  0
VERTEX
  8
画層9
 10
555.004580514641
  20
80
  0
VERTEX
  8
画層9
 10
553.555691775208
  20
79.6117714323462
  0
VERTEX
  8
画層9
 10
553.555691775208
  20
80.3882285676538
  0
SEQEND
100
AcDbEntity
  8
画層9
  0
POLYLINE
  8
画層9
  6
CONTINUOUS
 10
0.0
 20
0.0
 30
0.0
 66
1
 70
     1
  0
VERTEX
  8
画層9
 10
295.00475602414
  20
80
  0
VERTEX
  8
画層9
 10
296.453644763574
  20
80.3882285676538
  0
VERTEX
  8
画層9
 10
296.453644763574
  20
79.6117714323462
  0
SEQEND
100
AcDbEntity
  8
画層9
  0
TEXT
  8
画層9
 62
7
  6
CONTINUOUS
 62
7
 10
416.504668269391
 20
80.25
 40
10
  1
260
  7
Font_0
 72
1
 11
425.004668269391
 21
90.25
 73
3
  0
LINE
  8
画層9
  6
CONTINUOUS
 10
295.00475602414
 20
229
 11
295.00475602414
 21
77
  0
LINE
  8
画層9
  6
CONTINUOUS
 10
265.005722274852
 20
229
 11
265.005722274852
 21
57
  0
LINE
  8
画層9
  6
CONTINUOUS
 10
265.005722274852
 20
60
 11
585.002806035034
 21
60
  0
POLYLINE
  8
画層9
  6
CONTINUOUS
 10
0.0
 20
0.0
 30
0.0
 66
1
 70
     1
  0
VERTEX
  8
画層9
 10
265.005722274852
  20
60
  0
VERTEX
  8
画層9
 10
266.454611014286
  20
60.3882285676538
  0
VERTEX
  8
画層9
 10
266.454611014286
  20
59.6117714323462
  0
SEQEND
100
AcDbEntity
  8
画層9
  0
POLYLINE
  8
画層9
  6
CONTINUOUS
 10
0.0
 20
0.0
 30
0.0
 66
1
 70
     1
  0
VERTEX
  8
画層9
 10
585.002806035034
  20
60
  0
VERTEX
  8
画層9
 10
583.553917295601
  20
59.6117714323462
  0
VERTEX
  8
画層9
 10
583.553917295601
  20
60.3882285676538
  0
SEQEND
100
AcDbEntity
  8
画層9
  0
TEXT
  8
画層9
 62
7
  6
CONTINUOUS
 62
7
 10
416.504264154943
 20
60.25
 40
10
  1
320
  7
Font_0
 72
1
 11
425.004264154943
 21
70.25
 73
3
  0
LINE
  8
画層9
  6
CONTINUOUS
 10
585.002806035034
 20
229
 11
585.002806035034
 21
57
  0
LINE
  8
画層9
  6
CONTINUOUS
 10
264.005722274852
 20
230
 11
197
 21
230
  0
LINE
  8
画層9
  6
CONTINUOUS
 10
200
 20
230
 11
200
 21
380
  0
POLYLINE
  8
画層9
  6
CONTINUOUS
 10
0.0
 20
0.0
 30
0.0
 66
1
 70
     1
  0
VERTEX
  8
画層9
 10
200
  20
230
  0
VERTEX
  8
画層9
 10
199.611771432346
  20
231.448888739434
  0
VERTEX
  8
画層9
 10
200.388228567654
  20
231.448888739434
  0
SEQEND
100
AcDbEntity
  8
画層9
  0
POLYLINE
  8
画層9
  6
CONTINUOUS
 10
0.0
 20
0.0
 30
0.0
 66
1
 70
     1
  0
VERTEX
  8
画層9
 10
200
  20
380
  0
VERTEX
  8
画層9
 10
200.388228567654
  20
378.551111260566
  0
VERTEX
  8
画層9
 10
199.611771432346
  20
378.551111260566
  0
SEQEND
100
AcDbEntity
  8
画層9
  0
TEXT
  8
画層9
 62
7
  6
CONTINUOUS
 62
7
 10
199.75
 20
296.5
 40
10
  1
150
  7
Font_0
 50
90
 72
1
 11
189.75
 21
305
 73
3
  0
LINE
  8
画層9
  6
CONTINUOUS
 10
264.005722274852
 20
380
 11
197
 21
380
  0
LINE
  8
画層9
  6
CONTINUOUS
 10
442.51679451265
 20
236.502161824606
 11
442.51679451265
 21
117
  0
LINE
  8
画層9
  6
CONTINUOUS
 10
442.51679451265
 20
120
 11
407.507311058499
 21
120
  0
POLYLINE
  8
画層9
  6
CONTINUOUS
 10
0.0
 20
0.0
 30
0.0
 66
1
 70
     1
  0
VERTEX
  8
画層9
 10
442.51679451265
  20
120
  0
VERTEX
  8
画層9
 10
441.067905773217
  20
119.611771432346
  0
VERTEX
  8
画層9
 10
441.067905773217
  20
120.388228567654
  0
SEQEND
100
AcDbEntity
  8
画層9
  0
POLYLINE
  8
画層9
  6
CONTINUOUS
 10
0.0
 20
0.0
 30
0.0
 66
1
 70
     1
  0
VERTEX
  8
画層9
 10
407.507311058499
  20
120
  0
VERTEX
  8
画層9
 10
408.956199797933
  20
120.388228567654
  0
VERTEX
  8
画層9
 10
408.956199797933
  20
119.611771432346
  0
SEQEND
100
AcDbEntity
  8
画層9
  0
TEXT
  8
画層9
 62
7
  6
CONTINUOUS
 62
7
 10
419.512052785575
 20
120.25
 40
10
  1
35
  7
Font_0
 72
1
 11
425.012052785575
 21
130.25
 73
3
  0
LINE
  8
画層9
  6
CONTINUOUS
 10
407.507311058499
 20
236.502161824606
 11
407.507311058499
 21
117
  0
CIRCLE
  8
画層11
  6
CONTINUOUS
 10
424.998986856263
 20
174.993355301202
 40
19.0021196913892
  0
CIRCLE
  8
画層5
  6
CONTINUOUS
 10
447.750726608232
 20
174.993355301202
 40
1.50114585100812
  0
CIRCLE
  8
画層5
  6
CONTINUOUS
 10
402.249273391768
 20
174.993355301202
 40
1.50114585100812
  0
CIRCLE
  8
画層5
  6
CONTINUOUS
 10
424.998986856263
 20
197.743992623978
 40
1.50114585100812
  0
CIRCLE
  8
画層5
  6
CONTINUOUS
 10
424.998986856263
 20
152.247691821679
 40
1.50114585100812
  0
CIRCLE
  8
画層11
  6
CONTINUOUS
 10
424.998986856263
 20
435.000427682119
 40
19.0021196913892
  0
CIRCLE
  8
画層5
  6
CONTINUOUS
 10
447.750726608232
 20
435.000427682119
 40
1.50114585100812
  0
CIRCLE
  8
画層5
  6
CONTINUOUS
 10
402.249273391768
 20
435.000427682119
 40
1.50114585100812
  0
CIRCLE
  8
画層5
  6
CONTINUOUS
 10
424.998986856263
 20
457.751065004895
 40
1.50114585100812
  0
CIRCLE
  8
画層5
  6
CONTINUOUS
 10
424.998986856263
 20
412.254764202596
 40
1.50114585100812
  0
LINE
  8
画層9
  6
CONTINUOUS
 10
585.002806035034
 20
381.497478610801
 11
600
 21
410
  0
POLYLINE
  8
画層9
  6
CONTINUOUS
 10
0.0
 20
0.0
 30
0.0
 66
1
 70
     1
  0
VERTEX
  8
画層9
 10
585.002806035034
  20
381.497478610801
  0
VERTEX
  8
画層9
 10
585.665002220192
  20
384.423482064722
  0
VERTEX
  8
画層9
 10
587.039286480631
  20
383.700373840879
  0
SEQEND
100
AcDbEntity
  8
画層9
  0
LINE
  8
画層9
  6
CONTINUOUS
 10
532.504631667311
 20
373.994080981765
 11
570
 21
440
  0
POLYLINE
  8
画層9
  6
CONTINUOUS
 10
0.0
 20
0.0
 30
0.0
 66
1
 70
     1
  0
VERTEX
  8
画層9
 10
532.504631667311
  20
373.994080981765
  0
VERTEX
  8
画層9
 10
533.260799426024
  20
376.897218994447
  0
VERTEX
  8
画層9
 10
534.611061162221
  20
376.130188372084
  0
SEQEND
100
AcDbEntity
  8
画層9
  0
LINE
  8
画層9
  6
CONTINUOUS
 10
522.497663147269
 20
414.00110090011
 11
560
 21
480
  0
POLYLINE
  8
画層9
  6
CONTINUOUS
 10
0.0
 20
0.0
 30
0.0
 66
1
 70
     1
  0
VERTEX
  8
画層9
 10
522.497663147269
  20
414.00110090011
  0
VERTEX
  8
画層9
 10
523.25419523705
  20
416.904143992648
  0
VERTEX
  8
画層9
 10
524.604360702066
  20
416.136943921638
  0
SEQEND
100
AcDbEntity
  8
画層9
  0
LINE
  8
画層9
  6
CONTINUOUS
 10
600
 20
410
 11
620
 21
410
  0
LINE
  8
画層9
  6
CONTINUOUS
 10
570
 20
440
 11
590
 21
440
  0
LINE
  8
画層9
  6
CONTINUOUS
 10
560
 20
480
 11
580
 21
480
  0
TEXT
  8
画層9
 62
7
  6
CONTINUOUS
 62
7
 10
610
 20
410
 40
10
  1
M3
  7
Font_0
 11
610
 21
420
 73
3
  0
TEXT
  8
画層9
 62
7
  6
CONTINUOUS
 62
7
 10
580
 20
440
 40
10
  1
M3
  7
Font_0
 11
580
 21
450
 73
3
  0
TEXT
  8
画層9
 62
7
  6
CONTINUOUS
 62
7
 10
570
 20
480
 40
10
  1
M3
  7
Font_0
 11
570
 21
490
 73
3
  0
ARC
  8
画層5
  6
CONTINUOUS
 10
532.504631667311
 20
264.998091317667
 40
2.00207788368556
 50
-90
 51
90
  0
ARC
  8
画層5
  6
CONTINUOUS
 10
532.504631667311
 20
279.996766299833
 40
2.00227041135184
 50
-90
 51
90
  0
ARC
  8
画層5
  6
CONTINUOUS
 10
507.504195983287
 20
264.998091317667
 40
2.00207788368556
 50
90
 51
-90
  0
ARC
  8
画層5
  6
CONTINUOUS
 10
507.504195983287
 20
279.996573772167
 40
2.00207788368556
 50
90
 51
-90
  0
LINE
  8
画層5
  6
CONTINUOUS
 10
532.504631667311
 20
262.996013433982
 11
507.504195983287
 21
262.996013433982
  0
LINE
  8
画層5
  6
CONTINUOUS
 10
532.504631667311
 20
267.000169201353
 11
507.504195983287
 21
267.000169201353
  0
LINE
  8
画層5
  6
CONTINUOUS
 10
532.504631667311
 20
277.994495888481
 11
507.504195983287
 21
277.994495888481
  0
LINE
  8
画層5
  6
CONTINUOUS
 10
532.504631667311
 20
281.999036711185
 11
507.504195983287
 21
281.998651655853
  0
ARC
  8
画層5
  6
CONTINUOUS
 10
532.432571942517
 20
344.983774538622
 40
2.00207788368556
 50
-90
 51
90
  0
ARC
  8
画層5
  6
CONTINUOUS
 10
532.432571942517
 20
329.985099556456
 40
2.00227041135184
 50
-90
 51
90
  0
ARC
  8
画層5
  6
CONTINUOUS
 10
507.432136258493
 20
344.983774538622
 40
2.00207788368556
 50
90
 51
-90
  0
ARC
  8
画層5
  6
CONTINUOUS
 10
507.432136258493
 20
329.985292084122
 40
2.00207788368556
 50
90
 51
-90
  0
LINE
  8
画層5
  6
CONTINUOUS
 10
532.432571942517
 20
346.985852422308
 11
507.432136258493
 21
346.985852422308
  0
LINE
  8
画層5
  6
CONTINUOUS
 10
532.432571942517
 20
342.981696654937
 11
507.432136258493
 21
342.981696654937
  0
LINE
  8
画層5
  6
CONTINUOUS
 10
532.432571942517
 20
331.987369967808
 11
507.432136258493
 21
331.987369967808
  0
LINE
  8
画層5
  6
CONTINUOUS
 10
532.432571942517
 20
327.982829145104
 11
507.432136258493
 21
327.983214200437
  0
ARC
  8
画層5
  6
CONTINUOUS
 10
317.502906825184
 20
264.998091317667
 40
2.00207788368556
 50
90
 51
-90
  0
ARC
  8
画層5
  6
CONTINUOUS
 10
317.502906825184
 20
279.996766299833
 40
2.00227041135184
 50
90
 51
-90
  0
ARC
  8
画層5
  6
CONTINUOUS
 10
342.503342509209
 20
264.998091317667
 40
2.00207788368556
 50
-90
 51
90
  0
ARC
  8
画層5
  6
CONTINUOUS
 10
342.503342509209
 20
279.996573772167
 40
2.00207788368556
 50
-90
 51
90
  0
LINE
  8
画層5
  6
CONTINUOUS
 10
317.502906825184
 20
262.996013433982
 11
342.503342509209
 21
262.996013433982
  0
LINE
  8
画層5
  6
CONTINUOUS
 10
317.502906825184
 20
267.000169201353
 11
342.503342509209
 21
267.000169201353
  0
LINE
  8
画層5
  6
CONTINUOUS
 10
317.502906825184
 20
277.994495888482
 11
342.503342509209
 21
277.994495888482
  0
LINE
  8
画層5
  6
CONTINUOUS
 10
317.502906825184
 20
281.999036711185
 11
342.503342509209
 21
281.998651655853
  0
ARC
  8
画層5
  6
CONTINUOUS
 10
317.502906825184
 20
344.998079936537
 40
2.00207788368556
 50
90
 51
-90
  0
ARC
  8
画層5
  6
CONTINUOUS
 10
317.502906825184
 20
329.99940495437
 40
2.00227041135184
 50
90
 51
-90
  0
ARC
  8
画層5
  6
CONTINUOUS
 10
342.503342509209
 20
344.998079936537
 40
2.00207788368556
 50
-90
 51
90
  0
ARC
  8
画層5
  6
CONTINUOUS
 10
342.503342509209
 20
329.999597482037
 40
2.00207788368556
 50
-90
 51
90
  0
LINE
  8
画層5
  6
CONTINUOUS
 10
317.502906825184
 20
347.000157820222
 11
342.503342509209
 21
347.000157820222
  0
LINE
  8
画層5
  6
CONTINUOUS
 10
317.502906825184
 20
342.996002052851
 11
342.503342509209
 21
342.996002052851
  0
LINE
  8
画層5
  6
CONTINUOUS
 10
317.502906825184
 20
332.001675365722
 11
342.503342509209
 21
332.001675365722
  0
LINE
  8
画層5
  6
CONTINUOUS
 10
317.502906825184
 20
327.997134543019
 11
342.503342509209
 21
327.997519598351
  0
CIRCLE
  8
画層5
  6
CONTINUOUS
 10
347.504564856581
 20
372.496602370964
 40
1.50114585100812
  0
CIRCLE
  8
画層5
  6
CONTINUOUS
 10
362.499970264713
 20
372.496602370964
 40
1.50114585100812
  0
CIRCLE
  8
画層5
  6
CONTINUOUS
 10
362.499970264713
 20
362.490476783408
 40
1.50114585100812
  0
CIRCLE
  8
画層5
  6
CONTINUOUS
 10
392.504453997318
 20
362.490476783408
 40
1.50114585100812
  0
CIRCLE
  8
画層5
  6
CONTINUOUS
 10
407.507311058499
 20
362.490476783408
 40
1.50114585100812
  0
CIRCLE
  8
画層5
  6
CONTINUOUS
 10
347.504564856581
 20
362.490476783408
 40
1.50114585100812
  0
CIRCLE
  8
画層5
  6
CONTINUOUS
 10
332.500616481085
 20
362.490476783408
 40
1.50114585100812
  0
CIRCLE
  8
画層5
  6
CONTINUOUS
 10
317.502906825184
 20
362.490476783408
 40
1.50114585100812
  0
CIRCLE
  8
画層5
  6
CONTINUOUS
 10
347.504564856581
 20
312.495974783109
 40
1.50114585100812
  0
CIRCLE
  8
画層5
  6
CONTINUOUS
 10
362.499970264713
 20
312.495974783109
 40
1.50114585100812
  0
CIRCLE
  8
画層5
  6
CONTINUOUS
 10
362.499970264713
 20
297.496575403198
 40
1.50114585100812
  0
CIRCLE
  8
画層5
  6
CONTINUOUS
 10
347.504564856581
 20
297.500196471095
 40
1.50114585100812
  0
CIRCLE
  8
画層5
  6
CONTINUOUS
 10
407.507311058499
 20
252.504939425672
 40
1.50114585100812
  0
CIRCLE
  8
画層5
  6
CONTINUOUS
 10
392.504453997318
 20
252.504939425672
 40
1.50114585100812
  0
CIRCLE
  8
画層5
  6
CONTINUOUS
 10
362.499970264713
 20
252.502207894557
 40
1.50114585100812
  0
CIRCLE
  8
画層5
  6
CONTINUOUS
 10
362.499970264713
 20
237.504140694436
 40
1.50114585100812
  0
CIRCLE
  8
画層5
  6
CONTINUOUS
 10
347.504564856581
 20
237.502161824606
 40
1.50114585100812
  0
CIRCLE
  8
画層5
  6
CONTINUOUS
 10
347.504564856581
 20
252.503167650971
 40
1.50114585100812
  0
CIRCLE
  8
画層5
  6
CONTINUOUS
 10
332.500616481085
 20
252.504939425672
 40
1.50114585100812
  0
CIRCLE
  8
画層5
  6
CONTINUOUS
 10
317.502906825184
 20
252.504939425672
 40
1.50114585100812
  0
CIRCLE
  8
画層5
  6
CONTINUOUS
 10
532.504631667311
 20
252.497438869351
 40
1.50114585100812
  0
CIRCLE
  8
画層5
  6
CONTINUOUS
 10
517.506871614843
 20
252.504939425672
 40
1.50114585100812
  0
CIRCLE
  8
画層5
  6
CONTINUOUS
 10
502.505248864922
 20
252.504939425672
 40
1.50114585100812
  0
CIRCLE
  8
画層5
  6
CONTINUOUS
 10
487.508650283423
 20
252.504939425672
 40
1.50114585100812
  0
CIRCLE
  8
画層5
  6
CONTINUOUS
 10
487.508650283423
 20
237.502161824606
 40
1.50114585100812
  0
CIRCLE
  8
画層5
  6
CONTINUOUS
 10
502.505248864922
 20
237.502161824606
 40
1.50114585100812
  0
CIRCLE
  8
画層5
  6
CONTINUOUS
 10
457.513261345705
 20
252.504939425672
 40
1.50114585100812
  0
CIRCLE
  8
画層5
  6
CONTINUOUS
 10
442.51679451265
 20
252.504939425672
 40
1.50114585100812
  0
CIRCLE
  8
画層5
  6
CONTINUOUS
 10
502.505248864922
 20
312.495974783109
 40
1.50114585100812
  0
CIRCLE
  8
画層5
  6
CONTINUOUS
 10
487.508650283423
 20
312.495974783109
 40
1.50114585100812
  0
CIRCLE
  8
画層5
  6
CONTINUOUS
 10
487.508650283423
 20
297.500196471095
 40
1.50114585100812
  0
CIRCLE
  8
画層5
  6
CONTINUOUS
 10
502.505248864922
 20
297.500196471095
 40
1.50114585100812
  0
CIRCLE
  8
画層5
  6
CONTINUOUS
 10
532.504631667311
 20
357.493648419899
 40
1.50114585100812
  0
CIRCLE
  8
画層5
  6
CONTINUOUS
 10
517.506871614843
 20
357.493648419899
 40
1.50114585100812
  0
CIRCLE
  8
画層5
  6
CONTINUOUS
 10
487.508650283423
 20
372.496602370964
 40
1.50114585100812
  0
CIRCLE
  8
画層5
  6
CONTINUOUS
 10
502.505248864922
 20
372.496602370964
 40
1.50114585100812
  0
CIRCLE
  8
画層5
  6
CONTINUOUS
 10
502.505248864922
 20
357.493648419899
 40
1.50114585100812
  0
CIRCLE
  8
画層5
  6
CONTINUOUS
 10
487.508650283423
 20
357.493648419899
 40
1.50114585100812
  0
CIRCLE
  8
画層5
  6
CONTINUOUS
 10
457.513261345705
 20
357.493648419899
 40
1.50114585100812
  0
CIRCLE
  8
画層5
  6
CONTINUOUS
 10
442.51679451265
 20
357.493648419899
 40
1.50114585100812
  0
LINE
  8
画層9
  6
CONTINUOUS
 10
347.504564856581
 20
236.502161824606
 11
347.50456485658
 21
117
  0
LINE
  8
画層9
  6
CONTINUOUS
 10
347.50456485658
 20
120
 11
332.500616481085
 21
120
  0
POLYLINE
  8
画層9
  6
CONTINUOUS
 10
0.0
 20
0.0
 30
0.0
 66
1
 70
     1
  0
VERTEX
  8
画層9
 10
347.50456485658
  20
120
  0
VERTEX
  8
画層9
 10
346.055676117147
  20
119.611771432346
  0
VERTEX
  8
画層9
 10
346.055676117147
  20
120.388228567654
  0
SEQEND
100
AcDbEntity
  8
画層9
  0
POLYLINE
  8
画層9
  6
CONTINUOUS
 10
0.0
 20
0.0
 30
0.0
 66
1
 70
     1
  0
VERTEX
  8
画層9
 10
332.500616481085
  20
120
  0
VERTEX
  8
画層9
 10
333.949505220519
  20
120.388228567654
  0
VERTEX
  8
画層9
 10
333.949505220519
  20
119.611771432346
  0
SEQEND
100
AcDbEntity
  8
画層9
  0
TEXT
  8
画層9
 62
7
  6
CONTINUOUS
 62
7
 10
334.502590668833
 20
120.25
 40
10
  1
15
  7
Font_0
 72
1
 11
340.002590668833
 21
130.25
 73
3
  0
LINE
  8
画層9
  6
CONTINUOUS
 10
332.500616481085
 20
236.502161824606
 11
332.500616481085
 21
117
  0
LINE
  8
画層9
  6
CONTINUOUS
 10
347.504696821656
 20
236.502161833314
 11
347.520466976835
 21
116.999672762112
  0
LINE
  8
画層9
  6
CONTINUOUS
 10
347.520071081607
 20
119.999672735989
 11
362.515476489739
 21
120.00165160582
  0
POLYLINE
  8
画層9
  6
CONTINUOUS
 10
0.0
 20
0.0
 30
0.0
 66
1
 70
     1
  0
VERTEX
  8
画層9
 10
347.520071081607
  20
119.999672735989
  0
VERTEX
  8
画層9
 10
348.968908575812
  20
120.388092502975
  0
VERTEX
  8
画層9
 10
348.969011041037
  20
119.611635374429
  0
SEQEND
100
AcDbEntity
  8
画層9
  0
POLYLINE
  8
画層9
  6
CONTINUOUS
 10
0.0
 20
0.0
 30
0.0
 66
1
 70
     1
  0
VERTEX
  8
画層9
 10
362.515476489739
  20
120.00165160582
  0
VERTEX
  8
画層9
 10
361.066638995534
  20
119.613231838834
  0
VERTEX
  8
画層9
 10
361.066536530309
  20
120.38968896738
  0
SEQEND
100
AcDbEntity
  8
画層9
  0
TEXT
  8
画層9
 62
7
  6
CONTINUOUS
 62
7
 10
349.517740842295
 20
120.24993636081
 40
10
  1
15
  7
Font_0
 50
0.00756104191431149
 72
1
 11
355.016421143645
 21
130.250662081654
 73
3
  0
LINE
  8
画層9
  6
CONTINUOUS
 10
362.500102229789
 20
236.504140703144
 11
362.515872384967
 21
117.001651631942
  0
LINE
  8
画層9
  6
CONTINUOUS
 10
362.499904312242
 20
236.504140696611
 11
362.492022795075
 21
117.001154687827
  0
LINE
  8
画層9
  6
CONTINUOUS
 10
362.492220652487
 20
120.001154681302
 11
392.496704385092
 21
119.999175811472
  0
POLYLINE
  8
画層9
  6
CONTINUOUS
 10
0.0
 20
0.0
 30
0.0
 66
1
 70
     1
  0
VERTEX
  8
画層9
 10
362.492220652487
  20
120.001154681302
  0
VERTEX
  8
画層9
 10
363.941134993402
  20
120.38928769032
  0
VERTEX
  8
画層9
 10
363.941083784136
  20
119.612830556701
  0
SEQEND
100
AcDbEntity
  8
画層9
  0
POLYLINE
  8
画層9
  6
CONTINUOUS
 10
0.0
 20
0.0
 30
0.0
 66
1
 70
     1
  0
VERTEX
  8
画層9
 10
392.496704385092
  20
119.999175811472
  0
VERTEX
  8
画層9
 10
391.047790044177
  20
119.611042802454
  0
VERTEX
  8
画層9
 10
391.047841253443
  20
120.387499936073
  0
SEQEND
100
AcDbEntity
  8
画層9
  0
TEXT
  8
画層9
 62
7
  6
CONTINUOUS
 62
7
 10
371.994479018869
 20
120.250527984431
 40
10
  1
30
  7
Font_0
 50
359.996221201794
 72
1
 11
377.495138531611
 21
130.250165224095
 73
3
  0
LINE
  8
画層9
  6
CONTINUOUS
 10
392.504388044848
 20
236.502161826781
 11
392.496506527681
 21
116.999175817996
  0
LINE
  8
画層9
  6
CONTINUOUS
 10
316.502906825184
 20
312.495974783109
 11
296.999999999999
 21
312.495974783109
  0
LINE
  8
画層9
  6
CONTINUOUS
 10
299.999999999999
 20
312.495974783109
 11
299.999999999999
 21
297.500196471095
  0
POLYLINE
  8
画層9
  6
CONTINUOUS
 10
0.0
 20
0.0
 30
0.0
 66
1
 70
     1
  0
VERTEX
  8
画層9
 10
299.999999999999
  20
312.495974783109
  0
VERTEX
  8
画層9
 10
300.388228567653
  20
311.047086043676
  0
VERTEX
  8
画層9
 10
299.611771432346
  20
311.047086043676
  0
SEQEND
100
AcDbEntity
  8
画層9
  0
POLYLINE
  8
画層9
  6
CONTINUOUS
 10
0.0
 20
0.0
 30
0.0
 66
1
 70
     1
  0
VERTEX
  8
画層9
 10
299.999999999999
  20
297.500196471095
  0
VERTEX
  8
画層9
 10
299.611771432346
  20
298.949085210528
  0
VERTEX
  8
画層9
 10
300.388228567653
  20
298.949085210528
  0
SEQEND
100
AcDbEntity
  8
画層9
  0
TEXT
  8
画層9
 62
7
  6
CONTINUOUS
 62
7
 10
299.749999999999
 20
299.498085627102
 40
10
  1
15
  7
Font_0
 50
90
 72
1
 11
289.749999999999
 21
304.998085627102
 73
3
  0
LINE
  8
画層9
  6
CONTINUOUS
 10
316.502906825184
 20
297.500196471095
 11
296.999999999999
 21
297.500196471095
  0
LINE
  8
画層9
  6
CONTINUOUS
 10
316.502906825184
 20
329.99940495437
 11
277
 21
329.99940495437
  0
LINE
  8
画層9
  6
CONTINUOUS
 10
280
 20
329.99940495437
 11
280
 21
279.996766299833
  0
POLYLINE
  8
画層9
  6
CONTINUOUS
 10
0.0
 20
0.0
 30
0.0
 66
1
 70
     1
  0
VERTEX
  8
画層9
 10
280
  20
329.99940495437
  0
VERTEX
  8
画層9
 10
280.388228567654
  20
328.550516214937
  0
VERTEX
  8
画層9
 10
279.611771432346
  20
328.550516214937
  0
SEQEND
100
AcDbEntity
  8
画層9
  0
POLYLINE
  8
画層9
  6
CONTINUOUS
 10
0.0
 20
0.0
 30
0.0
 66
1
 70
     1
  0
VERTEX
  8
画層9
 10
280
  20
279.996766299833
  0
VERTEX
  8
画層9
 10
279.611771432346
  20
281.445655039267
  0
VERTEX
  8
画層9
 10
280.388228567654
  20
281.445655039267
  0
SEQEND
100
AcDbEntity
  8
画層9
  0
TEXT
  8
画層9
 62
7
  6
CONTINUOUS
 62
7
 10
279.75
 20
299.498085627102
 40
10
  1
50
  7
Font_0
 50
90
 72
1
 11
269.75
 21
304.998085627102
 73
3
  0
LINE
  8
画層9
  6
CONTINUOUS
 10
316.502906825184
 20
279.996766299833
 11
277
 21
279.996766299833
  0
LINE
  8
画層9
  6
CONTINUOUS
 10
316.502906825184
 20
264.998091317667
 11
257
 21
264.998091317667
  0
LINE
  8
画層9
  6
CONTINUOUS
 10
260
 20
264.998091317667
 11
260
 21
344.998079936537
  0
POLYLINE
  8
画層9
  6
CONTINUOUS
 10
0.0
 20
0.0
 30
0.0
 66
1
 70
     1
  0
VERTEX
  8
画層9
 10
260
  20
264.998091317667
  0
VERTEX
  8
画層9
 10
259.611771432346
  20
266.446980057101
  0
VERTEX
  8
画層9
 10
260.388228567654
  20
266.446980057101
  0
SEQEND
100
AcDbEntity
  8
画層9
  0
POLYLINE
  8
画層9
  6
CONTINUOUS
 10
0.0
 20
0.0
 30
0.0
 66
1
 70
     1
  0
VERTEX
  8
画層9
 10
260
  20
344.998079936537
  0
VERTEX
  8
画層9
 10
260.388228567654
  20
343.549191197103
  0
VERTEX
  8
画層9
 10
259.611771432346
  20
343.549191197103
  0
SEQEND
100
AcDbEntity
  8
画層9
  0
TEXT
  8
画層9
 62
7
  6
CONTINUOUS
 62
7
 10
259.75
 20
299.498085627102
 40
10
  1
80
  7
Font_0
 50
90
 72
1
 11
249.75
 21
304.998085627102
 73
3
  0
LINE
  8
画層9
  6
CONTINUOUS
 10
316.502906825184
 20
344.998079936537
 11
257
 21
344.998079936537
  0
LINE
  8
画層9
  6
CONTINUOUS
 10
316.502906825184
 20
362.490476783408
 11
237
 21
362.490476783408
  0
LINE
  8
画層9
  6
CONTINUOUS
 10
240
 20
362.490476783408
 11
240
 21
252.504939425672
  0
POLYLINE
  8
画層9
  6
CONTINUOUS
 10
0.0
 20
0.0
 30
0.0
 66
1
 70
     1
  0
VERTEX
  8
画層9
 10
240
  20
362.490476783408
  0
VERTEX
  8
画層9
 10
240.388228567654
  20
361.041588043974
  0
VERTEX
  8
画層9
 10
239.611771432346
  20
361.041588043974
  0
SEQEND
100
AcDbEntity
  8
画層9
  0
POLYLINE
  8
画層9
  6
CONTINUOUS
 10
0.0
 20
0.0
 30
0.0
 66
1
 70
     1
  0
VERTEX
  8
画層9
 10
240
  20
252.504939425672
  0
VERTEX
  8
画層9
 10
239.611771432346
  20
253.953828165106
  0
VERTEX
  8
画層9
 10
240.388228567654
  20
253.953828165106
  0
SEQEND
100
AcDbEntity
  8
画層9
  0
TEXT
  8
画層9
 62
7
  6
CONTINUOUS
 62
7
 10
239.75
 20
298.99770810454
 40
10
  1
110
  7
Font_0
 50
90
 72
1
 11
229.75
 21
307.49770810454
 73
3
  0
LINE
  8
画層9
  6
CONTINUOUS
 10
316.502906825184
 20
252.504939425672
 11
237
 21
252.504939425672
  0
LINE
  8
画層9
  6
CONTINUOUS
 10
317.502906825184
 20
345.998079936537
 11
317.502906825184
 21
493
  0
LINE
  8
画層9
  6
CONTINUOUS
 10
317.502906825184
 20
490
 11
342.503342509209
 21
490
  0
POLYLINE
  8
画層9
  6
CONTINUOUS
 10
0.0
 20
0.0
 30
0.0
 66
1
 70
     1
  0
VERTEX
  8
画層9
 10
317.502906825184
  20
490
  0
VERTEX
  8
画層9
 10
318.951795564618
  20
490.388228567654
  0
VERTEX
  8
画層9
 10
318.951795564618
  20
489.611771432346
  0
SEQEND
100
AcDbEntity
  8
画層9
  0
POLYLINE
  8
画層9
  6
CONTINUOUS
 10
0.0
 20
0.0
 30
0.0
 66
1
 70
     1
  0
VERTEX
  8
画層9
 10
342.503342509209
  20
490
  0
VERTEX
  8
画層9
 10
341.054453769775
  20
489.611771432346
  0
VERTEX
  8
画層9
 10
341.054453769775
  20
490.388228567654
  0
SEQEND
100
AcDbEntity
  8
画層9
  0
TEXT
  8
画層9
 62
7
  6
CONTINUOUS
 62
7
 10
324.503124667196
 20
490.25
 40
10
  1
25
  7
Font_0
 72
1
 11
330.003124667196
 21
500.25
 73
3
  0
LINE
  8
画層9
  6
CONTINUOUS
 10
342.503342509209
 20
345.998079936537
 11
342.503342509209
 21
493
  0
LINE
  8
画層9
  6
CONTINUOUS
 10
316.163574409505
 20
346.486201078331
 11
250
 21
420
  0
POLYLINE
  8
画層9
  6
CONTINUOUS
 10
0.0
 20
0.0
 30
0.0
 66
1
 70
     1
  0
VERTEX
  8
画層9
 10
316.163574409505
  20
346.486201078331
  0
VERTEX
  8
画層9
 10
313.647913240347
  20
348.120657832727
  0
VERTEX
  8
画層9
 10
314.802176306898
  20
349.159512733604
  0
SEQEND
100
AcDbEntity
  8
画層9
  0
LINE
  8
画層9
  6
CONTINUOUS
 10
250
 20
420
 11
220
 21
420
  0
TEXT
  8
画層9
 62
7
  6
CONTINUOUS
 62
7
 10
220
 20
421
 40
9
 41
1.11111111111111
  1
4キリ
  7
Font_0
 11
220
 21
430
 73
3
  0
CIRCLE
  8
画層5
  6
CONTINUOUS
 10
357.503783902371
 20
197.490046399679
 40
1.50114585100812
  0
CIRCLE
  8
画層5
  6
CONTINUOUS
 10
372.50283032319
 20
197.490046399679
 40
1.50114585100812
  0
CIRCLE
  8
画層5
  6
CONTINUOUS
 10
357.503783902371
 20
167.494311889596
 40
1.50114585100812
  0
CIRCLE
  8
画層5
  6
CONTINUOUS
 10
372.50283032319
 20
167.494311889596
 40
1.50114585100812
  0
CIRCLE
  8
画層5
  6
CONTINUOUS
 10
402.502732244067
 20
152.495738250105
 40
1.50114585100812
  0
CIRCLE
  8
画層5
  6
CONTINUOUS
 10
402.502732244067
 20
212.487982280684
 40
1.50114585100812
  0
CIRCLE
  8
画層5
  6
CONTINUOUS
 10
447.496121965571
 20
212.487982280684
 40
1.50114585100812
  0
CIRCLE
  8
画層5
  6
CONTINUOUS
 10
447.496121965571
 20
152.495738250105
 40
1.50114585100812
  0
CIRCLE
  8
画層5
  6
CONTINUOUS
 10
477.498291058679
 20
167.494311889596
 40
1.50114585100812
  0
CIRCLE
  8
画層5
  6
CONTINUOUS
 10
492.499753900742
 20
167.494311889596
 40
1.50114585100812
  0
CIRCLE
  8
画層5
  6
CONTINUOUS
 10
492.499753900742
 20
197.490046399679
 40
1.50114585100812
  0
CIRCLE
  8
画層5
  6
CONTINUOUS
 10
477.498291058679
 20
197.490046399679
 40
1.50114585100812
  0
CIRCLE
  8
画層5
  6
CONTINUOUS
 10
447.496121965571
 20
457.4965629891
 40
1.50114585100812
  0
CIRCLE
  8
画層5
  6
CONTINUOUS
 10
477.498291058679
 20
442.495503974282
 40
1.50114585100812
  0
CIRCLE
  8
画層5
  6
CONTINUOUS
 10
492.499753900742
 20
442.495503974282
 40
1.50114585100812
  0
CIRCLE
  8
画層5
  6
CONTINUOUS
 10
492.499753900742
 20
412.499955049102
 40
1.50114585100812
  0
CIRCLE
  8
画層5
  6
CONTINUOUS
 10
477.498291058679
 20
412.499955049102
 40
1.50114585100812
  0
CIRCLE
  8
画層5
  6
CONTINUOUS
 10
402.502732244067
 20
457.4965629891
 40
1.50114585100812
  0
CIRCLE
  8
画層5
  6
CONTINUOUS
 10
372.50283032319
 20
442.495503974282
 40
1.50114585100812
  0
CIRCLE
  8
画層5
  6
CONTINUOUS
 10
357.503783902371
 20
442.495503974282
 40
1.50114585100812
  0
CIRCLE
  8
画層5
  6
CONTINUOUS
 10
357.503783902371
 20
412.499955049102
 40
1.50114585100812
  0
CIRCLE
  8
画層5
  6
CONTINUOUS
 10
372.50283032319
 20
412.499955049102
 40
1.50114585100812
  0
CIRCLE
  8
画層5
  6
CONTINUOUS
 10
402.502732244067
 20
397.502087767994
 40
1.50114585100812
  0
CIRCLE
  8
画層5
  6
CONTINUOUS
 10
447.496121965571
 20
397.502087767994
 40
1.50114585100812
  0
LINE
  8
画層9
  6
CONTINUOUS
 10
462.496828216617
 20
458.4965629891
 11
462.496828216617
 21
493
  0
LINE
  8
画層9
  6
CONTINUOUS
 10
462.496828216617
 20
490
 11
447.496121965571
 21
490
  0
POLYLINE
  8
画層9
  6
CONTINUOUS
 10
0.0
 20
0.0
 30
0.0
 66
1
 70
     1
  0
VERTEX
  8
画層9
 10
462.496828216617
  20
490
  0
VERTEX
  8
画層9
 10
461.047939477184
  20
489.611771432346
  0
VERTEX
  8
画層9
 10
461.047939477184
  20
490.388228567653
  0
SEQEND
100
AcDbEntity
  8
画層9
  0
POLYLINE
  8
画層9
  6
CONTINUOUS
 10
0.0
 20
0.0
 30
0.0
 66
1
 70
     1
  0
VERTEX
  8
画層9
 10
447.496121965571
  20
490
  0
VERTEX
  8
画層9
 10
448.945010705005
  20
490.388228567653
  0
VERTEX
  8
画層9
 10
448.945010705005
  20
489.611771432346
  0
SEQEND
100
AcDbEntity
  8
画層9
  0
TEXT
  8
画層9
 62
7
  6
CONTINUOUS
 62
7
 10
449.496475091094
 20
490.25
 40
10
  1
15
  7
Font_0
 72
1
 11
454.996475091094
 21
500.25
 73
3
  0
LINE
  8
画層9
  6
CONTINUOUS
 10
447.496121965571
 20
458.4965629891
 11
447.496121965571
 21
493
  0
LINE
  8
画層9
  6
CONTINUOUS
 10
432.495415714525
 20
398.502087767994
 11
432.495415714525
 21
493
  0
LINE
  8
画層9
  6
CONTINUOUS
 10
432.495415714525
 20
490
 11
447.496121965571
 21
490
  0
POLYLINE
  8
画層9
  6
CONTINUOUS
 10
0.0
 20
0.0
 30
0.0
 66
1
 70
     1
  0
VERTEX
  8
画層9
 10
432.495415714525
  20
490
  0
VERTEX
  8
画層9
 10
433.944304453959
  20
490.388228567654
  0
VERTEX
  8
画層9
 10
433.944304453959
  20
489.611771432346
  0
SEQEND
100
AcDbEntity
  8
画層9
  0
POLYLINE
  8
画層9
  6
CONTINUOUS
 10
0.0
 20
0.0
 30
0.0
 66
1
 70
     1
  0
VERTEX
  8
画層9
 10
447.496121965571
  20
490
  0
VERTEX
  8
画層9
 10
446.047233226138
  20
489.611771432346
  0
VERTEX
  8
画層9
 10
446.047233226138
  20
490.388228567654
  0
SEQEND
100
AcDbEntity
  8
画層9
  0
TEXT
  8
画層9
 62
7
  6
CONTINUOUS
 62
7
 10
434.495768840048
 20
490.25
 40
10
  1
15
  7
Font_0
 72
1
 11
439.995768840048
 21
500.25
 73
3
  0
LINE
  8
画層9
  6
CONTINUOUS
 10
447.496121965571
 20
398.502087767994
 11
447.496121965571
 21
493
  0
LINE
  8
画層9
  6
CONTINUOUS
 10
417.503587744126
 20
398.502087767994
 11
417.503587744126
 21
493
  0
LINE
  8
画層9
  6
CONTINUOUS
 10
417.503587744126
 20
490
 11
432.495415714525
 21
490
  0
POLYLINE
  8
画層9
  6
CONTINUOUS
 10
0.0
 20
0.0
 30
0.0
 66
1
 70
     1
  0
VERTEX
  8
画層9
 10
417.503587744126
  20
490
  0
VERTEX
  8
画層9
 10
418.952476483559
  20
490.388228567654
  0
VERTEX
  8
画層9
 10
418.952476483559
  20
489.611771432347
  0
SEQEND
100
AcDbEntity
  8
画層9
  0
POLYLINE
  8
画層9
  6
CONTINUOUS
 10
0.0
 20
0.0
 30
0.0
 66
1
 70
     1
  0
VERTEX
  8
画層9
 10
432.495415714525
  20
490
  0
VERTEX
  8
画層9
 10
431.046526975091
  20
489.611771432347
  0
VERTEX
  8
画層9
 10
431.046526975091
  20
490.388228567654
  0
SEQEND
100
AcDbEntity
  8
画層9
  0
TEXT
  8
画層9
 62
7
  6
CONTINUOUS
 62
7
 10
419.499501729325
 20
490.25
 40
10
  1
15
  7
Font_0
 72
1
 11
424.999501729325
 21
500.25
 73
3
  0
LINE
  8
画層9
  6
CONTINUOUS
 10
432.495415714525
 20
398.502087767994
 11
432.495415714525
 21
493
  0
LINE
  8
画層9
  6
CONTINUOUS
 10
462.496828216617
 20
458.4965629891
 11
462.496828216617
 21
493
  0
LINE
  8
画層9
  6
CONTINUOUS
 10
462.496828216617
 20
490
 11
477.498291058679
 21
490
  0
POLYLINE
  8
画層9
  6
CONTINUOUS
 10
0.0
 20
0.0
 30
0.0
 66
1
 70
     1
  0
VERTEX
  8
画層9
 10
462.496828216617
  20
490
  0
VERTEX
  8
画層9
 10
463.945716956051
  20
490.388228567654
  0
VERTEX
  8
画層9
 10
463.945716956051
  20
489.611771432347
  0
SEQEND
100
AcDbEntity
  8
画層9
  0
POLYLINE
  8
画層9
  6
CONTINUOUS
 10
0.0
 20
0.0
 30
0.0
 66
1
 70
     1
  0
VERTEX
  8
画層9
 10
477.498291058679
  20
490
  0
VERTEX
  8
画層9
 10
476.049402319246
  20
489.611771432347
  0
VERTEX
  8
画層9
 10
476.049402319246
  20
490.388228567654
  0
SEQEND
100
AcDbEntity
  8
画層9
  0
TEXT
  8
画層9
 62
7
  6
CONTINUOUS
 62
7
 10
464.497559637648
 20
490.25
 40
10
  1
15
  7
Font_0
 72
1
 11
469.997559637648
 21
500.25
 73
3
  0
LINE
  8
画層9
  6
CONTINUOUS
 10
477.498291058679
 20
458.4965629891
 11
477.498291058679
 21
493
  0
LINE
  8
画層9
  6
CONTINUOUS
 10
522.497663147269
 20
413.499955049102
 11
522.497663147269
 21
493
  0
LINE
  8
画層9
  6
CONTINUOUS
 10
522.497663147269
 20
490
 11
537.499349297231
 21
490
  0
POLYLINE
  8
画層9
  6
CONTINUOUS
 10
0.0
 20
0.0
 30
0.0
 66
1
 70
     1
  0
VERTEX
  8
画層9
 10
522.497663147269
  20
490
  0
VERTEX
  8
画層9
 10
523.946551886703
  20
490.388228567654
  0
VERTEX
  8
画層9
 10
523.946551886703
  20
489.611771432347
  0
SEQEND
100
AcDbEntity
  8
画層9
  0
POLYLINE
  8
画層9
  6
CONTINUOUS
 10
0.0
 20
0.0
 30
0.0
 66
1
 70
     1
  0
VERTEX
  8
画層9
 10
537.499349297231
  20
490
  0
VERTEX
  8
画層9
 10
536.050460557797
  20
489.611771432347
  0
VERTEX
  8
画層9
 10
536.050460557797
  20
490.388228567654
  0
SEQEND
100
AcDbEntity
  8
画層9
  0
TEXT
  8
画層9
 62
7
  6
CONTINUOUS
 62
7
 10
524.49850622225
 20
490.25
 40
10
  1
15
  7
Font_0
 72
1
 11
529.99850622225
 21
500.25
 73
3
  0
LINE
  8
画層9
  6
CONTINUOUS
 10
537.499349297231
 20
413.499955049102
 11
537.499349297231
 21
493
  0
ENDSEC
  0
EOF
