999
Outputted By AR_CAD Ver.1.4.1
  0
SECTION
  2
HEADER
  9
$ACADVER
  1
AC1009
  9
$DWGCODEPAGE
  3
DOS932
  9
$EXTMIN
 10
0
 20
0
  9
$EXTMAX
 10
297
 20
210
  9
$INSBASE
 10
0.0
 20
0.0
 30
0.0
  9
$HANDLING
 70
     1
  9
$LTSCALE
 40
1
  0
ENDSEC
  0
SECTION
  2
TABLES
  0
TABLE
  2
LTYPE
 70
     7
  0
LTYPE
  2
BYBLOCK
 70
    64
 3

 72
    65
 73
    0
 40
    0
  0
LTYPE
  2
BYLAYER
 70
    64
 3

 72
    65
 73
    0
 40
    0
  0
LTYPE
  2
CONTINUOUS
 70
    64
 3
CONTINUOUS
 72
    65
 73
    0
 40
    0
  0
LTYPE
  2
DASHED
 70
    64
 3

 72
    65
 73
    2
 40
    3.5
 49
    2.91666666666667
 49
    -0.583333333333333
  0
LTYPE
  2
DOT
 70
    64
 3

 72
    65
 73
    2
 40
    0.5
 49
    0.25
 49
    -0.25
  0
LTYPE
  2
DASHDOT
 70
    64
 3

 72
    65
 73
    4
 40
    3.5
 49
    1.84210526315789
 49
    -0.552631578947368
 49
    0.552631578947368
 49
    -0.552631578947368
  0
LTYPE
  2
DIVIDE
 70
    64
 3

 72
    65
 73
    6
 40
    3.5
 49
    1.4
 49
    -0.42
 49
    0.42
 49
    -0.42
 49
    0.42
 49
    -0.42
  0
LTYPE
  2
HIDDEN
 70
    64
 3

 72
    65
 73
    2
 40
    4
 49
    2
 49
    -2
  0
ENDTAB
  0
TABLE
  2
LAYER
 70
   257
  0
LAYER
  2
画層0
 70
    0
 62
-7
  6
CONTINUOUS
  0
LAYER
  2
画層1
 70
    0
 62
-3
  6
CONTINUOUS
  0
LAYER
  2
画層2
 70
    0
 62
-9
  6
CONTINUOUS
  0
LAYER
  2
画層3
 70
    0
 62
-7
  6
CONTINUOUS
  0
LAYER
  2
画層4
 70
    4
 62
7
  6
CONTINUOUS
  0
LAYER
  2
画層5
 70
    4
 62
7
  6
CONTINUOUS
  0
LAYER
  2
画層6
 70
    0
 62
-253
  6
CONTINUOUS
  0
LAYER
  2
画層7
 70
    0
 62
-7
  6
CONTINUOUS
  0
LAYER
  2
画層8
 70
    0
 62
-7
  6
CONTINUOUS
  0
LAYER
  2
画層9
 70
    4
 62
7
  6
CONTINUOUS
  0
LAYER
  2
画層10
 70
    0
 62
-190
  6
CONTINUOUS
  0
LAYER
  2
画層11
 70
    4
 62
7
  6
CONTINUOUS
  0
LAYER
  2
画層12
 70
    0
 62
-161
  6
CONTINUOUS
  0
LAYER
  2
画層13
 70
    0
 62
-5
  6
CONTINUOUS
  0
LAYER
  2
画層14
 70
    0
 62
-150
  6
CONTINUOUS
  0
LAYER
  2
画層15
 70
    4
 62
7
  6
CONTINUOUS
  0
LAYER
  2
画層16
 70
    0
 62
7
  6
CONTINUOUS
  0
LAYER
  2
画層17
 70
    0
 62
70
  6
CONTINUOUS
  0
LAYER
  2
画層18
 70
    0
 62
211
  6
CONTINUOUS
  0
LAYER
  2
画層19
 70
    0
 62
137
  6
CONTINUOUS
  0
LAYER
  2
画層20
 70
    0
 62
4
  6
CONTINUOUS
  0
LAYER
  2
画層21
 70
    0
 62
131
  6
CONTINUOUS
  0
LAYER
  2
画層22
 70
    0
 62
4
  6
CONTINUOUS
  0
LAYER
  2
画層23
 70
    0
 62
4
  6
CONTINUOUS
  0
LAYER
  2
画層24
 70
    0
 62
7
  6
CONTINUOUS
  0
LAYER
  2
画層25
 70
    0
 62
7
  6
CONTINUOUS
  0
LAYER
  2
画層26
 70
    0
 62
7
  6
CONTINUOUS
  0
LAYER
  2
画層27
 70
    0
 62
7
  6
CONTINUOUS
  0
LAYER
  2
画層28
 70
    0
 62
7
  6
CONTINUOUS
  0
LAYER
  2
画層29
 70
    0
 62
7
  6
CONTINUOUS
  0
LAYER
  2
画層30
 70
    0
 62
7
  6
CONTINUOUS
  0
LAYER
  2
画層31
 70
    0
 62
7
  6
CONTINUOUS
  0
LAYER
  2
画層32
 70
    0
 62
7
  6
CONTINUOUS
  0
LAYER
  2
画層33
 70
    0
 62
7
  6
CONTINUOUS
  0
LAYER
  2
画層34
 70
    0
 62
7
  6
CONTINUOUS
  0
LAYER
  2
画層35
 70
    0
 62
7
  6
CONTINUOUS
  0
LAYER
  2
画層36
 70
    0
 62
7
  6
CONTINUOUS
  0
LAYER
  2
画層37
 70
    0
 62
7
  6
CONTINUOUS
  0
LAYER
  2
画層38
 70
    0
 62
7
  6
CONTINUOUS
  0
LAYER
  2
画層39
 70
    0
 62
7
  6
CONTINUOUS
  0
LAYER
  2
画層40
 70
    0
 62
7
  6
CONTINUOUS
  0
LAYER
  2
画層41
 70
    0
 62
7
  6
CONTINUOUS
  0
LAYER
  2
画層42
 70
    0
 62
7
  6
CONTINUOUS
  0
LAYER
  2
画層43
 70
    0
 62
7
  6
CONTINUOUS
  0
LAYER
  2
画層44
 70
    0
 62
7
  6
CONTINUOUS
  0
LAYER
  2
画層45
 70
    0
 62
7
  6
CONTINUOUS
  0
LAYER
  2
画層46
 70
    0
 62
7
  6
CONTINUOUS
  0
LAYER
  2
画層47
 70
    0
 62
7
  6
CONTINUOUS
  0
LAYER
  2
画層48
 70
    0
 62
7
  6
CONTINUOUS
  0
LAYER
  2
画層49
 70
    0
 62
7
  6
CONTINUOUS
  0
LAYER
  2
画層50
 70
    0
 62
7
  6
CONTINUOUS
  0
LAYER
  2
画層51
 70
    0
 62
7
  6
CONTINUOUS
  0
LAYER
  2
画層52
 70
    0
 62
7
  6
CONTINUOUS
  0
LAYER
  2
画層53
 70
    0
 62
7
  6
CONTINUOUS
  0
LAYER
  2
画層54
 70
    0
 62
7
  6
CONTINUOUS
  0
LAYER
  2
画層55
 70
    0
 62
7
  6
CONTINUOUS
  0
LAYER
  2
画層56
 70
    0
 62
7
  6
CONTINUOUS
  0
LAYER
  2
画層57
 70
    0
 62
7
  6
CONTINUOUS
  0
LAYER
  2
画層58
 70
    0
 62
7
  6
CONTINUOUS
  0
LAYER
  2
画層59
 70
    0
 62
7
  6
CONTINUOUS
  0
LAYER
  2
画層60
 70
    0
 62
7
  6
CONTINUOUS
  0
LAYER
  2
画層61
 70
    0
 62
7
  6
CONTINUOUS
  0
LAYER
  2
画層62
 70
    0
 62
7
  6
CONTINUOUS
  0
LAYER
  2
画層63
 70
    0
 62
7
  6
CONTINUOUS
  0
LAYER
  2
画層64
 70
    0
 62
7
  6
CONTINUOUS
  0
LAYER
  2
画層65
 70
    0
 62
7
  6
CONTINUOUS
  0
LAYER
  2
画層66
 70
    0
 62
7
  6
CONTINUOUS
  0
LAYER
  2
画層67
 70
    0
 62
7
  6
CONTINUOUS
  0
LAYER
  2
画層68
 70
    0
 62
7
  6
CONTINUOUS
  0
LAYER
  2
画層69
 70
    0
 62
7
  6
CONTINUOUS
  0
LAYER
  2
画層70
 70
    0
 62
7
  6
CONTINUOUS
  0
LAYER
  2
画層71
 70
    0
 62
7
  6
CONTINUOUS
  0
LAYER
  2
画層72
 70
    0
 62
7
  6
CONTINUOUS
  0
LAYER
  2
画層73
 70
    0
 62
7
  6
CONTINUOUS
  0
LAYER
  2
画層74
 70
    0
 62
7
  6
CONTINUOUS
  0
LAYER
  2
画層75
 70
    0
 62
7
  6
CONTINUOUS
  0
LAYER
  2
画層76
 70
    0
 62
7
  6
CONTINUOUS
  0
LAYER
  2
画層77
 70
    0
 62
7
  6
CONTINUOUS
  0
LAYER
  2
画層78
 70
    0
 62
7
  6
CONTINUOUS
  0
LAYER
  2
画層79
 70
    0
 62
7
  6
CONTINUOUS
  0
LAYER
  2
画層80
 70
    0
 62
7
  6
CONTINUOUS
  0
LAYER
  2
画層81
 70
    0
 62
7
  6
CONTINUOUS
  0
LAYER
  2
画層82
 70
    0
 62
7
  6
CONTINUOUS
  0
LAYER
  2
画層83
 70
    0
 62
7
  6
CONTINUOUS
  0
LAYER
  2
画層84
 70
    0
 62
7
  6
CONTINUOUS
  0
LAYER
  2
画層85
 70
    0
 62
7
  6
CONTINUOUS
  0
LAYER
  2
画層86
 70
    0
 62
7
  6
CONTINUOUS
  0
LAYER
  2
画層87
 70
    0
 62
7
  6
CONTINUOUS
  0
LAYER
  2
画層88
 70
    0
 62
7
  6
CONTINUOUS
  0
LAYER
  2
画層89
 70
    0
 62
7
  6
CONTINUOUS
  0
LAYER
  2
画層90
 70
    0
 62
7
  6
CONTINUOUS
  0
LAYER
  2
画層91
 70
    0
 62
7
  6
CONTINUOUS
  0
LAYER
  2
画層92
 70
    0
 62
7
  6
CONTINUOUS
  0
LAYER
  2
画層93
 70
    0
 62
7
  6
CONTINUOUS
  0
LAYER
  2
画層94
 70
    0
 62
7
  6
CONTINUOUS
  0
LAYER
  2
画層95
 70
    0
 62
7
  6
CONTINUOUS
  0
LAYER
  2
画層96
 70
    0
 62
7
  6
CONTINUOUS
  0
LAYER
  2
画層97
 70
    0
 62
7
  6
CONTINUOUS
  0
LAYER
  2
画層98
 70
    0
 62
7
  6
CONTINUOUS
  0
LAYER
  2
画層99
 70
    0
 62
7
  6
CONTINUOUS
  0
LAYER
  2
画層100
 70
    0
 62
7
  6
CONTINUOUS
  0
LAYER
  2
画層101
 70
    0
 62
7
  6
CONTINUOUS
  0
LAYER
  2
画層102
 70
    0
 62
7
  6
CONTINUOUS
  0
LAYER
  2
画層103
 70
    0
 62
7
  6
CONTINUOUS
  0
LAYER
  2
画層104
 70
    0
 62
7
  6
CONTINUOUS
  0
LAYER
  2
画層105
 70
    0
 62
7
  6
CONTINUOUS
  0
LAYER
  2
画層106
 70
    0
 62
7
  6
CONTINUOUS
  0
LAYER
  2
画層107
 70
    0
 62
7
  6
CONTINUOUS
  0
LAYER
  2
画層108
 70
    0
 62
7
  6
CONTINUOUS
  0
LAYER
  2
画層109
 70
    0
 62
7
  6
CONTINUOUS
  0
LAYER
  2
画層110
 70
    0
 62
7
  6
CONTINUOUS
  0
LAYER
  2
画層111
 70
    0
 62
7
  6
CONTINUOUS
  0
LAYER
  2
画層112
 70
    0
 62
7
  6
CONTINUOUS
  0
LAYER
  2
画層113
 70
    0
 62
7
  6
CONTINUOUS
  0
LAYER
  2
画層114
 70
    0
 62
7
  6
CONTINUOUS
  0
LAYER
  2
画層115
 70
    0
 62
7
  6
CONTINUOUS
  0
LAYER
  2
画層116
 70
    0
 62
7
  6
CONTINUOUS
  0
LAYER
  2
画層117
 70
    0
 62
7
  6
CONTINUOUS
  0
LAYER
  2
画層118
 70
    0
 62
7
  6
CONTINUOUS
  0
LAYER
  2
画層119
 70
    0
 62
7
  6
CONTINUOUS
  0
LAYER
  2
画層120
 70
    0
 62
7
  6
CONTINUOUS
  0
LAYER
  2
画層121
 70
    0
 62
7
  6
CONTINUOUS
  0
LAYER
  2
画層122
 70
    0
 62
7
  6
CONTINUOUS
  0
LAYER
  2
画層123
 70
    0
 62
7
  6
CONTINUOUS
  0
LAYER
  2
画層124
 70
    0
 62
7
  6
CONTINUOUS
  0
LAYER
  2
画層125
 70
    0
 62
7
  6
CONTINUOUS
  0
LAYER
  2
画層126
 70
    0
 62
7
  6
CONTINUOUS
  0
LAYER
  2
画層127
 70
    0
 62
7
  6
CONTINUOUS
  0
LAYER
  2
画層128
 70
    0
 62
7
  6
CONTINUOUS
  0
LAYER
  2
画層129
 70
    0
 62
7
  6
CONTINUOUS
  0
LAYER
  2
画層130
 70
    0
 62
7
  6
CONTINUOUS
  0
LAYER
  2
画層131
 70
    0
 62
7
  6
CONTINUOUS
  0
LAYER
  2
画層132
 70
    0
 62
7
  6
CONTINUOUS
  0
LAYER
  2
画層133
 70
    0
 62
7
  6
CONTINUOUS
  0
LAYER
  2
画層134
 70
    0
 62
7
  6
CONTINUOUS
  0
LAYER
  2
画層135
 70
    0
 62
7
  6
CONTINUOUS
  0
LAYER
  2
画層136
 70
    0
 62
7
  6
CONTINUOUS
  0
LAYER
  2
画層137
 70
    0
 62
7
  6
CONTINUOUS
  0
LAYER
  2
画層138
 70
    0
 62
7
  6
CONTINUOUS
  0
LAYER
  2
画層139
 70
    0
 62
7
  6
CONTINUOUS
  0
LAYER
  2
画層140
 70
    0
 62
7
  6
CONTINUOUS
  0
LAYER
  2
画層141
 70
    0
 62
7
  6
CONTINUOUS
  0
LAYER
  2
画層142
 70
    0
 62
7
  6
CONTINUOUS
  0
LAYER
  2
画層143
 70
    0
 62
7
  6
CONTINUOUS
  0
LAYER
  2
画層144
 70
    0
 62
7
  6
CONTINUOUS
  0
LAYER
  2
画層145
 70
    0
 62
7
  6
CONTINUOUS
  0
LAYER
  2
画層146
 70
    0
 62
7
  6
CONTINUOUS
  0
LAYER
  2
画層147
 70
    0
 62
7
  6
CONTINUOUS
  0
LAYER
  2
画層148
 70
    0
 62
7
  6
CONTINUOUS
  0
LAYER
  2
画層149
 70
    0
 62
7
  6
CONTINUOUS
  0
LAYER
  2
画層150
 70
    0
 62
7
  6
CONTINUOUS
  0
LAYER
  2
画層151
 70
    0
 62
7
  6
CONTINUOUS
  0
LAYER
  2
画層152
 70
    0
 62
7
  6
CONTINUOUS
  0
LAYER
  2
画層153
 70
    0
 62
7
  6
CONTINUOUS
  0
LAYER
  2
画層154
 70
    0
 62
7
  6
CONTINUOUS
  0
LAYER
  2
画層155
 70
    0
 62
7
  6
CONTINUOUS
  0
LAYER
  2
画層156
 70
    0
 62
7
  6
CONTINUOUS
  0
LAYER
  2
画層157
 70
    0
 62
7
  6
CONTINUOUS
  0
LAYER
  2
画層158
 70
    0
 62
7
  6
CONTINUOUS
  0
LAYER
  2
画層159
 70
    0
 62
7
  6
CONTINUOUS
  0
LAYER
  2
画層160
 70
    0
 62
7
  6
CONTINUOUS
  0
LAYER
  2
画層161
 70
    0
 62
7
  6
CONTINUOUS
  0
LAYER
  2
画層162
 70
    0
 62
7
  6
CONTINUOUS
  0
LAYER
  2
画層163
 70
    0
 62
7
  6
CONTINUOUS
  0
LAYER
  2
画層164
 70
    0
 62
7
  6
CONTINUOUS
  0
LAYER
  2
画層165
 70
    0
 62
7
  6
CONTINUOUS
  0
LAYER
  2
画層166
 70
    0
 62
7
  6
CONTINUOUS
  0
LAYER
  2
画層167
 70
    0
 62
7
  6
CONTINUOUS
  0
LAYER
  2
画層168
 70
    0
 62
7
  6
CONTINUOUS
  0
LAYER
  2
画層169
 70
    0
 62
7
  6
CONTINUOUS
  0
LAYER
  2
画層170
 70
    0
 62
7
  6
CONTINUOUS
  0
LAYER
  2
画層171
 70
    0
 62
7
  6
CONTINUOUS
  0
LAYER
  2
画層172
 70
    0
 62
7
  6
CONTINUOUS
  0
LAYER
  2
画層173
 70
    0
 62
7
  6
CONTINUOUS
  0
LAYER
  2
画層174
 70
    0
 62
7
  6
CONTINUOUS
  0
LAYER
  2
画層175
 70
    0
 62
7
  6
CONTINUOUS
  0
LAYER
  2
画層176
 70
    0
 62
7
  6
CONTINUOUS
  0
LAYER
  2
画層177
 70
    0
 62
7
  6
CONTINUOUS
  0
LAYER
  2
画層178
 70
    0
 62
7
  6
CONTINUOUS
  0
LAYER
  2
画層179
 70
    0
 62
7
  6
CONTINUOUS
  0
LAYER
  2
画層180
 70
    0
 62
7
  6
CONTINUOUS
  0
LAYER
  2
画層181
 70
    0
 62
7
  6
CONTINUOUS
  0
LAYER
  2
画層182
 70
    0
 62
7
  6
CONTINUOUS
  0
LAYER
  2
画層183
 70
    0
 62
7
  6
CONTINUOUS
  0
LAYER
  2
画層184
 70
    0
 62
7
  6
CONTINUOUS
  0
LAYER
  2
画層185
 70
    0
 62
7
  6
CONTINUOUS
  0
LAYER
  2
画層186
 70
    0
 62
7
  6
CONTINUOUS
  0
LAYER
  2
画層187
 70
    0
 62
7
  6
CONTINUOUS
  0
LAYER
  2
画層188
 70
    0
 62
7
  6
CONTINUOUS
  0
LAYER
  2
画層189
 70
    0
 62
7
  6
CONTINUOUS
  0
LAYER
  2
画層190
 70
    0
 62
7
  6
CONTINUOUS
  0
LAYER
  2
画層191
 70
    0
 62
7
  6
CONTINUOUS
  0
LAYER
  2
画層192
 70
    0
 62
7
  6
CONTINUOUS
  0
LAYER
  2
画層193
 70
    0
 62
7
  6
CONTINUOUS
  0
LAYER
  2
画層194
 70
    0
 62
7
  6
CONTINUOUS
  0
LAYER
  2
画層195
 70
    0
 62
7
  6
CONTINUOUS
  0
LAYER
  2
画層196
 70
    0
 62
7
  6
CONTINUOUS
  0
LAYER
  2
画層197
 70
    0
 62
7
  6
CONTINUOUS
  0
LAYER
  2
画層198
 70
    0
 62
7
  6
CONTINUOUS
  0
LAYER
  2
画層199
 70
    0
 62
7
  6
CONTINUOUS
  0
LAYER
  2
画層200
 70
    0
 62
7
  6
CONTINUOUS
  0
LAYER
  2
画層201
 70
    0
 62
7
  6
CONTINUOUS
  0
LAYER
  2
画層202
 70
    0
 62
7
  6
CONTINUOUS
  0
LAYER
  2
画層203
 70
    0
 62
7
  6
CONTINUOUS
  0
LAYER
  2
画層204
 70
    0
 62
7
  6
CONTINUOUS
  0
LAYER
  2
画層205
 70
    0
 62
7
  6
CONTINUOUS
  0
LAYER
  2
画層206
 70
    0
 62
7
  6
CONTINUOUS
  0
LAYER
  2
画層207
 70
    0
 62
7
  6
CONTINUOUS
  0
LAYER
  2
画層208
 70
    0
 62
7
  6
CONTINUOUS
  0
LAYER
  2
画層209
 70
    0
 62
7
  6
CONTINUOUS
  0
LAYER
  2
画層210
 70
    0
 62
7
  6
CONTINUOUS
  0
LAYER
  2
画層211
 70
    0
 62
7
  6
CONTINUOUS
  0
LAYER
  2
画層212
 70
    0
 62
7
  6
CONTINUOUS
  0
LAYER
  2
画層213
 70
    0
 62
7
  6
CONTINUOUS
  0
LAYER
  2
画層214
 70
    0
 62
7
  6
CONTINUOUS
  0
LAYER
  2
画層215
 70
    0
 62
7
  6
CONTINUOUS
  0
LAYER
  2
画層216
 70
    0
 62
7
  6
CONTINUOUS
  0
LAYER
  2
画層217
 70
    0
 62
7
  6
CONTINUOUS
  0
LAYER
  2
画層218
 70
    0
 62
7
  6
CONTINUOUS
  0
LAYER
  2
画層219
 70
    0
 62
7
  6
CONTINUOUS
  0
LAYER
  2
画層220
 70
    0
 62
7
  6
CONTINUOUS
  0
LAYER
  2
画層221
 70
    0
 62
7
  6
CONTINUOUS
  0
LAYER
  2
画層222
 70
    0
 62
7
  6
CONTINUOUS
  0
LAYER
  2
画層223
 70
    0
 62
7
  6
CONTINUOUS
  0
LAYER
  2
画層224
 70
    0
 62
7
  6
CONTINUOUS
  0
LAYER
  2
画層225
 70
    0
 62
7
  6
CONTINUOUS
  0
LAYER
  2
画層226
 70
    0
 62
7
  6
CONTINUOUS
  0
LAYER
  2
画層227
 70
    0
 62
7
  6
CONTINUOUS
  0
LAYER
  2
画層228
 70
    0
 62
7
  6
CONTINUOUS
  0
LAYER
  2
画層229
 70
    0
 62
7
  6
CONTINUOUS
  0
LAYER
  2
画層230
 70
    0
 62
7
  6
CONTINUOUS
  0
LAYER
  2
画層231
 70
    0
 62
7
  6
CONTINUOUS
  0
LAYER
  2
画層232
 70
    0
 62
7
  6
CONTINUOUS
  0
LAYER
  2
画層233
 70
    0
 62
7
  6
CONTINUOUS
  0
LAYER
  2
画層234
 70
    0
 62
7
  6
CONTINUOUS
  0
LAYER
  2
画層235
 70
    0
 62
7
  6
CONTINUOUS
  0
LAYER
  2
画層236
 70
    0
 62
7
  6
CONTINUOUS
  0
LAYER
  2
画層237
 70
    0
 62
7
  6
CONTINUOUS
  0
LAYER
  2
画層238
 70
    0
 62
7
  6
CONTINUOUS
  0
LAYER
  2
画層239
 70
    0
 62
7
  6
CONTINUOUS
  0
LAYER
  2
画層240
 70
    0
 62
7
  6
CONTINUOUS
  0
LAYER
  2
画層241
 70
    0
 62
7
  6
CONTINUOUS
  0
LAYER
  2
画層242
 70
    0
 62
7
  6
CONTINUOUS
  0
LAYER
  2
画層243
 70
    0
 62
7
  6
CONTINUOUS
  0
LAYER
  2
画層244
 70
    0
 62
7
  6
CONTINUOUS
  0
LAYER
  2
画層245
 70
    0
 62
7
  6
CONTINUOUS
  0
LAYER
  2
画層246
 70
    0
 62
7
  6
CONTINUOUS
  0
LAYER
  2
画層247
 70
    0
 62
7
  6
CONTINUOUS
  0
LAYER
  2
画層248
 70
    0
 62
7
  6
CONTINUOUS
  0
LAYER
  2
画層249
 70
    0
 62
7
  6
CONTINUOUS
  0
LAYER
  2
画層250
 70
    0
 62
7
  6
CONTINUOUS
  0
LAYER
  2
画層251
 70
    0
 62
7
  6
CONTINUOUS
  0
LAYER
  2
画層252
 70
    0
 62
7
  6
CONTINUOUS
  0
LAYER
  2
画層253
 70
    0
 62
7
  6
CONTINUOUS
  0
LAYER
  2
画層254
 70
    0
 62
7
  6
CONTINUOUS
  0
LAYER
  2
画層255
 70
    0
 62
7
  6
CONTINUOUS
  0
LAYER
  2
0
 70
   64
 62
    7
  6
CONTINUOUS
  0
ENDTAB
  0
TABLE
  2
STYLE
 70
     1
  0
STYLE
  2
Standard
 70
     0
 40
0.0
 41
1.0
 50
0.0
 71
     0
 42
3.2
  3
TXT
  4
BIGFONT
  0
STYLE
  2
Font_0
 70
     0
 40
0.0
 41
1.0
 50
0.0
 71
     0
 42
3.2
  3
txt
  4
BIGFONT
  0
ENDTAB
  0
ENDSEC
  0
SECTION
  2
ENTITIES
  0
LINE
  8
画層15
  6
CONTINUOUS
 10
250
 20
330
 11
250
 21
325
  0
LINE
  8
画層15
  6
CONTINUOUS
 10
250
 20
325
 11
310
 21
325
  0
LINE
  8
画層15
  6
CONTINUOUS
 10
310
 20
325
 11
310
 21
185
  0
LINE
  8
画層15
  6
CONTINUOUS
 10
310
 20
185
 11
250
 21
185
  0
LINE
  8
画層15
  6
CONTINUOUS
 10
350
 20
80
 11
500
 21
80
  0
LINE
  8
画層15
  6
CONTINUOUS
 10
600
 20
180
 11
600
 21
185
  0
LINE
  8
画層15
  6
CONTINUOUS
 10
600
 20
185
 11
540
 21
185
  0
LINE
  8
画層15
  6
CONTINUOUS
 10
540
 20
185
 11
540
 21
325
  0
LINE
  8
画層15
  6
CONTINUOUS
 10
540
 20
325
 11
600
 21
325
  0
LINE
  8
画層15
  6
CONTINUOUS
 10
600
 20
325
 11
600
 21
330
  0
LINE
  8
画層15
  6
CONTINUOUS
 10
350
 20
430
 11
500
 21
430
  0
LINE
  8
画層15
  6
CONTINUOUS
 10
504.998356104543
 20
80
 11
600
 21
174.996771034067
  0
LINE
  8
画層15
  6
CONTINUOUS
 10
600
 20
334.996334906118
 11
504.997549275172
 21
430
  0
LINE
  8
画層15
  6
CONTINUOUS
 10
250
 20
174.998807336096
 11
345.002885458578
 21
80
  0
LINE
  8
画層15
  6
CONTINUOUS
 10
600
 20
174.996771034067
 11
600
 21
180
  0
LINE
  8
画層15
  6
CONTINUOUS
 10
504.998356104543
 20
80
 11
500
 21
80
  0
LINE
  8
画層15
  6
CONTINUOUS
 10
345.002885458578
 20
80
 11
350
 21
80
  0
LINE
  8
画層15
  6
CONTINUOUS
 10
250
 20
174.998807336096
 11
250
 21
180
  0
LINE
  8
画層15
  6
CONTINUOUS
 10
250
 20
180
 11
250
 21
185
  0
LINE
  8
画層15
  6
CONTINUOUS
 10
250
 20
330
 11
250
 21
335.002455342156
  0
LINE
  8
画層15
  6
CONTINUOUS
 10
350
 20
430
 11
345.000495294151
 21
430
  0
LINE
  8
画層15
  6
CONTINUOUS
 10
345.000495294151
 20
430
 11
250
 21
335.002455342156
  0
LINE
  8
画層15
  6
CONTINUOUS
 10
504.997549275172
 20
430
 11
500
 21
430
  0
LINE
  8
画層15
  6
CONTINUOUS
 10
600
 20
334.996334906118
 11
600
 21
330
  0
CIRCLE
  8
画層5
  6
CONTINUOUS
 10
317.502906825184
 20
247.500196471095
 40
1.50452157225885
  0
CIRCLE
  8
画層5
  6
CONTINUOUS
 10
317.502906825184
 20
187.502161824606
 40
1.49747861080067
  0
CIRCLE
  8
画層5
  6
CONTINUOUS
 10
332.500616481085
 20
247.500196471095
 40
1.49747861080067
  0
CIRCLE
  8
画層5
  6
CONTINUOUS
 10
332.500616481085
 20
187.502161824606
 40
1.49747861080067
  0
CIRCLE
  8
画層5
  6
CONTINUOUS
 10
392.504453997318
 20
247.500196471095
 40
1.49747861080067
  0
CIRCLE
  8
画層5
  6
CONTINUOUS
 10
392.504453997318
 20
187.502161824606
 40
1.49747861080067
  0
CIRCLE
  8
画層5
  6
CONTINUOUS
 10
407.507311058499
 20
187.502161824606
 40
1.49747861080067
  0
CIRCLE
  8
画層5
  6
CONTINUOUS
 10
407.507311058499
 20
247.500196471095
 40
1.49747861080067
  0
CIRCLE
  8
画層5
  6
CONTINUOUS
 10
442.51679451265
 20
187.502161824606
 40
1.49747861080067
  0
CIRCLE
  8
画層5
  6
CONTINUOUS
 10
457.513261345705
 20
187.502161824606
 40
1.49747861080067
  0
CIRCLE
  8
画層5
  6
CONTINUOUS
 10
442.51679451265
 20
247.500196471095
 40
1.49747861080067
  0
CIRCLE
  8
画層5
  6
CONTINUOUS
 10
457.513261345705
 20
247.500196471095
 40
1.49747861080067
  0
CIRCLE
  8
画層5
  6
CONTINUOUS
 10
517.506871614843
 20
187.502161824606
 40
1.49747861080067
  0
CIRCLE
  8
画層5
  6
CONTINUOUS
 10
532.504631667311
 20
187.498554623069
 40
1.49747861080067
  0
CIRCLE
  8
画層5
  6
CONTINUOUS
 10
517.506871614843
 20
247.500196471095
 40
1.49747861080067
  0
CIRCLE
  8
画層5
  6
CONTINUOUS
 10
532.504631667311
 20
247.500196471095
 40
1.49747861080067
  0
CIRCLE
  8
画層5
  6
CONTINUOUS
 10
532.504631667311
 20
262.495974783109
 40
1.49747861080067
  0
CIRCLE
  8
画層5
  6
CONTINUOUS
 10
517.506871614843
 20
262.495974783109
 40
1.49747861080067
  0
CIRCLE
  8
画層5
  6
CONTINUOUS
 10
457.513261345705
 20
262.495974783109
 40
1.49747861080067
  0
CIRCLE
  8
画層5
  6
CONTINUOUS
 10
442.51679451265
 20
262.495974783109
 40
1.49747861080067
  0
CIRCLE
  8
画層5
  6
CONTINUOUS
 10
457.513261345705
 20
322.496602370964
 40
1.49747861080067
  0
CIRCLE
  8
画層5
  6
CONTINUOUS
 10
442.51679451265
 20
322.496602370964
 40
1.49747861080067
  0
CIRCLE
  8
画層5
  6
CONTINUOUS
 10
532.504631667311
 20
322.496602370964
 40
1.49747861080067
  0
CIRCLE
  8
画層5
  6
CONTINUOUS
 10
517.506871614843
 20
322.496602370964
 40
1.49747861080067
  0
CIRCLE
  8
画層5
  6
CONTINUOUS
 10
407.507311058499
 20
322.496602370964
 40
1.49747861080067
  0
CIRCLE
  8
画層5
  6
CONTINUOUS
 10
407.507311058499
 20
262.495974783109
 40
1.49747861080067
  0
CIRCLE
  8
画層5
  6
CONTINUOUS
 10
392.504453997318
 20
262.495974783109
 40
1.49747861080067
  0
CIRCLE
  8
画層5
  6
CONTINUOUS
 10
392.504453997318
 20
322.496602370964
 40
1.49747861080067
  0
CIRCLE
  8
画層5
  6
CONTINUOUS
 10
332.500616481085
 20
262.495974783109
 40
1.49747861080067
  0
CIRCLE
  8
画層5
  6
CONTINUOUS
 10
332.500616481085
 20
322.496602370964
 40
1.49747861080067
  0
CIRCLE
  8
画層5
  6
CONTINUOUS
 10
317.502906825184
 20
322.496602370964
 40
1.49747861080067
  0
CIRCLE
  8
画層5
  6
CONTINUOUS
 10
317.502906825184
 20
262.495974783109
 40
1.49747861080067
  0
CIRCLE
  8
画層5
  6
CONTINUOUS
 10
429.999278373289
 20
85.0044560632688
 40
1.0034795888814
  0
CIRCLE
  8
画層5
  6
CONTINUOUS
 10
420.001278987124
 20
85.0044560632688
 40
1.0034795888814
  0
CIRCLE
  8
画層5
  6
CONTINUOUS
 10
400
 20
85.0044560632688
 40
1.0034795888814
  0
CIRCLE
  8
画層5
  6
CONTINUOUS
 10
390
 20
85.0044560632688
 40
1.0034795888814
  0
CIRCLE
  8
画層5
  6
CONTINUOUS
 10
370
 20
85.0044560632688
 40
1.0034795888814
  0
CIRCLE
  8
画層5
  6
CONTINUOUS
 10
360
 20
85.0044560632688
 40
1.0034795888814
  0
CIRCLE
  8
画層5
  6
CONTINUOUS
 10
450
 20
85.0044560632688
 40
1.0034795888814
  0
CIRCLE
  8
画層5
  6
CONTINUOUS
 10
460
 20
85.0044560632688
 40
1.0034795888814
  0
CIRCLE
  8
画層5
  6
CONTINUOUS
 10
480
 20
85.0044560632688
 40
1.0034795888814
  0
CIRCLE
  8
画層5
  6
CONTINUOUS
 10
490
 20
85.0044560632688
 40
1.0034795888814
  0
CIRCLE
  8
画層5
  6
CONTINUOUS
 10
304.581705223187
 20
127.505126414823
 40
1.0034795888814
  0
CIRCLE
  8
画層5
  6
CONTINUOUS
 10
318.723096940342
 20
113.360896430773
 40
1.0034795888814
  0
CIRCLE
  8
画層5
  6
CONTINUOUS
 10
325.794942273564
 20
106.287631733397
 40
1.0034795888814
  0
CIRCLE
  8
画層5
  6
CONTINUOUS
 10
297.509936452097
 20
134.576205280328
 40
1.0034795888814
  0
CIRCLE
  8
画層5
  6
CONTINUOUS
 10
283.363413776784
 20
148.717125970149
 40
1.0034795888814
  0
CIRCLE
  8
画層5
  6
CONTINUOUS
 10
276.287761065556
 20
155.789976741653
 40
1.0034795888814
  0
CIRCLE
  8
画層5
  6
CONTINUOUS
 10
545.445614605582
 20
127.510544443038
 40
1.0034795888814
  0
CIRCLE
  8
画層5
  6
CONTINUOUS
 10
552.512583295007
 20
134.576205280328
 40
1.0034795888814
  0
CIRCLE
  8
画層5
  6
CONTINUOUS
 10
524.215841702904
 20
106.287631733397
 40
1.0034795888814
  0
CIRCLE
  8
画層5
  6
CONTINUOUS
 10
531.291392795267
 20
113.360896430773
 40
1.0034795888814
  0
CIRCLE
  8
画層5
  6
CONTINUOUS
 10
566.65418193174
 20
148.717125970149
 40
1.0034795888814
  0
CIRCLE
  8
画層5
  6
CONTINUOUS
 10
573.727371791303
 20
155.789976741653
 40
1.0034795888814
  0
CIRCLE
  8
画層5
  6
CONTINUOUS
 10
573.727371791303
 20
354.187013354816
 40
1.0034795888814
  0
CIRCLE
  8
画層5
  6
CONTINUOUS
 10
566.65418193174
 20
361.25678612603
 40
1.0034795888814
  0
CIRCLE
  8
画層5
  6
CONTINUOUS
 10
552.512583295007
 20
375.391552895829
 40
1.0034795888814
  0
CIRCLE
  8
画層5
  6
CONTINUOUS
 10
545.440194826018
 20
382.488378088728
 40
1.0034795888814
  0
CIRCLE
  8
画層5
  6
CONTINUOUS
 10
531.291392795267
 20
396.619055423172
 40
1.0034795888814
  0
CIRCLE
  8
画層5
  6
CONTINUOUS
 10
524.215841702904
 20
403.697824702668
 40
1.0034795888814
  0
CIRCLE
  8
画層5
  6
CONTINUOUS
 10
276.287761065556
 20
354.203826359506
 40
1.0034795888814
  0
CIRCLE
  8
画層5
  6
CONTINUOUS
 10
283.363413776783
 20
361.274906764531
 40
1.0034795888814
  0
CIRCLE
  8
画層5
  6
CONTINUOUS
 10
297.509936452097
 20
375.412287918061
 40
1.0034795888814
  0
CIRCLE
  8
画層5
  6
CONTINUOUS
 10
304.581705223187
 20
382.488378088728
 40
1.0034795888814
  0
CIRCLE
  8
画層5
  6
CONTINUOUS
 10
318.723096940342
 20
396.632986161759
 40
1.0034795888814
  0
CIRCLE
  8
画層5
  6
CONTINUOUS
 10
325.794942273564
 20
403.708763412288
 40
1.0034795888814
  0
CIRCLE
  8
画層5
  6
CONTINUOUS
 10
360
 20
425.00228415045
 40
1.0034795888814
  0
CIRCLE
  8
画層5
  6
CONTINUOUS
 10
370
 20
425.00228415045
 40
1.0034795888814
  0
CIRCLE
  8
画層5
  6
CONTINUOUS
 10
390
 20
425.00228415045
 40
1.0034795888814
  0
CIRCLE
  8
画層5
  6
CONTINUOUS
 10
400
 20
425.00228415045
 40
1.0034795888814
  0
CIRCLE
  8
画層5
  6
CONTINUOUS
 10
420
 20
425.00228415045
 40
1.0034795888814
  0
CIRCLE
  8
画層5
  6
CONTINUOUS
 10
430
 20
425.00228415045
 40
1.0034795888814
  0
CIRCLE
  8
画層5
  6
CONTINUOUS
 10
450
 20
425.00228415045
 40
1.0034795888814
  0
CIRCLE
  8
画層5
  6
CONTINUOUS
 10
460
 20
425.00228415045
 40
1.0034795888814
  0
CIRCLE
  8
画層5
  6
CONTINUOUS
 10
480
 20
425.00228415045
 40
1.0034795888814
  0
CIRCLE
  8
画層5
  6
CONTINUOUS
 10
490
 20
425.00228415045
 40
1.0034795888814
  0
CIRCLE
  8
画層4
  6
CONTINUOUS
 10
522.497663147269
 20
162.487982280684
 40
4.24789250391279
  0
CIRCLE
  8
画層4
  6
CONTINUOUS
 10
561.497797301026
 20
162.487982280684
 40
6.4973774459693
  0
CIRCLE
  8
画層5
  6
CONTINUOUS
 10
537.499349297231
 20
162.487982280684
 40
1.50114585100812
  0
CIRCLE
  8
画層5
  6
CONTINUOUS
 10
537.499349297231
 20
147.490046399679
 40
1.50114585100812
  0
CIRCLE
  8
画層5
  6
CONTINUOUS
 10
522.497663147269
 20
132.492179144637
 40
1.50114585100812
  0
CIRCLE
  8
画層5
  6
CONTINUOUS
 10
522.497663147269
 20
147.490046399679
 40
1.50114585100812
  0
CIRCLE
  8
画層5
  6
CONTINUOUS
 10
507.498708524005
 20
132.492179144637
 40
1.50114585100812
  0
CIRCLE
  8
画層5
  6
CONTINUOUS
 10
492.499753900742
 20
132.492179144637
 40
1.50114585100812
  0
CIRCLE
  8
画層5
  6
CONTINUOUS
 10
462.496828216617
 20
132.492179144637
 40
1.50114585100812
  0
CIRCLE
  8
画層5
  6
CONTINUOUS
 10
477.498291058679
 20
132.492179144637
 40
1.50114585100812
  0
CIRCLE
  8
画層5
  6
CONTINUOUS
 10
462.496828216617
 20
102.495738250105
 40
1.50114585100812
  0
CIRCLE
  8
画層5
  6
CONTINUOUS
 10
477.498291058679
 20
102.495738250105
 40
1.50114585100812
  0
CIRCLE
  8
画層4
  6
CONTINUOUS
 10
507.498708524005
 20
108.491548911314
 40
6.4973774459693
  0
CIRCLE
  8
画層5
  6
CONTINUOUS
 10
492.499753900742
 20
102.495738250105
 40
1.50114585100812
  0
CIRCLE
  8
画層4
  6
CONTINUOUS
 10
288.506087294967
 20
162.487982280684
 40
6.4973774459693
  0
CIRCLE
  8
画層4
  6
CONTINUOUS
 10
327.507185974146
 20
162.487982280684
 40
4.24789250391279
  0
CIRCLE
  8
画層4
  6
CONTINUOUS
 10
342.505484938259
 20
108.490815653046
 40
6.4973774459693
  0
CIRCLE
  8
画層5
  6
CONTINUOUS
 10
507.498708524005
 20
162.487982280684
 40
1.50114585100812
  0
CIRCLE
  8
画層5
  6
CONTINUOUS
 10
492.499753900742
 20
162.487982280684
 40
1.50114585100812
  0
CIRCLE
  8
画層5
  6
CONTINUOUS
 10
477.498291058679
 20
162.487982280684
 40
1.50114585100812
  0
CIRCLE
  8
画層5
  6
CONTINUOUS
 10
462.496828216617
 20
162.487982280684
 40
1.50114585100812
  0
CIRCLE
  8
画層5
  6
CONTINUOUS
 10
387.501876744008
 20
162.487982280684
 40
1.50114585100812
  0
CIRCLE
  8
画層5
  6
CONTINUOUS
 10
372.50283032319
 20
162.487982280684
 40
1.50114585100812
  0
CIRCLE
  8
画層5
  6
CONTINUOUS
 10
357.503783902371
 20
162.487982280684
 40
1.50114585100812
  0
CIRCLE
  8
画層5
  6
CONTINUOUS
 10
342.505484938259
 20
162.487982280684
 40
1.50114585100812
  0
CIRCLE
  8
画層5
  6
CONTINUOUS
 10
312.507744577311
 20
162.487982280684
 40
1.50114585100812
  0
CIRCLE
  8
画層5
  6
CONTINUOUS
 10
312.507744577311
 20
147.490046399679
 40
1.50114585100812
  0
CIRCLE
  8
画層5
  6
CONTINUOUS
 10
327.507185974146
 20
147.490046399679
 40
1.50114585100812
  0
CIRCLE
  8
画層5
  6
CONTINUOUS
 10
327.507185974146
 20
132.492179144637
 40
1.50114585100812
  0
CIRCLE
  8
画層5
  6
CONTINUOUS
 10
342.505484938259
 20
132.492179144637
 40
1.50114585100812
  0
CIRCLE
  8
画層5
  6
CONTINUOUS
 10
357.503783902371
 20
132.492179144637
 40
1.50114585100812
  0
CIRCLE
  8
画層5
  6
CONTINUOUS
 10
372.50283032319
 20
132.492179144637
 40
1.50114585100812
  0
CIRCLE
  8
画層5
  6
CONTINUOUS
 10
357.503783902371
 20
102.495738250105
 40
1.50114585100812
  0
CIRCLE
  8
画層5
  6
CONTINUOUS
 10
372.50283032319
 20
102.495738250105
 40
1.50114585100812
  0
CIRCLE
  8
画層5
  6
CONTINUOUS
 10
387.501876744008
 20
102.495738250105
 40
1.50114585100812
  0
CIRCLE
  8
画層5
  6
CONTINUOUS
 10
387.501876744008
 20
132.492179144637
 40
1.50114585100812
  0
CIRCLE
  8
画層5
  6
CONTINUOUS
 10
432.495415714525
 20
162.487982280684
 40
1.50114585100812
  0
CIRCLE
  8
画層5
  6
CONTINUOUS
 10
417.503587744126
 20
162.487982280684
 40
1.50114585100812
  0
CIRCLE
  8
画層4
  6
CONTINUOUS
 10
522.497663147269
 20
347.502087767994
 40
4.24789250391279
  0
CIRCLE
  8
画層4
  6
CONTINUOUS
 10
327.507185974146
 20
347.502087767994
 40
4.24789250391279
  0
CIRCLE
  8
画層4
  6
CONTINUOUS
 10
561.501274787797
 20
347.502087767994
 40
6.4973774459693
  0
CIRCLE
  8
画層4
  6
CONTINUOUS
 10
507.498708524005
 20
401.499108605684
 40
6.4973774459693
  0
CIRCLE
  8
画層4
  6
CONTINUOUS
 10
288.50998031435
 20
347.502087767994
 40
6.4973774459693
  0
CIRCLE
  8
画層4
  6
CONTINUOUS
 10
342.505484938259
 20
401.493718381649
 40
6.4973774459693
  0
CIRCLE
  8
画層5
  6
CONTINUOUS
 10
537.499349297231
 20
347.502087767994
 40
1.50114585100812
  0
CIRCLE
  8
画層5
  6
CONTINUOUS
 10
537.499349297231
 20
362.499955049102
 40
1.50114585100812
  0
CIRCLE
  8
画層5
  6
CONTINUOUS
 10
522.497663147269
 20
377.497729511692
 40
1.50114585100812
  0
CIRCLE
  8
画層5
  6
CONTINUOUS
 10
522.497663147269
 20
362.499955049102
 40
1.50114585100812
  0
CIRCLE
  8
画層5
  6
CONTINUOUS
 10
507.498708524005
 20
347.502087767994
 40
1.50114585100812
  0
CIRCLE
  8
画層5
  6
CONTINUOUS
 10
507.498708524005
 20
377.497729511692
 40
1.50114585100812
  0
CIRCLE
  8
画層5
  6
CONTINUOUS
 10
492.499753900742
 20
407.4965629891
 40
1.50114585100812
  0
CIRCLE
  8
画層5
  6
CONTINUOUS
 10
477.498291058679
 20
407.4965629891
 40
1.50114585100812
  0
CIRCLE
  8
画層5
  6
CONTINUOUS
 10
462.496828216617
 20
407.4965629891
 40
1.50114585100812
  0
CIRCLE
  8
画層5
  6
CONTINUOUS
 10
462.496828216617
 20
377.497729511692
 40
1.50114585100812
  0
CIRCLE
  8
画層5
  6
CONTINUOUS
 10
477.498291058679
 20
377.497729511692
 40
1.50114585100812
  0
CIRCLE
  8
画層5
  6
CONTINUOUS
 10
492.499753900742
 20
377.497729511692
 40
1.50114585100812
  0
CIRCLE
  8
画層5
  6
CONTINUOUS
 10
492.499753900742
 20
347.502087767994
 40
1.50114585100812
  0
CIRCLE
  8
画層5
  6
CONTINUOUS
 10
477.498291058679
 20
347.502087767994
 40
1.50114585100812
  0
CIRCLE
  8
画層5
  6
CONTINUOUS
 10
462.496828216617
 20
347.502087767994
 40
1.50114585100812
  0
CIRCLE
  8
画層5
  6
CONTINUOUS
 10
432.495415714525
 20
347.502087767994
 40
1.50114585100812
  0
CIRCLE
  8
画層5
  6
CONTINUOUS
 10
417.503587744126
 20
347.502087767994
 40
1.50114585100812
  0
CIRCLE
  8
画層5
  6
CONTINUOUS
 10
387.501876744008
 20
347.502087767994
 40
1.50114585100812
  0
CIRCLE
  8
画層5
  6
CONTINUOUS
 10
372.50283032319
 20
347.502087767994
 40
1.50114585100812
  0
CIRCLE
  8
画層5
  6
CONTINUOUS
 10
357.503783902371
 20
347.502087767994
 40
1.50114585100812
  0
CIRCLE
  8
画層5
  6
CONTINUOUS
 10
342.505484938259
 20
347.502087767994
 40
1.50114585100812
  0
CIRCLE
  8
画層5
  6
CONTINUOUS
 10
372.50283032319
 20
377.497729511692
 40
1.50114585100812
  0
CIRCLE
  8
画層5
  6
CONTINUOUS
 10
387.501876744008
 20
377.497729511692
 40
1.50114585100812
  0
CIRCLE
  8
画層5
  6
CONTINUOUS
 10
387.501876744008
 20
407.4965629891
 40
1.50114585100812
  0
CIRCLE
  8
画層5
  6
CONTINUOUS
 10
372.50283032319
 20
407.4965629891
 40
1.50114585100812
  0
CIRCLE
  8
画層5
  6
CONTINUOUS
 10
357.503783902371
 20
407.4965629891
 40
1.50114585100812
  0
CIRCLE
  8
画層5
  6
CONTINUOUS
 10
357.503783902371
 20
377.497729511692
 40
1.50114585100812
  0
CIRCLE
  8
画層5
  6
CONTINUOUS
 10
342.505484938259
 20
377.497729511692
 40
1.50114585100812
  0
CIRCLE
  8
画層5
  6
CONTINUOUS
 10
327.507185974146
 20
377.497729511692
 40
1.50114585100812
  0
CIRCLE
  8
画層5
  6
CONTINUOUS
 10
327.507185974146
 20
362.499955049102
 40
1.50114585100812
  0
CIRCLE
  8
画層5
  6
CONTINUOUS
 10
312.507744577311
 20
362.499955049102
 40
1.50114585100812
  0
CIRCLE
  8
画層5
  6
CONTINUOUS
 10
312.507744577311
 20
347.502087767994
 40
1.50114585100812
  0
LINE
  8
画層15
  6
CONTINUOUS
 10
410
 20
180
 11
410
 21
170
  0
LINE
  8
画層15
  6
CONTINUOUS
 10
410
 20
170
 11
350
 21
170
  0
LINE
  8
画層15
  6
CONTINUOUS
 10
350
 20
170
 11
350
 21
180
  0
LINE
  8
画層15
  6
CONTINUOUS
 10
350
 20
180
 11
410
 21
180
  0
LINE
  8
画層15
  6
CONTINUOUS
 10
440
 20
180
 11
440
 21
170
  0
LINE
  8
画層15
  6
CONTINUOUS
 10
440
 20
170
 11
500
 21
170
  0
LINE
  8
画層15
  6
CONTINUOUS
 10
500
 20
180
 11
500
 21
170
  0
LINE
  8
画層15
  6
CONTINUOUS
 10
500
 20
180
 11
440
 21
180
  0
LINE
  8
画層15
  6
CONTINUOUS
 10
440
 20
340
 11
440
 21
330
  0
LINE
  8
画層15
  6
CONTINUOUS
 10
440
 20
330
 11
500
 21
330
  0
LINE
  8
画層15
  6
CONTINUOUS
 10
500
 20
330
 11
500
 21
340
  0
LINE
  8
画層15
  6
CONTINUOUS
 10
500
 20
340
 11
440
 21
340
  0
LINE
  8
画層15
  6
CONTINUOUS
 10
410
 20
340
 11
410
 21
330
  0
LINE
  8
画層15
  6
CONTINUOUS
 10
410
 20
330
 11
350
 21
330
  0
LINE
  8
画層15
  6
CONTINUOUS
 10
350
 20
330
 11
350
 21
340
  0
LINE
  8
画層15
  6
CONTINUOUS
 10
350
 20
340
 11
410
 21
340
  0
LINE
  8
画層9
  6
CONTINUOUS
 10
523.497663147269
 20
347.502087767994
 11
613
 21
347.502087767994
  0
LINE
  8
画層9
  6
CONTINUOUS
 10
610
 20
347.502087767994
 11
610
 21
162.487982280684
  0
POLYLINE
  8
画層9
  6
CONTINUOUS
 10
0.0
 20
0.0
 30
0.0
 66
1
 70
     1
  0
VERTEX
  8
画層9
 10
610
  20
347.502087767994
  0
VERTEX
  8
画層9
 10
610.388228567654
  20
346.05319902856
  0
VERTEX
  8
画層9
 10
609.611771432346
  20
346.05319902856
  0
SEQEND
100
AcDbEntity
  8
画層9
  0
POLYLINE
  8
画層9
  6
CONTINUOUS
 10
0.0
 20
0.0
 30
0.0
 66
1
 70
     1
  0
VERTEX
  8
画層9
 10
610
  20
162.487982280684
  0
VERTEX
  8
画層9
 10
609.611771432346
  20
163.936871020118
  0
VERTEX
  8
画層9
 10
610.388228567654
  20
163.936871020118
  0
SEQEND
100
AcDbEntity
  8
画層9
  0
TEXT
  8
画層9
 62
7
  6
CONTINUOUS
 62
7
 10
609.75
 20
246.495035024339
 40
10
  1
185
  7
Font_0
 50
90
 72
1
 11
599.75
 21
254.995035024339
 73
3
  0
LINE
  8
画層9
  6
CONTINUOUS
 10
523.497663147269
 20
162.487982280684
 11
613
 21
162.487982280684
  0
LINE
  8
画層9
  6
CONTINUOUS
 10
508.498708524005
 20
401.499108605684
 11
633
 21
401.499108605684
  0
LINE
  8
画層9
  6
CONTINUOUS
 10
630
 20
401.499108605684
 11
630
 21
108.491548911314
  0
POLYLINE
  8
画層9
  6
CONTINUOUS
 10
0.0
 20
0.0
 30
0.0
 66
1
 70
     1
  0
VERTEX
  8
画層9
 10
630
  20
401.499108605684
  0
VERTEX
  8
画層9
 10
630.388228567654
  20
400.050219866251
  0
VERTEX
  8
画層9
 10
629.611771432346
  20
400.050219866251
  0
SEQEND
100
AcDbEntity
  8
画層9
  0
POLYLINE
  8
画層9
  6
CONTINUOUS
 10
0.0
 20
0.0
 30
0.0
 66
1
 70
     1
  0
VERTEX
  8
画層9
 10
630
  20
108.491548911314
  0
VERTEX
  8
画層9
 10
629.611771432346
  20
109.940437650747
  0
VERTEX
  8
画層9
 10
630.388228567654
  20
109.940437650747
  0
SEQEND
100
AcDbEntity
  8
画層9
  0
TEXT
  8
画層9
 62
7
  6
CONTINUOUS
 62
7
 10
629.75
 20
246.495328758499
 40
10
  1
293
  7
Font_0
 50
90
 72
1
 11
619.75
 21
254.995328758499
 73
3
  0
LINE
  8
画層9
  6
CONTINUOUS
 10
508.498708524005
 20
108.491548911314
 11
633
 21
108.491548911314
  0
LINE
  8
画層9
  6
CONTINUOUS
 10
420.001278987124
 20
84.0044560632688
 11
420.001278987124
 21
67
  0
LINE
  8
画層9
  6
CONTINUOUS
 10
420.001278987124
 20
70
 11
429.999278373289
 21
70
  0
POLYLINE
  8
画層9
  6
CONTINUOUS
 10
0.0
 20
0.0
 30
0.0
 66
1
 70
     1
  0
VERTEX
  8
画層9
 10
420.001278987124
  20
70
  0
VERTEX
  8
画層9
 10
421.450167726557
  20
70.3882285676537
  0
VERTEX
  8
画層9
 10
421.450167726557
  20
69.6117714323462
  0
SEQEND
100
AcDbEntity
  8
画層9
  0
POLYLINE
  8
画層9
  6
CONTINUOUS
 10
0.0
 20
0.0
 30
0.0
 66
1
 70
     1
  0
VERTEX
  8
画層9
 10
429.999278373289
  20
70
  0
VERTEX
  8
画層9
 10
428.550389633855
  20
69.6117714323462
  0
VERTEX
  8
画層9
 10
428.550389633855
  20
70.3882285676537
  0
SEQEND
100
AcDbEntity
  8
画層9
  0
TEXT
  8
画層9
 62
7
  6
CONTINUOUS
 62
7
 10
419.500278680206
 20
70.25
 40
10
  1
10
  7
Font_0
 50
360
 72
1
 11
425.000278680206
 21
80.25
 73
3
  0
LINE
  8
画層9
  6
CONTINUOUS
 10
429.999278373289
 20
84.0044560632688
 11
429.999278373289
 21
67
  0
LINE
  8
画層9
  6
CONTINUOUS
 10
400
 20
84.0044560632688
 11
400
 21
67
  0
LINE
  8
画層9
  6
CONTINUOUS
 10
400
 20
70
 11
420.001278987124
 21
70
  0
POLYLINE
  8
画層9
  6
CONTINUOUS
 10
0.0
 20
0.0
 30
0.0
 66
1
 70
     1
  0
VERTEX
  8
画層9
 10
400
  20
70
  0
VERTEX
  8
画層9
 10
401.448888739434
  20
70.3882285676538
  0
VERTEX
  8
画層9
 10
401.448888739434
  20
69.6117714323462
  0
SEQEND
100
AcDbEntity
  8
画層9
  0
POLYLINE
  8
画層9
  6
CONTINUOUS
 10
0.0
 20
0.0
 30
0.0
 66
1
 70
     1
  0
VERTEX
  8
画層9
 10
420.001278987124
  20
70
  0
VERTEX
  8
画層9
 10
418.55239024769
  20
69.6117714323462
  0
VERTEX
  8
画層9
 10
418.55239024769
  20
70.3882285676538
  0
SEQEND
100
AcDbEntity
  8
画層9
  0
TEXT
  8
画層9
 62
7
  6
CONTINUOUS
 62
7
 10
404.500639493562
 20
70.25
 40
10
  1
20
  7
Font_0
 50
360
 72
1
 11
410.000639493562
 21
80.25
 73
3
  0
LINE
  8
画層9
  6
CONTINUOUS
 10
420.001278987124
 20
84.0044560632688
 11
420.001278987124
 21
67
  0
LINE
  8
画層9
  6
CONTINUOUS
 10
390
 20
84.0044560632688
 11
390
 21
67.0000000000001
  0
LINE
  8
画層9
  6
CONTINUOUS
 10
390
 20
70.0000000000001
 11
400
 21
70.0000000000001
  0
POLYLINE
  8
画層9
  6
CONTINUOUS
 10
0.0
 20
0.0
 30
0.0
 66
1
 70
     1
  0
VERTEX
  8
画層9
 10
390
  20
70.0000000000001
  0
VERTEX
  8
画層9
 10
391.448888739434
  20
70.3882285676538
  0
VERTEX
  8
画層9
 10
391.448888739434
  20
69.6117714323463
  0
SEQEND
100
AcDbEntity
  8
画層9
  0
POLYLINE
  8
画層9
  6
CONTINUOUS
 10
0.0
 20
0.0
 30
0.0
 66
1
 70
     1
  0
VERTEX
  8
画層9
 10
400
  20
70.0000000000001
  0
VERTEX
  8
画層9
 10
398.551111260566
  20
69.6117714323463
  0
VERTEX
  8
画層9
 10
398.551111260566
  20
70.3882285676538
  0
SEQEND
100
AcDbEntity
  8
画層9
  0
TEXT
  8
画層9
 62
7
  6
CONTINUOUS
 62
7
 10
389.5
 20
70.2500000000001
 40
10
  1
10
  7
Font_0
 72
1
 11
395
 21
80.2500000000001
 73
3
  0
LINE
  8
画層9
  6
CONTINUOUS
 10
400
 20
84.0044560632688
 11
400
 21
67.0000000000001
  0
LINE
  8
画層9
  6
CONTINUOUS
 10
359
 20
85.0044560632688
 11
327
 21
85.0044560632688
  0
LINE
  8
画層9
  6
CONTINUOUS
 10
330
 20
85.0044560632688
 11
330
 21
80
  0
POLYLINE
  8
画層9
  6
CONTINUOUS
 10
0.0
 20
0.0
 30
0.0
 66
1
 70
     1
  0
VERTEX
  8
画層9
 10
330
  20
85.0044560632688
  0
VERTEX
  8
画層9
 10
330.388228567654
  20
83.5555673238352
  0
VERTEX
  8
画層9
 10
329.611771432346
  20
83.5555673238352
  0
SEQEND
100
AcDbEntity
  8
画層9
  0
POLYLINE
  8
画層9
  6
CONTINUOUS
 10
0.0
 20
0.0
 30
0.0
 66
1
 70
     1
  0
VERTEX
  8
画層9
 10
330
  20
80
  0
VERTEX
  8
画層9
 10
329.611771432346
  20
81.4488887394336
  0
VERTEX
  8
画層9
 10
330.388228567654
  20
81.4488887394336
  0
SEQEND
100
AcDbEntity
  8
画層9
  0
TEXT
  8
画層9
 62
7
  6
CONTINUOUS
 62
7
 10
329.75
 20
80.0022280316344
 40
10
  1
5
  7
Font_0
 50
90
 72
1
 11
319.75
 21
82.5022280316344
 73
3
  0
LINE
  8
画層9
  6
CONTINUOUS
 10
359
 20
80
 11
327
 21
80
  0
LINE
  8
画層9
  6
CONTINUOUS
 10
553.219624636574
 20
133.869033065577
 11
565.664825292149
 21
121.421528806329
  0
LINE
  8
画層9
  6
CONTINUOUS
 10
563.543701267448
 20
123.543045450581
 11
556.476732578023
 21
116.477384613291
  0
POLYLINE
  8
画層9
  6
CONTINUOUS
 10
0.0
 20
0.0
 30
0.0
 66
1
 70
     1
  0
VERTEX
  8
画層9
 10
563.543701267448
  20
123.543045450581
  0
VERTEX
  8
画層9
 10
562.793581055964
  20
122.244076756454
  0
VERTEX
  8
画層9
 10
562.244593761347
  20
122.793165668488
  0
SEQEND
100
AcDbEntity
  8
画層9
  0
POLYLINE
  8
画層9
  6
CONTINUOUS
 10
0.0
 20
0.0
 30
0.0
 66
1
 70
     1
  0
VERTEX
  8
画層9
 10
556.476732578023
  20
116.477384613291
  0
VERTEX
  8
画層9
 10
557.226852789507
  20
117.776353307419
  0
VERTEX
  8
画層9
 10
557.775840084124
  20
117.227264395385
  0
SEQEND
100
AcDbEntity
  8
画層9
  0
TEXT
  8
画層9
 62
7
  6
CONTINUOUS
 62
7
 10
555.944009406216
 20
116.298280707006
 40
10
  1
10
  7
Font_0
 50
44.9946977731749
 72
1
 11
552.763043171675
 21
127.25873023313
 73
3
  0
LINE
  8
画層9
  6
CONTINUOUS
 10
546.152655947149
 20
126.803372228288
 11
558.597856602724
 21
114.35586796904
  0
LINE
  8
画層9
  6
CONTINUOUS
 10
546.152607111763
 20
126.803323405311
 11
558.598320614201
 21
114.353586892541
  0
LINE
  8
画層9
  6
CONTINUOUS
 10
556.477343095659
 20
116.475250005723
 11
542.323121285344
 21
102.325601993458
  0
POLYLINE
  8
画層9
  6
CONTINUOUS
 10
0.0
 20
0.0
 30
0.0
 66
1
 70
     1
  0
VERTEX
  8
画層9
 10
556.477343095659
  20
116.475250005723
  0
VERTEX
  8
画層9
 10
555.727133185821
  20
115.176333114162
  0
VERTEX
  8
画層9
 10
555.178183809788
  20
115.725459935145
  0
SEQEND
100
AcDbEntity
  8
画層9
  0
POLYLINE
  8
画層9
  6
CONTINUOUS
 10
0.0
 20
0.0
 30
0.0
 66
1
 70
     1
  0
VERTEX
  8
画層9
 10
542.323121285344
  20
102.325601993458
  0
VERTEX
  8
画層9
 10
543.073331195181
  20
103.624518885019
  0
VERTEX
  8
画層9
 10
543.622280571214
  20
103.075392064036
  0
SEQEND
100
AcDbEntity
  8
画層9
  0
TEXT
  8
画層9
 62
7
  6
CONTINUOUS
 62
7
 10
545.333768356455
 20
105.688772475028
 40
10
  1
20
  7
Font_0
 50
44.9907412193474
 72
1
 11
542.153559002149
 21
116.649441636297
 73
3
  0
LINE
  8
画層9
  6
CONTINUOUS
 10
531.998385301448
 20
112.653675393046
 11
544.444098803886
 21
100.203938880276
  0
LINE
  8
画層9
  6
CONTINUOUS
 10
531.998385301448
 20
112.653675393046
 11
544.445714504796
 21
100.202322657099
  0
LINE
  8
画層9
  6
CONTINUOUS
 10
542.324736986253
 20
102.323985770282
 11
535.249185893891
 21
95.2507210729058
  0
POLYLINE
  8
画層9
  6
CONTINUOUS
 10
0.0
 20
0.0
 30
0.0
 66
1
 70
     1
  0
VERTEX
  8
画層9
 10
542.324736986253
  20
102.323985770282
  0
VERTEX
  8
画層9
 10
541.574527076416
  20
101.025068878721
  0
VERTEX
  8
画層9
 10
541.025577700383
  20
101.574195699704
  0
SEQEND
100
AcDbEntity
  8
画層9
  0
POLYLINE
  8
画層9
  6
CONTINUOUS
 10
0.0
 20
0.0
 30
0.0
 66
1
 70
     1
  0
VERTEX
  8
画層9
 10
535.249185893891
  20
95.2507210729058
  0
VERTEX
  8
画層9
 10
535.999395803728
  20
96.5496379644665
  0
VERTEX
  8
画層9
 10
536.548345179761
  20
96.0005111434834
  0
SEQEND
100
AcDbEntity
  8
画層9
  0
TEXT
  8
画層9
 62
7
  6
CONTINUOUS
 62
7
 10
534.720497606026
 20
95.0756998970316
 40
10
  1
10
  7
Font_0
 50
44.9907412193474
 72
1
 11
531.54028825172
 21
106.0363690583
 73
3
  0
LINE
  8
画層9
  6
CONTINUOUS
 10
524.922834209085
 20
105.58041069567
 11
537.370163412433
 21
93.1290579597234
  0
LINE
  8
画層9
  6
CONTINUOUS
 10
523.508620665177
 20
105.580639227217
 11
486.836913669016
 21
68.9207823337456
  0
LINE
  8
画層9
  6
CONTINUOUS
 10
488.958576782199
 20
71.0417598522878
 11
492.493662017889
 21
67.5055319192005
  0
POLYLINE
  8
画層9
  6
CONTINUOUS
 10
0.0
 20
0.0
 30
0.0
 66
1
 70
     1
  0
VERTEX
  8
画層9
 10
488.958576782199
  20
71.0417598522878
  0
VERTEX
  8
画層9
 10
490.257493673759
  20
70.2915499424504
  0
VERTEX
  8
画層9
 10
489.708366852776
  20
69.7426005664174
  0
SEQEND
100
AcDbEntity
  8
画層9
  0
POLYLINE
  8
画層9
  6
CONTINUOUS
 10
0.0
 20
0.0
 30
0.0
 66
1
 70
     1
  0
VERTEX
  8
画層9
 10
492.493662017889
  20
67.5055319192005
  0
VERTEX
  8
画層9
 10
491.194745126328
  20
68.2557418290378
  0
VERTEX
  8
画層9
 10
491.743871947311
  20
68.8046912050708
  0
SEQEND
100
AcDbEntity
  8
画層9
  0
TEXT
  8
画層9
 62
7
  6
CONTINUOUS
 62
7
 10
489.135443394024
 20
71.2184466066079
 40
10
  1
5
  7
Font_0
 50
314.990741219347
 72
1
 11
497.97513503675
 21
76.5203190740966
 73
3
  0
LINE
  8
画層9
  6
CONTINUOUS
 10
527.043705900867
 20
102.044411294129
 11
490.371998904706
 21
65.3845544006583
  0
CIRCLE
  8
画層5
  6
CONTINUOUS
 10
295.00475602414
 20
330
 40
1.49747861080067
  0
CIRCLE
  8
画層5
  6
CONTINUOUS
 10
265.005722274852
 20
330
 40
1.49747861080067
  0
CIRCLE
  8
画層5
  6
CONTINUOUS
 10
555.004580514641
 20
330
 40
1.49747861080067
  0
CIRCLE
  8
画層5
  6
CONTINUOUS
 10
585.002806035034
 20
330
 40
1.49747861080067
  0
CIRCLE
  8
画層5
  6
CONTINUOUS
 10
585.002806035034
 20
180
 40
1.49747861080067
  0
CIRCLE
  8
画層5
  6
CONTINUOUS
 10
555.004580514641
 20
180
 40
1.49747861080067
  0
CIRCLE
  8
画層5
  6
CONTINUOUS
 10
265.005722274852
 20
180
 40
1.49747861080067
  0
CIRCLE
  8
画層5
  6
CONTINUOUS
 10
295.00475602414
 20
180
 40
1.49747861080067
  0
LINE
  8
画層9
  6
CONTINUOUS
 10
342.505452268893
 20
402.493718381116
 11
342.502822337123
 21
482.995181362297
  0
LINE
  8
画層9
  6
CONTINUOUS
 10
342.502920345221
 20
479.995181363898
 11
507.496143930967
 21
480.000571587932
  0
POLYLINE
  8
画層9
  6
CONTINUOUS
 10
0.0
 20
0.0
 30
0.0
 66
1
 70
     1
  0
VERTEX
  8
画層9
 10
342.502920345221
  20
479.995181363898
  0
VERTEX
  8
画層9
 10
343.9517964007
  20
480.383457265621
  0
VERTEX
  8
画層9
 10
343.951821767063
  20
479.607000130728
  0
SEQEND
100
AcDbEntity
  8
画層9
  0
POLYLINE
  8
画層9
  6
CONTINUOUS
 10
0.0
 20
0.0
 30
0.0
 66
1
 70
     1
  0
VERTEX
  8
画層9
 10
507.496143930967
  20
480.000571587932
  0
VERTEX
  8
画層9
 10
506.047267875488
  20
479.612295686209
  0
VERTEX
  8
画層9
 10
506.047242509126
  20
480.388752821102
  0
SEQEND
100
AcDbEntity
  8
画層9
  0
TEXT
  8
画層9
 62
7
  6
CONTINUOUS
 62
7
 10
416.499523975289
 20
480.247598786169
 40
10
  1
165
  7
Font_0
 50
0.00187181679951066
 72
1
 11
424.999197277091
 21
490.247876470445
 73
3
  0
LINE
  8
画層9
  6
CONTINUOUS
 10
507.498675854639
 20
402.49910860515
 11
507.496045922869
 21
483.000571586332
  0
LINE
  8
画層9
  6
CONTINUOUS
 10
522.497663147269
 20
348.502087767994
 11
522.497663147269
 21
503
  0
LINE
  8
画層9
  6
CONTINUOUS
 10
522.497663147269
 20
500
 11
327.507185974146
 21
500
  0
POLYLINE
  8
画層9
  6
CONTINUOUS
 10
0.0
 20
0.0
 30
0.0
 66
1
 70
     1
  0
VERTEX
  8
画層9
 10
522.497663147269
  20
500
  0
VERTEX
  8
画層9
 10
521.048774407836
  20
499.611771432346
  0
VERTEX
  8
画層9
 10
521.048774407836
  20
500.388228567654
  0
SEQEND
100
AcDbEntity
  8
画層9
  0
POLYLINE
  8
画層9
  6
CONTINUOUS
 10
0.0
 20
0.0
 30
0.0
 66
1
 70
     1
  0
VERTEX
  8
画層9
 10
327.507185974146
  20
500
  0
VERTEX
  8
画層9
 10
328.95607471358
  20
500.388228567654
  0
VERTEX
  8
画層9
 10
328.95607471358
  20
499.611771432346
  0
SEQEND
100
AcDbEntity
  8
画層9
  0
TEXT
  8
画層9
 62
7
  6
CONTINUOUS
 62
7
 10
416.502424560708
 20
500.25
 40
10
  1
195
  7
Font_0
 72
1
 11
425.002424560708
 21
510.25
 73
3
  0
LINE
  8
画層9
  6
CONTINUOUS
 10
327.507185974146
 20
348.502087767994
 11
327.507185974146
 21
503
  0
LINE
  8
画層9
  6
CONTINUOUS
 10
288.50998031435
 20
348.502087767994
 11
288.50998031435
 21
523
  0
LINE
  8
画層9
  6
CONTINUOUS
 10
288.50998031435
 20
520
 11
561.501274787797
 21
520
  0
POLYLINE
  8
画層9
  6
CONTINUOUS
 10
0.0
 20
0.0
 30
0.0
 66
1
 70
     1
  0
VERTEX
  8
画層9
 10
288.50998031435
  20
520
  0
VERTEX
  8
画層9
 10
289.958869053784
  20
520.388228567654
  0
VERTEX
  8
画層9
 10
289.958869053784
  20
519.611771432346
  0
SEQEND
100
AcDbEntity
  8
画層9
  0
POLYLINE
  8
画層9
  6
CONTINUOUS
 10
0.0
 20
0.0
 30
0.0
 66
1
 70
     1
  0
VERTEX
  8
画層9
 10
561.501274787797
  20
520
  0
VERTEX
  8
画層9
 10
560.052386048363
  20
519.611771432346
  0
VERTEX
  8
画層9
 10
560.052386048363
  20
520.388228567654
  0
SEQEND
100
AcDbEntity
  8
画層9
  0
TEXT
  8
画層9
 62
7
  6
CONTINUOUS
 62
7
 10
416.505627551073
 20
520.25
 40
10
  1
273
  7
Font_0
 72
1
 11
425.005627551073
 21
530.25
 73
3
  0
LINE
  8
画層9
  6
CONTINUOUS
 10
561.501274787797
 20
348.502087767994
 11
561.501274787797
 21
523
  0
LINE
  8
画層9
  6
CONTINUOUS
 10
573.727371791303
 20
355.190492943697
 11
590
 21
380
  0
POLYLINE
  8
画層9
  6
CONTINUOUS
 10
0.0
 20
0.0
 30
0.0
 66
1
 70
     1
  0
VERTEX
  8
画層9
 10
573.727371791303
  20
355.190492943697
  0
VERTEX
  8
画層9
 10
574.667409480752
  20
358.039410131405
  0
VERTEX
  8
画層9
 10
575.965926904734
  20
357.187708756806
  0
SEQEND
100
AcDbEntity
  8
画層9
  0
LINE
  8
画層9
  6
CONTINUOUS
 10
590
 20
380
 11
620
 21
380
  0
TEXT
  8
画層9
 62
7
  6
CONTINUOUS
 62
7
 10
600
 20
380
 40
10
  1
M2
  7
Font_0
 11
600
 21
390
 73
3
  0
CIRCLE
  8
画層11
  6
CONTINUOUS
 10
425
 20
385.002914603745
 40
19.0021196913892
  0
CIRCLE
  8
画層5
  6
CONTINUOUS
 10
447.751739751969
 20
385.002914603745
 40
1.50114585100812
  0
CIRCLE
  8
画層5
  6
CONTINUOUS
 10
402.250286535505
 20
385.002914603745
 40
1.50114585100812
  0
CIRCLE
  8
画層5
  6
CONTINUOUS
 10
425
 20
407.753551926521
 40
1.50114585100812
  0
CIRCLE
  8
画層5
  6
CONTINUOUS
 10
425
 20
362.257251124222
 40
1.50114585100812
  0
CIRCLE
  8
画層11
  6
CONTINUOUS
 10
424.998986856263
 20
124.993355301202
 40
19.0021196913892
  0
CIRCLE
  8
画層5
  6
CONTINUOUS
 10
447.750726608232
 20
124.993355301202
 40
1.50114585100812
  0
CIRCLE
  8
画層5
  6
CONTINUOUS
 10
402.249273391768
 20
124.993355301202
 40
1.50114585100812
  0
CIRCLE
  8
画層5
  6
CONTINUOUS
 10
424.998986856263
 20
147.743992623978
 40
1.50114585100812
  0
CIRCLE
  8
画層5
  6
CONTINUOUS
 10
424.998986856263
 20
102.247691821679
 40
1.50114585100812
  0
LINE
  8
画層9
  6
CONTINUOUS
 10
405.997880308611
 20
386.002914603745
 11
405.997880308611
 21
443
  0
LINE
  8
画層9
  6
CONTINUOUS
 10
405.997880308611
 20
440
 11
444.002119691389
 21
440
  0
POLYLINE
  8
画層9
  6
CONTINUOUS
 10
0.0
 20
0.0
 30
0.0
 66
1
 70
     1
  0
VERTEX
  8
画層9
 10
405.997880308611
  20
440
  0
VERTEX
  8
画層9
 10
407.446769048044
  20
440.388228567654
  0
VERTEX
  8
画層9
 10
407.446769048044
  20
439.611771432346
  0
SEQEND
100
AcDbEntity
  8
画層9
  0
POLYLINE
  8
画層9
  6
CONTINUOUS
 10
0.0
 20
0.0
 30
0.0
 66
1
 70
     1
  0
VERTEX
  8
画層9
 10
444.002119691389
  20
440
  0
VERTEX
  8
画層9
 10
442.553230951956
  20
439.611771432346
  0
VERTEX
  8
画層9
 10
442.553230951956
  20
440.388228567654
  0
SEQEND
100
AcDbEntity
  8
画層9
  0
TEXT
  8
画層9
 62
7
  6
CONTINUOUS
 62
7
 10
419.5
 20
440.25
 40
10
  1
38
  7
Font_0
 72
1
 11
425
 21
450.25
 73
3
  0
LINE
  8
画層9
  6
CONTINUOUS
 10
444.002119691389
 20
386.002914603745
 11
444.002119691389
 21
443
  0
LINE
  8
画層9
  6
CONTINUOUS
 10
402.250286535505
 20
386.002914603745
 11
402.250286535505
 21
463
  0
LINE
  8
画層9
  6
CONTINUOUS
 10
402.250286535505
 20
460
 11
447.751739751969
 21
460
  0
POLYLINE
  8
画層9
  6
CONTINUOUS
 10
0.0
 20
0.0
 30
0.0
 66
1
 70
     1
  0
VERTEX
  8
画層9
 10
402.250286535505
  20
460
  0
VERTEX
  8
画層9
 10
403.699175274939
  20
460.388228567654
  0
VERTEX
  8
画層9
 10
403.699175274939
  20
459.611771432346
  0
SEQEND
100
AcDbEntity
  8
画層9
  0
POLYLINE
  8
画層9
  6
CONTINUOUS
 10
0.0
 20
0.0
 30
0.0
 66
1
 70
     1
  0
VERTEX
  8
画層9
 10
447.751739751969
  20
460
  0
VERTEX
  8
画層9
 10
446.302851012536
  20
459.611771432346
  0
VERTEX
  8
画層9
 10
446.302851012536
  20
460.388228567654
  0
SEQEND
100
AcDbEntity
  8
画層9
  0
TEXT
  8
画層9
 62
7
  6
CONTINUOUS
 62
7
 10
413.501013143737
 20
460.25
 40
10
  1
45.5
  7
Font_0
 72
1
 11
425.001013143737
 21
470.25
 73
3
  0
LINE
  8
画層9
  6
CONTINUOUS
 10
447.751739751969
 20
386.002914603745
 11
447.751739751969
 21
463
  0
LINE
  8
画層9
  6
CONTINUOUS
 10
424.000000000011
 20
362.257255847211
 11
237.000671883577
 21
362.25813904296
  0
LINE
  8
画層9
  6
CONTINUOUS
 10
240.000671883544
 20
362.258124873994
 11
239.999658739806
 21
147.74486637375
  0
POLYLINE
  8
画層9
  6
CONTINUOUS
 10
0.0
 20
0.0
 30
0.0
 66
1
 70
     1
  0
VERTEX
  8
画層9
 10
240.000671883544
  20
362.258124873994
  0
VERTEX
  8
画層9
 10
240.388893608108
  20
360.809234300977
  0
VERTEX
  8
画層9
 10
239.612436472809
  20
360.809237968175
  0
SEQEND
100
AcDbEntity
  8
画層9
  0
POLYLINE
  8
画層9
  6
CONTINUOUS
 10
0.0
 20
0.0
 30
0.0
 66
1
 70
     1
  0
VERTEX
  8
画層9
 10
239.999658739806
  20
147.74486637375
  0
VERTEX
  8
画層9
 10
239.611437015242
  20
149.193756946767
  0
VERTEX
  8
画層9
 10
240.387894150541
  20
149.193753279568
  0
SEQEND
100
AcDbEntity
  8
画層9
  0
TEXT
  8
画層9
 62
7
  6
CONTINUOUS
 62
7
 10
239.750096828339
 20
240.501496804781
 40
10
  1
214.5
  7
Font_0
 50
89.9997293926697
 72
1
 11
229.750165311789
 21
255.001544034508
 73
3
  0
LINE
  8
画層9
  6
CONTINUOUS
 10
423.998986856274
 20
147.743997346967
 11
236.99965873984
 21
147.744880542717
  0
LINE
  8
画層9
  6
CONTINUOUS
 10
423.998986856273
 20
143.995479556193
 11
216.999105517821
 21
143.996424221093
  0
LINE
  8
画層9
  6
CONTINUOUS
 10
219.99910551779
 20
143.996410530289
 11
220.000118661527
 21
366.001730450054
  0
POLYLINE
  8
画層9
  6
CONTINUOUS
 10
0.0
 20
0.0
 30
0.0
 66
1
 70
     1
  0
VERTEX
  8
画層9
 10
219.99910551779
  20
143.996410530289
  0
VERTEX
  8
画層9
 10
219.610883562291
  20
145.445301041428
  0
VERTEX
  8
画層9
 10
220.38734069759
  20
145.445297497988
  0
SEQEND
100
AcDbEntity
  8
画層9
  0
POLYLINE
  8
画層9
  6
CONTINUOUS
 10
0.0
 20
0.0
 30
0.0
 66
1
 70
     1
  0
VERTEX
  8
画層9
 10
220.000118661527
  20
366.001730450054
  0
VERTEX
  8
画層9
 10
220.388340617027
  20
364.552839938915
  0
VERTEX
  8
画層9
 10
219.611883481727
  20
364.552843482356
  0
SEQEND
100
AcDbEntity
  8
画層9
  0
TEXT
  8
画層9
 62
7
  6
CONTINUOUS
 62
7
 10
219.749573299051
 20
246.499071631161
 40
10
  1
222
  7
Font_0
 50
89.9997385249137
 72
1
 11
209.749612089766
 21
254.999117267084
 73
3
  0
LINE
  8
画層9
  6
CONTINUOUS
 10
424.00000000001
 20
366.000799475958
 11
217.000118661559
 21
366.001744140858
  0
LINE
  8
画層9
  6
CONTINUOUS
 10
401.250286535513
 20
385.002918500309
 11
197.000837775586
 21
385.003714371239
  0
LINE
  8
画層9
  6
CONTINUOUS
 10
200.000837775563
 20
385.003702681549
 11
199.999824631825
 21
124.994143379006
  0
POLYLINE
  8
画層9
  6
CONTINUOUS
 10
0.0
 20
0.0
 30
0.0
 66
1
 70
     1
  0
VERTEX
  8
画層9
 10
200.000837775563
  20
385.003702681549
  0
VERTEX
  8
画層9
 10
200.389060697527
  20
383.554812429369
  0
VERTEX
  8
画層9
 10
199.612603562225
  20
383.554815454884
  0
SEQEND
100
AcDbEntity
  8
画層9
  0
POLYLINE
  8
画層9
  6
CONTINUOUS
 10
0.0
 20
0.0
 30
0.0
 66
1
 70
     1
  0
VERTEX
  8
画層9
 10
199.999824631825
  20
124.994143379006
  0
VERTEX
  8
画層9
 10
199.611601709861
  20
126.443033631186
  0
VERTEX
  8
画層9
 10
200.388058845163
  20
126.443030605671
  0
SEQEND
100
AcDbEntity
  8
画層9
  0
TEXT
  8
画層9
 62
7
  6
CONTINUOUS
 62
7
 10
199.750298082907
 20
246.498924004483
 40
10
  1
260
  7
Font_0
 50
89.9997767433615
 72
1
 11
189.750331203772
 21
254.998962970052
 73
3
  0
LINE
  8
画層9
  6
CONTINUOUS
 10
401.249273391776
 20
124.993359197766
 11
196.999824631848
 21
124.994155068696
  0
LINE
  8
画層9
  6
CONTINUOUS
 10
423.998986856268
 20
105.991239009467
 11
176.999102464455
 21
105.992078723558
  0
LINE
  8
画層9
  6
CONTINUOUS
 10
179.999102464438
 20
105.992068524596
 11
180.000115608175
 21
404.005867209918
  0
POLYLINE
  8
画層9
  6
CONTINUOUS
 10
0.0
 20
0.0
 30
0.0
 66
1
 70
     1
  0
VERTEX
  8
画層9
 10
179.999102464438
  20
105.992068524596
  0
VERTEX
  8
画層9
 10
179.610878822506
  20
107.440958583864
  0
VERTEX
  8
画層9
 10
180.387335957809
  20
107.440955944179
  0
SEQEND
100
AcDbEntity
  8
画層9
  0
POLYLINE
  8
画層9
  6
CONTINUOUS
 10
0.0
 20
0.0
 30
0.0
 66
1
 70
     1
  0
VERTEX
  8
画層9
 10
180.000115608175
  20
404.005867209918
  0
VERTEX
  8
画層9
 10
180.388339250106
  20
402.55697715065
  0
VERTEX
  8
画層9
 10
179.611882114803
  20
402.556979790335
  0
SEQEND
100
AcDbEntity
  8
画層9
  0
TEXT
  8
画層9
 62
7
  6
CONTINUOUS
 62
7
 10
179.749580139251
 20
246.49896871722
 40
10
  1
298
  7
Font_0
 50
89.9998052141866
 72
1
 11
169.749609036366
 21
254.999002713708
 73
3
  0
LINE
  8
画層9
  6
CONTINUOUS
 10
424.000000000006
 20
404.005037694788
 11
177.000115608192
 21
404.005877408879
  0
LINE
  8
画層9
  6
CONTINUOUS
 10
423.998986856268
 20
102.247695137961
 11
156.999145223462
 21
102.248580584863
  0
LINE
  8
画層9
  6
CONTINUOUS
 10
159.999145223446
 20
102.248570636016
 11
160.000158367183
 21
407.754430740858
  0
POLYLINE
  8
画層9
  6
CONTINUOUS
 10
0.0
 20
0.0
 30
0.0
 66
1
 70
     1
  0
VERTEX
  8
画層9
 10
159.999145223446
  20
102.248570636016
  0
VERTEX
  8
画層9
 10
159.610921460718
  20
103.697460662917
  0
VERTEX
  8
画層9
 10
160.387378596022
  20
103.697458087966
  0
SEQEND
100
AcDbEntity
  8
画層9
  0
POLYLINE
  8
画層9
  6
CONTINUOUS
 10
0.0
 20
0.0
 30
0.0
 66
1
 70
     1
  0
VERTEX
  8
画層9
 10
160.000158367183
  20
407.754430740858
  0
VERTEX
  8
画層9
 10
160.38838212991
  20
406.305540713957
  0
VERTEX
  8
画層9
 10
159.611924994607
  20
406.305543288908
  0
SEQEND
100
AcDbEntity
  8
画層9
  0
TEXT
  8
画層9
 62
7
  6
CONTINUOUS
 62
7
 10
159.749603709219
 20
240.501501517587
 40
10
  1
305.5
  7
Font_0
 50
89.9998099910091
 72
1
 11
149.749651795371
 21
255.001534680333
 73
3
  0
LINE
  8
画層9
  6
CONTINUOUS
 10
424.000000000006
 20
407.753555242804
 11
157.000158367199
 21
407.754440689706
  0
LINE
  8
画層9
  6
CONTINUOUS
 10
447.751739751969
 20
386.504060454754
 11
480
 21
440
  0
POLYLINE
  8
画層9
  6
CONTINUOUS
 10
0.0
 20
0.0
 30
0.0
 66
1
 70
     1
  0
VERTEX
  8
画層9
 10
447.751739751969
  20
386.504060454754
  0
VERTEX
  8
画層9
 10
448.58279254366
  20
389.386654990484
  0
VERTEX
  8
画層9
 10
449.912749849325
  20
388.584934155661
  0
SEQEND
100
AcDbEntity
  8
画層9
  0
LINE
  8
画層9
  6
CONTINUOUS
 10
480
 20
440
 11
500
 21
440
  0
LINE
  8
画層9
  6
CONTINUOUS
 10
460
 20
426.005763739332
 11
480
 21
460
  0
POLYLINE
  8
画層9
  6
CONTINUOUS
 10
0.0
 20
0.0
 30
0.0
 66
1
 70
     1
  0
VERTEX
  8
画層9
 10
460
  20
426.005763739332
  0
VERTEX
  8
画層9
 10
460.800190761975
  20
428.89707741039
  0
VERTEX
  8
画層9
 10
462.138642363273
  20
428.10961944779
  0
SEQEND
100
AcDbEntity
  8
画層9
  0
LINE
  8
画層9
  6
CONTINUOUS
 10
480
 20
460
 11
500
 21
460
  0
TEXT
  8
画層9
 62
7
  6
CONTINUOUS
 62
7
 10
490
 20
460
 40
10
  1
M2
  7
Font_0
 11
490
 21
470
 73
3
  0
LINE
  8
画層0
  6
CONTINUOUS
 10
470
 20
20
 11
590
 21
20
  0
LINE
  8
画層0
  6
CONTINUOUS
 10
470
 20
10
 11
590
 21
10
  0
TEXT
  8
画層0
 62
7
  6
CONTINUOUS
 62
7
 10
474.495494577204
 20
11.1603710114503
 40
7
  1
上下斜端のネジ穴はM2、その他はM3
  7
Font_0
 11
474.495494577204
 21
18.1603710114503
 73
3
  0
POLYLINE
  8
画層0
  6
CONTINUOUS
 10
0.0
 20
0.0
 30
0.0
 66
1
 70
     1
  0
VERTEX
  8
画層0
 10
470
  20
30
  0
VERTEX
  8
画層0
 10
590
  20
30
  0
VERTEX
  8
画層0
 10
590
  20
0
  0
VERTEX
  8
画層0
 10
470
  20
-1.46952762458685E-14
  0
SEQEND
100
AcDbEntity
  8
画層0
  0
TEXT
  8
画層9
 62
7
  6
CONTINUOUS
 62
7
 10
480
 20
440
 40
10
  1
3キリ
  7
Font_0
 11
480
 21
450
 73
3
  0
LINE
  8
画層0
  6
CONTINUOUS
 10
590
 20
0
 11
590
 21
-10
  0
LINE
  8
画層0
  6
CONTINUOUS
 10
590
 20
-10
 11
470
 21
-10
  0
ARC
  8
画層5
  6
CONTINUOUS
 10
317.502906825184
 20
294.998079936537
 40
2.00207788368556
 50
89.9999999999998
 51
-89.9999999999999
  0
ARC
  8
画層5
  6
CONTINUOUS
 10
317.502906825184
 20
279.99940495437
 40
2.00227041135184
 50
90
 51
-89.9999999999999
  0
ARC
  8
画層5
  6
CONTINUOUS
 10
342.503342509209
 20
294.998079936537
 40
2.00207788368556
 50
-90.0000000000002
 51
89.9999999999998
  0
ARC
  8
画層5
  6
CONTINUOUS
 10
342.503342509209
 20
279.999597482037
 40
2.00207788368556
 50
-90
 51
90
  0
LINE
  8
画層5
  6
CONTINUOUS
 10
317.502906825184
 20
297.000157820222
 11
342.503342509209
 21
297.000157820222
  0
LINE
  8
画層5
  6
CONTINUOUS
 10
317.502906825184
 20
292.996002052851
 11
342.503342509209
 21
292.996002052851
  0
LINE
  8
画層5
  6
CONTINUOUS
 10
317.502906825184
 20
282.001675365722
 11
342.503342509209
 21
282.001675365722
  0
LINE
  8
画層5
  6
CONTINUOUS
 10
317.502906825184
 20
277.997134543019
 11
342.503342509209
 21
277.997519598351
  0
ARC
  8
画層5
  6
CONTINUOUS
 10
317.502906825184
 20
214.998091317667
 40
2.00207788368556
 50
90
 51
-90
  0
ARC
  8
画層5
  6
CONTINUOUS
 10
317.502906825184
 20
229.996766299833
 40
2.00227041135184
 50
90
 51
-90
  0
ARC
  8
画層5
  6
CONTINUOUS
 10
342.503342509209
 20
214.998091317667
 40
2.00207788368556
 50
-90
 51
90
  0
ARC
  8
画層5
  6
CONTINUOUS
 10
342.503342509209
 20
229.996573772167
 40
2.00207788368556
 50
-90
 51
90
  0
LINE
  8
画層5
  6
CONTINUOUS
 10
317.502906825184
 20
212.996013433982
 11
342.503342509209
 21
212.996013433982
  0
LINE
  8
画層5
  6
CONTINUOUS
 10
317.502906825184
 20
217.000169201353
 11
342.503342509209
 21
217.000169201353
  0
LINE
  8
画層5
  6
CONTINUOUS
 10
317.502906825184
 20
227.994495888482
 11
342.503342509209
 21
227.994495888482
  0
LINE
  8
画層5
  6
CONTINUOUS
 10
317.502906825184
 20
231.999036711185
 11
342.503342509209
 21
231.998651655853
  0
ARC
  8
画層5
  6
CONTINUOUS
 10
532.504631667311
 20
294.998079936537
 40
2.00207788368556
 50
-90
 51
90
  0
ARC
  8
画層5
  6
CONTINUOUS
 10
532.504631667311
 20
279.99940495437
 40
2.00227041135184
 50
-90
 51
90
  0
ARC
  8
画層5
  6
CONTINUOUS
 10
507.504195983287
 20
294.998079936537
 40
2.00207788368556
 50
90
 51
-90
  0
ARC
  8
画層5
  6
CONTINUOUS
 10
507.504195983287
 20
279.999597482037
 40
2.00207788368556
 50
90
 51
-90
  0
LINE
  8
画層5
  6
CONTINUOUS
 10
532.504631667311
 20
297.000157820222
 11
507.504195983287
 21
297.000157820222
  0
LINE
  8
画層5
  6
CONTINUOUS
 10
532.504631667311
 20
292.996002052851
 11
507.504195983287
 21
292.996002052851
  0
LINE
  8
画層5
  6
CONTINUOUS
 10
532.504631667311
 20
282.001675365722
 11
507.504195983287
 21
282.001675365722
  0
LINE
  8
画層5
  6
CONTINUOUS
 10
532.504631667311
 20
277.997134543019
 11
507.504195983287
 21
277.997519598351
  0
ARC
  8
画層5
  6
CONTINUOUS
 10
532.504631667311
 20
214.998091317667
 40
2.00207788368556
 50
-90
 51
90
  0
ARC
  8
画層5
  6
CONTINUOUS
 10
532.504631667311
 20
229.996766299833
 40
2.00227041135184
 50
-90
 51
90
  0
ARC
  8
画層5
  6
CONTINUOUS
 10
507.504195983287
 20
214.998091317667
 40
2.00207788368556
 50
90
 51
-90
  0
ARC
  8
画層5
  6
CONTINUOUS
 10
507.504195983287
 20
229.996573772167
 40
2.00207788368556
 50
90
 51
-90
  0
LINE
  8
画層5
  6
CONTINUOUS
 10
532.504631667311
 20
212.996013433982
 11
507.504195983287
 21
212.996013433982
  0
LINE
  8
画層5
  6
CONTINUOUS
 10
532.504631667311
 20
217.000169201353
 11
507.504195983287
 21
217.000169201353
  0
LINE
  8
画層5
  6
CONTINUOUS
 10
532.504631667311
 20
227.994495888482
 11
507.504195983287
 21
227.994495888482
  0
LINE
  8
画層5
  6
CONTINUOUS
 10
532.504631667311
 20
231.999036711185
 11
507.504195983287
 21
231.998651655853
  0
CIRCLE
  8
画層5
  6
CONTINUOUS
 10
317.502906825184
 20
307.493648419899
 40
1.50114585100812
  0
CIRCLE
  8
画層5
  6
CONTINUOUS
 10
332.500616481085
 20
307.493648419899
 40
1.50114585100812
  0
CIRCLE
  8
画層5
  6
CONTINUOUS
 10
347.504564856581
 20
307.493648419899
 40
1.50114585100812
  0
CIRCLE
  8
画層5
  6
CONTINUOUS
 10
362.499970264713
 20
307.493648419899
 40
1.50114585100812
  0
CIRCLE
  8
画層5
  6
CONTINUOUS
 10
362.499970264713
 20
322.496602370964
 40
1.50114585100812
  0
CIRCLE
  8
画層5
  6
CONTINUOUS
 10
347.504564856581
 20
322.496602370964
 40
1.50114585100812
  0
CIRCLE
  8
画層5
  6
CONTINUOUS
 10
347.504564856581
 20
262.495974783109
 40
1.50114585100812
  0
CIRCLE
  8
画層5
  6
CONTINUOUS
 10
362.499970264713
 20
262.495974783109
 40
1.50114585100812
  0
CIRCLE
  8
画層5
  6
CONTINUOUS
 10
347.504564856581
 20
247.499013237275
 40
1.50114585100812
  0
CIRCLE
  8
画層5
  6
CONTINUOUS
 10
362.499970264713
 20
247.496575403198
 40
1.50114585100812
  0
CIRCLE
  8
画層5
  6
CONTINUOUS
 10
317.502906825184
 20
202.504939425672
 40
1.50114585100812
  0
CIRCLE
  8
画層5
  6
CONTINUOUS
 10
332.500616481085
 20
202.504939425672
 40
1.50114585100812
  0
CIRCLE
  8
画層5
  6
CONTINUOUS
 10
347.504564856581
 20
202.503167650971
 40
1.50114585100812
  0
CIRCLE
  8
画層5
  6
CONTINUOUS
 10
362.499970264713
 20
202.502207894557
 40
1.50114585100812
  0
CIRCLE
  8
画層5
  6
CONTINUOUS
 10
362.499970264713
 20
187.502161824606
 40
1.50114585100812
  0
CIRCLE
  8
画層5
  6
CONTINUOUS
 10
347.504564856581
 20
187.502161824606
 40
1.50114585100812
  0
CIRCLE
  8
画層5
  6
CONTINUOUS
 10
407.507311058499
 20
307.493648419899
 40
1.50114585100812
  0
CIRCLE
  8
画層5
  6
CONTINUOUS
 10
392.504453997318
 20
307.493648419899
 40
1.50114585100812
  0
CIRCLE
  8
画層5
  6
CONTINUOUS
 10
392.504453997318
 20
202.504939425672
 40
1.50114585100812
  0
CIRCLE
  8
画層5
  6
CONTINUOUS
 10
407.507311058499
 20
202.504939425672
 40
1.50114585100812
  0
CIRCLE
  8
画層5
  6
CONTINUOUS
 10
442.51679451265
 20
307.493648419899
 40
1.50114585100812
  0
CIRCLE
  8
画層5
  6
CONTINUOUS
 10
457.513261345705
 20
307.493648419899
 40
1.50114585100812
  0
CIRCLE
  8
画層5
  6
CONTINUOUS
 10
517.506871614843
 20
307.493648419899
 40
1.50114585100812
  0
CIRCLE
  8
画層5
  6
CONTINUOUS
 10
532.504631667311
 20
307.493648419899
 40
1.50114585100812
  0
CIRCLE
  8
画層5
  6
CONTINUOUS
 10
502.505248864922
 20
322.496602370964
 40
1.50114585100812
  0
CIRCLE
  8
画層5
  6
CONTINUOUS
 10
487.508650283423
 20
322.496602370964
 40
1.50114585100812
  0
CIRCLE
  8
画層5
  6
CONTINUOUS
 10
487.508650283423
 20
307.493648419899
 40
1.50114585100812
  0
CIRCLE
  8
画層5
  6
CONTINUOUS
 10
502.505248864922
 20
307.493648419899
 40
1.50114585100812
  0
CIRCLE
  8
画層5
  6
CONTINUOUS
 10
487.508650283423
 20
262.495974783109
 40
1.50114585100812
  0
CIRCLE
  8
画層5
  6
CONTINUOUS
 10
502.505248864922
 20
262.495974783109
 40
1.50114585100812
  0
CIRCLE
  8
画層5
  6
CONTINUOUS
 10
502.505248864922
 20
247.500196471095
 40
1.50114585100812
  0
CIRCLE
  8
画層5
  6
CONTINUOUS
 10
487.508650283423
 20
247.500196471095
 40
1.50114585100812
  0
CIRCLE
  8
画層5
  6
CONTINUOUS
 10
532.504631667311
 20
202.497438869351
 40
1.50114585100812
  0
CIRCLE
  8
画層5
  6
CONTINUOUS
 10
517.506871614843
 20
202.504939425672
 40
1.50114585100812
  0
CIRCLE
  8
画層5
  6
CONTINUOUS
 10
502.505248864922
 20
202.504939425672
 40
1.50114585100812
  0
CIRCLE
  8
画層5
  6
CONTINUOUS
 10
487.508650283423
 20
202.504939425672
 40
1.50114585100812
  0
CIRCLE
  8
画層5
  6
CONTINUOUS
 10
487.508650283423
 20
187.502161824606
 40
1.50114585100812
  0
CIRCLE
  8
画層5
  6
CONTINUOUS
 10
502.505248864922
 20
187.502161824606
 40
1.50114585100812
  0
CIRCLE
  8
画層5
  6
CONTINUOUS
 10
457.513261345705
 20
202.504939425672
 40
1.50114585100812
  0
CIRCLE
  8
画層5
  6
CONTINUOUS
 10
442.51679451265
 20
202.504939425672
 40
1.50114585100812
  0
CIRCLE
  8
画層5
  6
CONTINUOUS
 10
402.502732244067
 20
162.487982280684
 40
1.50114585100812
  0
CIRCLE
  8
画層5
  6
CONTINUOUS
 10
357.503783902371
 20
147.490046399679
 40
1.50114585100812
  0
CIRCLE
  8
画層5
  6
CONTINUOUS
 10
372.50283032319
 20
147.490046399679
 40
1.50114585100812
  0
CIRCLE
  8
画層5
  6
CONTINUOUS
 10
372.50283032319
 20
117.494311889596
 40
1.50114585100812
  0
CIRCLE
  8
画層5
  6
CONTINUOUS
 10
357.503783902371
 20
117.494311889596
 40
1.50114585100812
  0
CIRCLE
  8
画層5
  6
CONTINUOUS
 10
402.502732244067
 20
102.495738250105
 40
1.50114585100812
  0
CIRCLE
  8
画層5
  6
CONTINUOUS
 10
447.496121965571
 20
102.495738250105
 40
1.50114585100812
  0
CIRCLE
  8
画層5
  6
CONTINUOUS
 10
447.496121965571
 20
162.487982280684
 40
1.50114585100812
  0
CIRCLE
  8
画層5
  6
CONTINUOUS
 10
492.499753900742
 20
147.490046399679
 40
1.50114585100812
  0
CIRCLE
  8
画層5
  6
CONTINUOUS
 10
477.498291058679
 20
147.490046399679
 40
1.50114585100812
  0
CIRCLE
  8
画層5
  6
CONTINUOUS
 10
477.498291058679
 20
117.494311889596
 40
1.50114585100812
  0
CIRCLE
  8
画層5
  6
CONTINUOUS
 10
492.499753900742
 20
117.494311889596
 40
1.50114585100812
  0
CIRCLE
  8
画層5
  6
CONTINUOUS
 10
447.496121965571
 20
347.502087767994
 40
1.50114585100812
  0
CIRCLE
  8
画層5
  6
CONTINUOUS
 10
402.502732244067
 20
347.502087767994
 40
1.50114585100812
  0
CIRCLE
  8
画層5
  6
CONTINUOUS
 10
357.503783902371
 20
362.499955049102
 40
1.50114585100812
  0
CIRCLE
  8
画層5
  6
CONTINUOUS
 10
372.50283032319
 20
362.499955049102
 40
1.50114585100812
  0
CIRCLE
  8
画層5
  6
CONTINUOUS
 10
357.503783902371
 20
392.495503974282
 40
1.50114585100812
  0
CIRCLE
  8
画層5
  6
CONTINUOUS
 10
372.50283032319
 20
392.495503974282
 40
1.50114585100812
  0
CIRCLE
  8
画層5
  6
CONTINUOUS
 10
402.502732244067
 20
407.4965629891
 40
1.50114585100812
  0
CIRCLE
  8
画層5
  6
CONTINUOUS
 10
447.496121965571
 20
407.4965629891
 40
1.50114585100812
  0
CIRCLE
  8
画層5
  6
CONTINUOUS
 10
477.498291058679
 20
392.495503974282
 40
1.50114585100812
  0
CIRCLE
  8
画層5
  6
CONTINUOUS
 10
492.499753900742
 20
392.495503974282
 40
1.50114585100812
  0
CIRCLE
  8
画層5
  6
CONTINUOUS
 10
492.499753900742
 20
362.499955049102
 40
1.50114585100812
  0
CIRCLE
  8
画層5
  6
CONTINUOUS
 10
477.498291058679
 20
362.499955049102
 40
1.50114585100812
  0
ENDSEC
  0
EOF
