999
Outputted By AR_CAD Ver.1.4.1
  0
SECTION
  2
HEADER
  9
$ACADVER
  1
AC1009
  9
$DWGCODEPAGE
  3
DOS932
  9
$EXTMIN
 10
0
 20
0
  9
$EXTMAX
 10
297
 20
210
  9
$INSBASE
 10
0.0
 20
0.0
 30
0.0
  9
$HANDLING
 70
     1
  9
$LTSCALE
 40
1
  0
ENDSEC
  0
SECTION
  2
TABLES
  0
TABLE
  2
LTYPE
 70
     7
  0
LTYPE
  2
BYBLOCK
 70
    64
 3

 72
    65
 73
    0
 40
    0
  0
LTYPE
  2
BYLAYER
 70
    64
 3

 72
    65
 73
    0
 40
    0
  0
LTYPE
  2
CONTINUOUS
 70
    64
 3
CONTINUOUS
 72
    65
 73
    0
 40
    0
  0
LTYPE
  2
DASHED
 70
    64
 3

 72
    65
 73
    2
 40
    3.5
 49
    2.91666666666667
 49
    -0.583333333333333
  0
LTYPE
  2
DOT
 70
    64
 3

 72
    65
 73
    2
 40
    0.5
 49
    0.25
 49
    -0.25
  0
LTYPE
  2
DASHDOT
 70
    64
 3

 72
    65
 73
    4
 40
    3.5
 49
    1.84210526315789
 49
    -0.552631578947368
 49
    0.552631578947368
 49
    -0.552631578947368
  0
LTYPE
  2
DIVIDE
 70
    64
 3

 72
    65
 73
    6
 40
    3.5
 49
    1.4
 49
    -0.42
 49
    0.42
 49
    -0.42
 49
    0.42
 49
    -0.42
  0
LTYPE
  2
HIDDEN
 70
    64
 3

 72
    65
 73
    2
 40
    4
 49
    2
 49
    -2
  0
ENDTAB
  0
TABLE
  2
LAYER
 70
   257
  0
LAYER
  2
画層0
 70
    0
 62
-7
  6
CONTINUOUS
  0
LAYER
  2
画層1
 70
    0
 62
-3
  6
CONTINUOUS
  0
LAYER
  2
画層2
 70
    0
 62
-9
  6
CONTINUOUS
  0
LAYER
  2
画層3
 70
    0
 62
-7
  6
CONTINUOUS
  0
LAYER
  2
画層4
 70
    4
 62
7
  6
CONTINUOUS
  0
LAYER
  2
画層5
 70
    4
 62
7
  6
CONTINUOUS
  0
LAYER
  2
画層6
 70
    0
 62
-253
  6
CONTINUOUS
  0
LAYER
  2
画層7
 70
    0
 62
-7
  6
CONTINUOUS
  0
LAYER
  2
画層8
 70
    0
 62
-7
  6
CONTINUOUS
  0
LAYER
  2
画層9
 70
    4
 62
250
  6
CONTINUOUS
  0
LAYER
  2
画層10
 70
    0
 62
-190
  6
CONTINUOUS
  0
LAYER
  2
画層11
 70
    4
 62
7
  6
CONTINUOUS
  0
LAYER
  2
画層12
 70
    0
 62
-161
  6
CONTINUOUS
  0
LAYER
  2
画層13
 70
    0
 62
-5
  6
CONTINUOUS
  0
LAYER
  2
画層14
 70
    0
 62
-150
  6
CONTINUOUS
  0
LAYER
  2
画層15
 70
    4
 62
7
  6
CONTINUOUS
  0
LAYER
  2
画層16
 70
    0
 62
7
  6
CONTINUOUS
  0
LAYER
  2
画層17
 70
    0
 62
70
  6
CONTINUOUS
  0
LAYER
  2
画層18
 70
    0
 62
211
  6
CONTINUOUS
  0
LAYER
  2
画層19
 70
    0
 62
137
  6
CONTINUOUS
  0
LAYER
  2
画層20
 70
    0
 62
4
  6
CONTINUOUS
  0
LAYER
  2
画層21
 70
    0
 62
131
  6
CONTINUOUS
  0
LAYER
  2
画層22
 70
    0
 62
4
  6
CONTINUOUS
  0
LAYER
  2
画層23
 70
    0
 62
4
  6
CONTINUOUS
  0
LAYER
  2
画層24
 70
    0
 62
7
  6
CONTINUOUS
  0
LAYER
  2
画層25
 70
    0
 62
7
  6
CONTINUOUS
  0
LAYER
  2
画層26
 70
    0
 62
7
  6
CONTINUOUS
  0
LAYER
  2
画層27
 70
    0
 62
7
  6
CONTINUOUS
  0
LAYER
  2
画層28
 70
    0
 62
7
  6
CONTINUOUS
  0
LAYER
  2
画層29
 70
    0
 62
7
  6
CONTINUOUS
  0
LAYER
  2
画層30
 70
    0
 62
7
  6
CONTINUOUS
  0
LAYER
  2
画層31
 70
    0
 62
7
  6
CONTINUOUS
  0
LAYER
  2
画層32
 70
    0
 62
7
  6
CONTINUOUS
  0
LAYER
  2
画層33
 70
    0
 62
7
  6
CONTINUOUS
  0
LAYER
  2
画層34
 70
    0
 62
7
  6
CONTINUOUS
  0
LAYER
  2
画層35
 70
    0
 62
7
  6
CONTINUOUS
  0
LAYER
  2
画層36
 70
    0
 62
7
  6
CONTINUOUS
  0
LAYER
  2
画層37
 70
    0
 62
7
  6
CONTINUOUS
  0
LAYER
  2
画層38
 70
    0
 62
7
  6
CONTINUOUS
  0
LAYER
  2
画層39
 70
    0
 62
7
  6
CONTINUOUS
  0
LAYER
  2
画層40
 70
    0
 62
7
  6
CONTINUOUS
  0
LAYER
  2
画層41
 70
    0
 62
7
  6
CONTINUOUS
  0
LAYER
  2
画層42
 70
    0
 62
7
  6
CONTINUOUS
  0
LAYER
  2
画層43
 70
    0
 62
7
  6
CONTINUOUS
  0
LAYER
  2
画層44
 70
    0
 62
7
  6
CONTINUOUS
  0
LAYER
  2
画層45
 70
    0
 62
7
  6
CONTINUOUS
  0
LAYER
  2
画層46
 70
    0
 62
7
  6
CONTINUOUS
  0
LAYER
  2
画層47
 70
    0
 62
7
  6
CONTINUOUS
  0
LAYER
  2
画層48
 70
    0
 62
7
  6
CONTINUOUS
  0
LAYER
  2
画層49
 70
    0
 62
7
  6
CONTINUOUS
  0
LAYER
  2
画層50
 70
    0
 62
7
  6
CONTINUOUS
  0
LAYER
  2
画層51
 70
    0
 62
7
  6
CONTINUOUS
  0
LAYER
  2
画層52
 70
    0
 62
7
  6
CONTINUOUS
  0
LAYER
  2
画層53
 70
    0
 62
7
  6
CONTINUOUS
  0
LAYER
  2
画層54
 70
    0
 62
7
  6
CONTINUOUS
  0
LAYER
  2
画層55
 70
    0
 62
7
  6
CONTINUOUS
  0
LAYER
  2
画層56
 70
    0
 62
7
  6
CONTINUOUS
  0
LAYER
  2
画層57
 70
    0
 62
7
  6
CONTINUOUS
  0
LAYER
  2
画層58
 70
    0
 62
7
  6
CONTINUOUS
  0
LAYER
  2
画層59
 70
    0
 62
7
  6
CONTINUOUS
  0
LAYER
  2
画層60
 70
    0
 62
7
  6
CONTINUOUS
  0
LAYER
  2
画層61
 70
    0
 62
7
  6
CONTINUOUS
  0
LAYER
  2
画層62
 70
    0
 62
7
  6
CONTINUOUS
  0
LAYER
  2
画層63
 70
    0
 62
7
  6
CONTINUOUS
  0
LAYER
  2
画層64
 70
    0
 62
7
  6
CONTINUOUS
  0
LAYER
  2
画層65
 70
    0
 62
7
  6
CONTINUOUS
  0
LAYER
  2
画層66
 70
    0
 62
7
  6
CONTINUOUS
  0
LAYER
  2
画層67
 70
    0
 62
7
  6
CONTINUOUS
  0
LAYER
  2
画層68
 70
    0
 62
7
  6
CONTINUOUS
  0
LAYER
  2
画層69
 70
    0
 62
7
  6
CONTINUOUS
  0
LAYER
  2
画層70
 70
    0
 62
7
  6
CONTINUOUS
  0
LAYER
  2
画層71
 70
    0
 62
7
  6
CONTINUOUS
  0
LAYER
  2
画層72
 70
    0
 62
7
  6
CONTINUOUS
  0
LAYER
  2
画層73
 70
    0
 62
7
  6
CONTINUOUS
  0
LAYER
  2
画層74
 70
    0
 62
7
  6
CONTINUOUS
  0
LAYER
  2
画層75
 70
    0
 62
7
  6
CONTINUOUS
  0
LAYER
  2
画層76
 70
    0
 62
7
  6
CONTINUOUS
  0
LAYER
  2
画層77
 70
    0
 62
7
  6
CONTINUOUS
  0
LAYER
  2
画層78
 70
    0
 62
7
  6
CONTINUOUS
  0
LAYER
  2
画層79
 70
    0
 62
7
  6
CONTINUOUS
  0
LAYER
  2
画層80
 70
    0
 62
7
  6
CONTINUOUS
  0
LAYER
  2
画層81
 70
    0
 62
7
  6
CONTINUOUS
  0
LAYER
  2
画層82
 70
    0
 62
7
  6
CONTINUOUS
  0
LAYER
  2
画層83
 70
    0
 62
7
  6
CONTINUOUS
  0
LAYER
  2
画層84
 70
    0
 62
7
  6
CONTINUOUS
  0
LAYER
  2
画層85
 70
    0
 62
7
  6
CONTINUOUS
  0
LAYER
  2
画層86
 70
    0
 62
7
  6
CONTINUOUS
  0
LAYER
  2
画層87
 70
    0
 62
7
  6
CONTINUOUS
  0
LAYER
  2
画層88
 70
    0
 62
7
  6
CONTINUOUS
  0
LAYER
  2
画層89
 70
    0
 62
7
  6
CONTINUOUS
  0
LAYER
  2
画層90
 70
    0
 62
7
  6
CONTINUOUS
  0
LAYER
  2
画層91
 70
    0
 62
7
  6
CONTINUOUS
  0
LAYER
  2
画層92
 70
    0
 62
7
  6
CONTINUOUS
  0
LAYER
  2
画層93
 70
    0
 62
7
  6
CONTINUOUS
  0
LAYER
  2
画層94
 70
    0
 62
7
  6
CONTINUOUS
  0
LAYER
  2
画層95
 70
    0
 62
7
  6
CONTINUOUS
  0
LAYER
  2
画層96
 70
    0
 62
7
  6
CONTINUOUS
  0
LAYER
  2
画層97
 70
    0
 62
7
  6
CONTINUOUS
  0
LAYER
  2
画層98
 70
    0
 62
7
  6
CONTINUOUS
  0
LAYER
  2
画層99
 70
    0
 62
7
  6
CONTINUOUS
  0
LAYER
  2
画層100
 70
    0
 62
7
  6
CONTINUOUS
  0
LAYER
  2
画層101
 70
    0
 62
7
  6
CONTINUOUS
  0
LAYER
  2
画層102
 70
    0
 62
7
  6
CONTINUOUS
  0
LAYER
  2
画層103
 70
    0
 62
7
  6
CONTINUOUS
  0
LAYER
  2
画層104
 70
    0
 62
7
  6
CONTINUOUS
  0
LAYER
  2
画層105
 70
    0
 62
7
  6
CONTINUOUS
  0
LAYER
  2
画層106
 70
    0
 62
7
  6
CONTINUOUS
  0
LAYER
  2
画層107
 70
    0
 62
7
  6
CONTINUOUS
  0
LAYER
  2
画層108
 70
    0
 62
7
  6
CONTINUOUS
  0
LAYER
  2
画層109
 70
    0
 62
7
  6
CONTINUOUS
  0
LAYER
  2
画層110
 70
    0
 62
7
  6
CONTINUOUS
  0
LAYER
  2
画層111
 70
    0
 62
7
  6
CONTINUOUS
  0
LAYER
  2
画層112
 70
    0
 62
7
  6
CONTINUOUS
  0
LAYER
  2
画層113
 70
    0
 62
7
  6
CONTINUOUS
  0
LAYER
  2
画層114
 70
    0
 62
7
  6
CONTINUOUS
  0
LAYER
  2
画層115
 70
    0
 62
7
  6
CONTINUOUS
  0
LAYER
  2
画層116
 70
    0
 62
7
  6
CONTINUOUS
  0
LAYER
  2
画層117
 70
    0
 62
7
  6
CONTINUOUS
  0
LAYER
  2
画層118
 70
    0
 62
7
  6
CONTINUOUS
  0
LAYER
  2
画層119
 70
    0
 62
7
  6
CONTINUOUS
  0
LAYER
  2
画層120
 70
    0
 62
7
  6
CONTINUOUS
  0
LAYER
  2
画層121
 70
    0
 62
7
  6
CONTINUOUS
  0
LAYER
  2
画層122
 70
    0
 62
7
  6
CONTINUOUS
  0
LAYER
  2
画層123
 70
    0
 62
7
  6
CONTINUOUS
  0
LAYER
  2
画層124
 70
    0
 62
7
  6
CONTINUOUS
  0
LAYER
  2
画層125
 70
    0
 62
7
  6
CONTINUOUS
  0
LAYER
  2
画層126
 70
    0
 62
7
  6
CONTINUOUS
  0
LAYER
  2
画層127
 70
    0
 62
7
  6
CONTINUOUS
  0
LAYER
  2
画層128
 70
    0
 62
7
  6
CONTINUOUS
  0
LAYER
  2
画層129
 70
    0
 62
7
  6
CONTINUOUS
  0
LAYER
  2
画層130
 70
    0
 62
7
  6
CONTINUOUS
  0
LAYER
  2
画層131
 70
    0
 62
7
  6
CONTINUOUS
  0
LAYER
  2
画層132
 70
    0
 62
7
  6
CONTINUOUS
  0
LAYER
  2
画層133
 70
    0
 62
7
  6
CONTINUOUS
  0
LAYER
  2
画層134
 70
    0
 62
7
  6
CONTINUOUS
  0
LAYER
  2
画層135
 70
    0
 62
7
  6
CONTINUOUS
  0
LAYER
  2
画層136
 70
    0
 62
7
  6
CONTINUOUS
  0
LAYER
  2
画層137
 70
    0
 62
7
  6
CONTINUOUS
  0
LAYER
  2
画層138
 70
    0
 62
7
  6
CONTINUOUS
  0
LAYER
  2
画層139
 70
    0
 62
7
  6
CONTINUOUS
  0
LAYER
  2
画層140
 70
    0
 62
7
  6
CONTINUOUS
  0
LAYER
  2
画層141
 70
    0
 62
7
  6
CONTINUOUS
  0
LAYER
  2
画層142
 70
    0
 62
7
  6
CONTINUOUS
  0
LAYER
  2
画層143
 70
    0
 62
7
  6
CONTINUOUS
  0
LAYER
  2
画層144
 70
    0
 62
7
  6
CONTINUOUS
  0
LAYER
  2
画層145
 70
    0
 62
7
  6
CONTINUOUS
  0
LAYER
  2
画層146
 70
    0
 62
7
  6
CONTINUOUS
  0
LAYER
  2
画層147
 70
    0
 62
7
  6
CONTINUOUS
  0
LAYER
  2
画層148
 70
    0
 62
7
  6
CONTINUOUS
  0
LAYER
  2
画層149
 70
    0
 62
7
  6
CONTINUOUS
  0
LAYER
  2
画層150
 70
    0
 62
7
  6
CONTINUOUS
  0
LAYER
  2
画層151
 70
    0
 62
7
  6
CONTINUOUS
  0
LAYER
  2
画層152
 70
    0
 62
7
  6
CONTINUOUS
  0
LAYER
  2
画層153
 70
    0
 62
7
  6
CONTINUOUS
  0
LAYER
  2
画層154
 70
    0
 62
7
  6
CONTINUOUS
  0
LAYER
  2
画層155
 70
    0
 62
7
  6
CONTINUOUS
  0
LAYER
  2
画層156
 70
    0
 62
7
  6
CONTINUOUS
  0
LAYER
  2
画層157
 70
    0
 62
7
  6
CONTINUOUS
  0
LAYER
  2
画層158
 70
    0
 62
7
  6
CONTINUOUS
  0
LAYER
  2
画層159
 70
    0
 62
7
  6
CONTINUOUS
  0
LAYER
  2
画層160
 70
    0
 62
7
  6
CONTINUOUS
  0
LAYER
  2
画層161
 70
    0
 62
7
  6
CONTINUOUS
  0
LAYER
  2
画層162
 70
    0
 62
7
  6
CONTINUOUS
  0
LAYER
  2
画層163
 70
    0
 62
7
  6
CONTINUOUS
  0
LAYER
  2
画層164
 70
    0
 62
7
  6
CONTINUOUS
  0
LAYER
  2
画層165
 70
    0
 62
7
  6
CONTINUOUS
  0
LAYER
  2
画層166
 70
    0
 62
7
  6
CONTINUOUS
  0
LAYER
  2
画層167
 70
    0
 62
7
  6
CONTINUOUS
  0
LAYER
  2
画層168
 70
    0
 62
7
  6
CONTINUOUS
  0
LAYER
  2
画層169
 70
    0
 62
7
  6
CONTINUOUS
  0
LAYER
  2
画層170
 70
    0
 62
7
  6
CONTINUOUS
  0
LAYER
  2
画層171
 70
    0
 62
7
  6
CONTINUOUS
  0
LAYER
  2
画層172
 70
    0
 62
7
  6
CONTINUOUS
  0
LAYER
  2
画層173
 70
    0
 62
7
  6
CONTINUOUS
  0
LAYER
  2
画層174
 70
    0
 62
7
  6
CONTINUOUS
  0
LAYER
  2
画層175
 70
    0
 62
7
  6
CONTINUOUS
  0
LAYER
  2
画層176
 70
    0
 62
7
  6
CONTINUOUS
  0
LAYER
  2
画層177
 70
    0
 62
7
  6
CONTINUOUS
  0
LAYER
  2
画層178
 70
    0
 62
7
  6
CONTINUOUS
  0
LAYER
  2
画層179
 70
    0
 62
7
  6
CONTINUOUS
  0
LAYER
  2
画層180
 70
    0
 62
7
  6
CONTINUOUS
  0
LAYER
  2
画層181
 70
    0
 62
7
  6
CONTINUOUS
  0
LAYER
  2
画層182
 70
    0
 62
7
  6
CONTINUOUS
  0
LAYER
  2
画層183
 70
    0
 62
7
  6
CONTINUOUS
  0
LAYER
  2
画層184
 70
    0
 62
7
  6
CONTINUOUS
  0
LAYER
  2
画層185
 70
    0
 62
7
  6
CONTINUOUS
  0
LAYER
  2
画層186
 70
    0
 62
7
  6
CONTINUOUS
  0
LAYER
  2
画層187
 70
    0
 62
7
  6
CONTINUOUS
  0
LAYER
  2
画層188
 70
    0
 62
7
  6
CONTINUOUS
  0
LAYER
  2
画層189
 70
    0
 62
7
  6
CONTINUOUS
  0
LAYER
  2
画層190
 70
    0
 62
7
  6
CONTINUOUS
  0
LAYER
  2
画層191
 70
    0
 62
7
  6
CONTINUOUS
  0
LAYER
  2
画層192
 70
    0
 62
7
  6
CONTINUOUS
  0
LAYER
  2
画層193
 70
    0
 62
7
  6
CONTINUOUS
  0
LAYER
  2
画層194
 70
    0
 62
7
  6
CONTINUOUS
  0
LAYER
  2
画層195
 70
    0
 62
7
  6
CONTINUOUS
  0
LAYER
  2
画層196
 70
    0
 62
7
  6
CONTINUOUS
  0
LAYER
  2
画層197
 70
    0
 62
7
  6
CONTINUOUS
  0
LAYER
  2
画層198
 70
    0
 62
7
  6
CONTINUOUS
  0
LAYER
  2
画層199
 70
    0
 62
7
  6
CONTINUOUS
  0
LAYER
  2
画層200
 70
    0
 62
7
  6
CONTINUOUS
  0
LAYER
  2
画層201
 70
    0
 62
7
  6
CONTINUOUS
  0
LAYER
  2
画層202
 70
    0
 62
7
  6
CONTINUOUS
  0
LAYER
  2
画層203
 70
    0
 62
7
  6
CONTINUOUS
  0
LAYER
  2
画層204
 70
    0
 62
7
  6
CONTINUOUS
  0
LAYER
  2
画層205
 70
    0
 62
7
  6
CONTINUOUS
  0
LAYER
  2
画層206
 70
    0
 62
7
  6
CONTINUOUS
  0
LAYER
  2
画層207
 70
    0
 62
7
  6
CONTINUOUS
  0
LAYER
  2
画層208
 70
    0
 62
7
  6
CONTINUOUS
  0
LAYER
  2
画層209
 70
    0
 62
7
  6
CONTINUOUS
  0
LAYER
  2
画層210
 70
    0
 62
7
  6
CONTINUOUS
  0
LAYER
  2
画層211
 70
    0
 62
7
  6
CONTINUOUS
  0
LAYER
  2
画層212
 70
    0
 62
7
  6
CONTINUOUS
  0
LAYER
  2
画層213
 70
    0
 62
7
  6
CONTINUOUS
  0
LAYER
  2
画層214
 70
    0
 62
7
  6
CONTINUOUS
  0
LAYER
  2
画層215
 70
    0
 62
7
  6
CONTINUOUS
  0
LAYER
  2
画層216
 70
    0
 62
7
  6
CONTINUOUS
  0
LAYER
  2
画層217
 70
    0
 62
7
  6
CONTINUOUS
  0
LAYER
  2
画層218
 70
    0
 62
7
  6
CONTINUOUS
  0
LAYER
  2
画層219
 70
    0
 62
7
  6
CONTINUOUS
  0
LAYER
  2
画層220
 70
    0
 62
7
  6
CONTINUOUS
  0
LAYER
  2
画層221
 70
    0
 62
7
  6
CONTINUOUS
  0
LAYER
  2
画層222
 70
    0
 62
7
  6
CONTINUOUS
  0
LAYER
  2
画層223
 70
    0
 62
7
  6
CONTINUOUS
  0
LAYER
  2
画層224
 70
    0
 62
7
  6
CONTINUOUS
  0
LAYER
  2
画層225
 70
    0
 62
7
  6
CONTINUOUS
  0
LAYER
  2
画層226
 70
    0
 62
7
  6
CONTINUOUS
  0
LAYER
  2
画層227
 70
    0
 62
7
  6
CONTINUOUS
  0
LAYER
  2
画層228
 70
    0
 62
7
  6
CONTINUOUS
  0
LAYER
  2
画層229
 70
    0
 62
7
  6
CONTINUOUS
  0
LAYER
  2
画層230
 70
    0
 62
7
  6
CONTINUOUS
  0
LAYER
  2
画層231
 70
    0
 62
7
  6
CONTINUOUS
  0
LAYER
  2
画層232
 70
    0
 62
7
  6
CONTINUOUS
  0
LAYER
  2
画層233
 70
    0
 62
7
  6
CONTINUOUS
  0
LAYER
  2
画層234
 70
    0
 62
7
  6
CONTINUOUS
  0
LAYER
  2
画層235
 70
    0
 62
7
  6
CONTINUOUS
  0
LAYER
  2
画層236
 70
    0
 62
7
  6
CONTINUOUS
  0
LAYER
  2
画層237
 70
    0
 62
7
  6
CONTINUOUS
  0
LAYER
  2
画層238
 70
    0
 62
7
  6
CONTINUOUS
  0
LAYER
  2
画層239
 70
    0
 62
7
  6
CONTINUOUS
  0
LAYER
  2
画層240
 70
    0
 62
7
  6
CONTINUOUS
  0
LAYER
  2
画層241
 70
    0
 62
7
  6
CONTINUOUS
  0
LAYER
  2
画層242
 70
    0
 62
7
  6
CONTINUOUS
  0
LAYER
  2
画層243
 70
    0
 62
7
  6
CONTINUOUS
  0
LAYER
  2
画層244
 70
    0
 62
7
  6
CONTINUOUS
  0
LAYER
  2
画層245
 70
    0
 62
7
  6
CONTINUOUS
  0
LAYER
  2
画層246
 70
    0
 62
7
  6
CONTINUOUS
  0
LAYER
  2
画層247
 70
    0
 62
7
  6
CONTINUOUS
  0
LAYER
  2
画層248
 70
    0
 62
7
  6
CONTINUOUS
  0
LAYER
  2
画層249
 70
    0
 62
7
  6
CONTINUOUS
  0
LAYER
  2
画層250
 70
    0
 62
7
  6
CONTINUOUS
  0
LAYER
  2
画層251
 70
    0
 62
7
  6
CONTINUOUS
  0
LAYER
  2
画層252
 70
    0
 62
7
  6
CONTINUOUS
  0
LAYER
  2
画層253
 70
    0
 62
7
  6
CONTINUOUS
  0
LAYER
  2
画層254
 70
    0
 62
7
  6
CONTINUOUS
  0
LAYER
  2
画層255
 70
    0
 62
7
  6
CONTINUOUS
  0
LAYER
  2
0
 70
   64
 62
    7
  6
CONTINUOUS
  0
ENDTAB
  0
TABLE
  2
STYLE
 70
     1
  0
STYLE
  2
Standard
 70
     0
 40
0.0
 41
1.0
 50
0.0
 71
     0
 42
3.2
  3
TXT
  4
BIGFONT
  0
STYLE
  2
Font_0
 70
     0
 40
0.0
 41
1.0
 50
0.0
 71
     0
 42
3.2
  3
txt
  4
BIGFONT
  0
ENDTAB
  0
ENDSEC
  0
SECTION
  2
ENTITIES
  0
LINE
  8
画層15
  6
CONTINUOUS
 10
250
 20
370
 11
250
 21
365
  0
LINE
  8
画層15
  6
CONTINUOUS
 10
250
 20
365
 11
310
 21
365
  0
LINE
  8
画層15
  6
CONTINUOUS
 10
310
 20
365
 11
310
 21
225
  0
LINE
  8
画層15
  6
CONTINUOUS
 10
310
 20
225
 11
250
 21
225
  0
LINE
  8
画層15
  6
CONTINUOUS
 10
350
 20
120
 11
500
 21
120
  0
LINE
  8
画層15
  6
CONTINUOUS
 10
600
 20
220
 11
600
 21
225
  0
LINE
  8
画層15
  6
CONTINUOUS
 10
600
 20
225
 11
540
 21
225
  0
LINE
  8
画層15
  6
CONTINUOUS
 10
540
 20
225
 11
540
 21
365
  0
LINE
  8
画層15
  6
CONTINUOUS
 10
540
 20
365
 11
600
 21
365
  0
LINE
  8
画層15
  6
CONTINUOUS
 10
600
 20
365
 11
600
 21
370
  0
LINE
  8
画層15
  6
CONTINUOUS
 10
350
 20
470
 11
500
 21
470
  0
LINE
  8
画層15
  6
CONTINUOUS
 10
504.998356104543
 20
120
 11
600
 21
214.996771034067
  0
LINE
  8
画層15
  6
CONTINUOUS
 10
600
 20
374.996334906118
 11
504.997549275172
 21
470
  0
LINE
  8
画層15
  6
CONTINUOUS
 10
250
 20
214.998807336096
 11
345.002885458578
 21
120
  0
LINE
  8
画層15
  6
CONTINUOUS
 10
600
 20
214.996771034067
 11
600
 21
220
  0
LINE
  8
画層15
  6
CONTINUOUS
 10
504.998356104543
 20
120
 11
500
 21
120
  0
LINE
  8
画層15
  6
CONTINUOUS
 10
345.002885458578
 20
120
 11
350
 21
120
  0
LINE
  8
画層15
  6
CONTINUOUS
 10
250
 20
214.998807336096
 11
250
 21
220
  0
LINE
  8
画層15
  6
CONTINUOUS
 10
250
 20
220
 11
250
 21
225
  0
LINE
  8
画層15
  6
CONTINUOUS
 10
250
 20
370
 11
250
 21
375.002455342156
  0
LINE
  8
画層15
  6
CONTINUOUS
 10
350
 20
470
 11
345.000495294151
 21
470
  0
LINE
  8
画層15
  6
CONTINUOUS
 10
345.000495294151
 20
470
 11
250
 21
375.002455342156
  0
LINE
  8
画層15
  6
CONTINUOUS
 10
504.997549275172
 20
470
 11
500
 21
470
  0
LINE
  8
画層15
  6
CONTINUOUS
 10
600
 20
374.996334906118
 11
600
 21
370
  0
CIRCLE
  8
画層5
  6
CONTINUOUS
 10
317.502906825184
 20
287.500196471095
 40
1.50452157225885
  0
CIRCLE
  8
画層5
  6
CONTINUOUS
 10
317.502906825184
 20
227.502161824606
 40
1.49747861080067
  0
CIRCLE
  8
画層5
  6
CONTINUOUS
 10
332.500616481085
 20
287.500196471095
 40
1.49747861080067
  0
CIRCLE
  8
画層5
  6
CONTINUOUS
 10
332.500616481085
 20
227.502161824606
 40
1.49747861080067
  0
CIRCLE
  8
画層5
  6
CONTINUOUS
 10
392.504453997318
 20
287.500196471095
 40
1.49747861080067
  0
CIRCLE
  8
画層5
  6
CONTINUOUS
 10
392.504453997318
 20
227.502161824606
 40
1.49747861080067
  0
CIRCLE
  8
画層5
  6
CONTINUOUS
 10
407.507311058499
 20
227.502161824606
 40
1.49747861080067
  0
CIRCLE
  8
画層5
  6
CONTINUOUS
 10
407.507311058499
 20
287.500196471095
 40
1.49747861080067
  0
CIRCLE
  8
画層5
  6
CONTINUOUS
 10
442.51679451265
 20
227.502161824606
 40
1.49747861080067
  0
CIRCLE
  8
画層5
  6
CONTINUOUS
 10
457.513261345705
 20
227.502161824606
 40
1.49747861080067
  0
CIRCLE
  8
画層5
  6
CONTINUOUS
 10
442.51679451265
 20
287.500196471095
 40
1.49747861080067
  0
CIRCLE
  8
画層5
  6
CONTINUOUS
 10
457.513261345705
 20
287.500196471095
 40
1.49747861080067
  0
CIRCLE
  8
画層5
  6
CONTINUOUS
 10
517.506871614843
 20
227.502161824606
 40
1.49747861080067
  0
CIRCLE
  8
画層5
  6
CONTINUOUS
 10
532.504631667311
 20
227.498554623069
 40
1.49747861080067
  0
CIRCLE
  8
画層5
  6
CONTINUOUS
 10
517.506871614843
 20
287.500196471095
 40
1.49747861080067
  0
CIRCLE
  8
画層5
  6
CONTINUOUS
 10
532.504631667311
 20
287.500196471095
 40
1.49747861080067
  0
CIRCLE
  8
画層5
  6
CONTINUOUS
 10
532.504631667311
 20
302.495974783109
 40
1.49747861080067
  0
CIRCLE
  8
画層5
  6
CONTINUOUS
 10
517.506871614843
 20
302.495974783109
 40
1.49747861080067
  0
CIRCLE
  8
画層5
  6
CONTINUOUS
 10
457.513261345705
 20
302.495974783109
 40
1.49747861080067
  0
CIRCLE
  8
画層5
  6
CONTINUOUS
 10
442.51679451265
 20
302.495974783109
 40
1.49747861080067
  0
CIRCLE
  8
画層5
  6
CONTINUOUS
 10
457.513261345705
 20
362.496602370964
 40
1.49747861080067
  0
CIRCLE
  8
画層5
  6
CONTINUOUS
 10
442.51679451265
 20
362.496602370964
 40
1.49747861080067
  0
CIRCLE
  8
画層5
  6
CONTINUOUS
 10
532.504631667311
 20
362.496602370964
 40
1.49747861080067
  0
CIRCLE
  8
画層5
  6
CONTINUOUS
 10
517.506871614843
 20
362.496602370964
 40
1.49747861080067
  0
CIRCLE
  8
画層5
  6
CONTINUOUS
 10
407.507311058499
 20
362.496602370964
 40
1.49747861080067
  0
CIRCLE
  8
画層5
  6
CONTINUOUS
 10
407.507311058499
 20
302.495974783109
 40
1.49747861080067
  0
CIRCLE
  8
画層5
  6
CONTINUOUS
 10
392.504453997318
 20
302.495974783109
 40
1.49747861080067
  0
CIRCLE
  8
画層5
  6
CONTINUOUS
 10
392.504453997318
 20
362.496602370964
 40
1.49747861080067
  0
CIRCLE
  8
画層5
  6
CONTINUOUS
 10
332.500616481085
 20
302.495974783109
 40
1.49747861080067
  0
CIRCLE
  8
画層5
  6
CONTINUOUS
 10
332.500616481085
 20
362.496602370964
 40
1.49747861080067
  0
CIRCLE
  8
画層5
  6
CONTINUOUS
 10
317.502906825184
 20
362.496602370964
 40
1.49747861080067
  0
CIRCLE
  8
画層5
  6
CONTINUOUS
 10
317.502906825184
 20
302.495974783109
 40
1.49747861080067
  0
CIRCLE
  8
画層5
  6
CONTINUOUS
 10
429.999278373289
 20
125.004456063269
 40
1.0034795888814
  0
CIRCLE
  8
画層5
  6
CONTINUOUS
 10
420.001278987124
 20
125.004456063269
 40
1.0034795888814
  0
CIRCLE
  8
画層5
  6
CONTINUOUS
 10
400
 20
125.004456063269
 40
1.0034795888814
  0
CIRCLE
  8
画層5
  6
CONTINUOUS
 10
390
 20
125.004456063269
 40
1.0034795888814
  0
CIRCLE
  8
画層5
  6
CONTINUOUS
 10
370
 20
125.004456063269
 40
1.0034795888814
  0
CIRCLE
  8
画層5
  6
CONTINUOUS
 10
360
 20
125.004456063269
 40
1.0034795888814
  0
CIRCLE
  8
画層5
  6
CONTINUOUS
 10
450
 20
125.004456063269
 40
1.0034795888814
  0
CIRCLE
  8
画層5
  6
CONTINUOUS
 10
460
 20
125.004456063269
 40
1.0034795888814
  0
CIRCLE
  8
画層5
  6
CONTINUOUS
 10
480
 20
125.004456063269
 40
1.0034795888814
  0
CIRCLE
  8
画層5
  6
CONTINUOUS
 10
490
 20
125.004456063269
 40
1.0034795888814
  0
CIRCLE
  8
画層5
  6
CONTINUOUS
 10
304.581705223187
 20
167.505126414823
 40
1.0034795888814
  0
CIRCLE
  8
画層5
  6
CONTINUOUS
 10
318.723096940342
 20
153.360896430773
 40
1.0034795888814
  0
CIRCLE
  8
画層5
  6
CONTINUOUS
 10
325.794942273564
 20
146.287631733397
 40
1.0034795888814
  0
CIRCLE
  8
画層5
  6
CONTINUOUS
 10
297.509936452097
 20
174.576205280328
 40
1.0034795888814
  0
CIRCLE
  8
画層5
  6
CONTINUOUS
 10
283.363413776784
 20
188.717125970149
 40
1.0034795888814
  0
CIRCLE
  8
画層5
  6
CONTINUOUS
 10
276.287761065556
 20
195.789976741653
 40
1.0034795888814
  0
CIRCLE
  8
画層5
  6
CONTINUOUS
 10
545.445614605582
 20
167.510544443038
 40
1.0034795888814
  0
CIRCLE
  8
画層5
  6
CONTINUOUS
 10
552.512583295007
 20
174.576205280328
 40
1.0034795888814
  0
CIRCLE
  8
画層5
  6
CONTINUOUS
 10
524.215841702904
 20
146.287631733397
 40
1.0034795888814
  0
CIRCLE
  8
画層5
  6
CONTINUOUS
 10
531.291392795267
 20
153.360896430773
 40
1.0034795888814
  0
CIRCLE
  8
画層5
  6
CONTINUOUS
 10
566.65418193174
 20
188.717125970149
 40
1.0034795888814
  0
CIRCLE
  8
画層5
  6
CONTINUOUS
 10
573.727371791303
 20
195.789976741653
 40
1.0034795888814
  0
CIRCLE
  8
画層5
  6
CONTINUOUS
 10
573.727371791303
 20
394.187013354816
 40
1.0034795888814
  0
CIRCLE
  8
画層5
  6
CONTINUOUS
 10
566.65418193174
 20
401.25678612603
 40
1.0034795888814
  0
CIRCLE
  8
画層5
  6
CONTINUOUS
 10
552.512583295007
 20
415.391552895829
 40
1.0034795888814
  0
CIRCLE
  8
画層5
  6
CONTINUOUS
 10
545.440194826018
 20
422.488378088728
 40
1.0034795888814
  0
CIRCLE
  8
画層5
  6
CONTINUOUS
 10
531.291392795267
 20
436.619055423172
 40
1.0034795888814
  0
CIRCLE
  8
画層5
  6
CONTINUOUS
 10
524.215841702904
 20
443.697824702668
 40
1.0034795888814
  0
CIRCLE
  8
画層5
  6
CONTINUOUS
 10
276.287761065556
 20
394.203826359506
 40
1.0034795888814
  0
CIRCLE
  8
画層5
  6
CONTINUOUS
 10
283.363413776783
 20
401.274906764531
 40
1.0034795888814
  0
CIRCLE
  8
画層5
  6
CONTINUOUS
 10
297.509936452097
 20
415.412287918061
 40
1.0034795888814
  0
CIRCLE
  8
画層5
  6
CONTINUOUS
 10
304.581705223187
 20
422.488378088728
 40
1.0034795888814
  0
CIRCLE
  8
画層5
  6
CONTINUOUS
 10
318.723096940342
 20
436.632986161759
 40
1.0034795888814
  0
CIRCLE
  8
画層5
  6
CONTINUOUS
 10
325.794942273564
 20
443.708763412288
 40
1.0034795888814
  0
CIRCLE
  8
画層5
  6
CONTINUOUS
 10
360
 20
465.00228415045
 40
1.0034795888814
  0
CIRCLE
  8
画層5
  6
CONTINUOUS
 10
370
 20
465.00228415045
 40
1.0034795888814
  0
CIRCLE
  8
画層5
  6
CONTINUOUS
 10
390
 20
465.00228415045
 40
1.0034795888814
  0
CIRCLE
  8
画層5
  6
CONTINUOUS
 10
400
 20
465.00228415045
 40
1.0034795888814
  0
CIRCLE
  8
画層5
  6
CONTINUOUS
 10
420
 20
465.00228415045
 40
1.0034795888814
  0
CIRCLE
  8
画層5
  6
CONTINUOUS
 10
430
 20
465.00228415045
 40
1.0034795888814
  0
CIRCLE
  8
画層5
  6
CONTINUOUS
 10
450
 20
465.00228415045
 40
1.0034795888814
  0
CIRCLE
  8
画層5
  6
CONTINUOUS
 10
460
 20
465.00228415045
 40
1.0034795888814
  0
CIRCLE
  8
画層5
  6
CONTINUOUS
 10
480
 20
465.00228415045
 40
1.0034795888814
  0
CIRCLE
  8
画層5
  6
CONTINUOUS
 10
490
 20
465.00228415045
 40
1.0034795888814
  0
CIRCLE
  8
画層4
  6
CONTINUOUS
 10
522.497663147269
 20
202.487982280684
 40
4.24789250391279
  0
CIRCLE
  8
画層4
  6
CONTINUOUS
 10
561.497797301026
 20
202.487982280684
 40
6.4973774459693
  0
CIRCLE
  8
画層5
  6
CONTINUOUS
 10
537.499349297231
 20
202.487982280684
 40
1.50114585100812
  0
CIRCLE
  8
画層5
  6
CONTINUOUS
 10
537.499349297231
 20
187.490046399679
 40
1.50114585100812
  0
CIRCLE
  8
画層5
  6
CONTINUOUS
 10
522.497663147269
 20
172.492179144637
 40
1.50114585100812
  0
CIRCLE
  8
画層5
  6
CONTINUOUS
 10
522.497663147269
 20
187.490046399679
 40
1.50114585100812
  0
CIRCLE
  8
画層5
  6
CONTINUOUS
 10
507.498708524005
 20
172.492179144637
 40
1.50114585100812
  0
CIRCLE
  8
画層5
  6
CONTINUOUS
 10
492.499753900742
 20
172.492179144637
 40
1.50114585100812
  0
CIRCLE
  8
画層5
  6
CONTINUOUS
 10
462.496828216617
 20
172.492179144637
 40
1.50114585100812
  0
CIRCLE
  8
画層5
  6
CONTINUOUS
 10
477.498291058679
 20
172.492179144637
 40
1.50114585100812
  0
CIRCLE
  8
画層5
  6
CONTINUOUS
 10
462.496828216617
 20
142.495738250105
 40
1.50114585100812
  0
CIRCLE
  8
画層5
  6
CONTINUOUS
 10
477.498291058679
 20
142.495738250105
 40
1.50114585100812
  0
CIRCLE
  8
画層4
  6
CONTINUOUS
 10
507.498708524005
 20
148.491548911314
 40
6.4973774459693
  0
CIRCLE
  8
画層5
  6
CONTINUOUS
 10
492.499753900742
 20
142.495738250105
 40
1.50114585100812
  0
CIRCLE
  8
画層4
  6
CONTINUOUS
 10
288.506087294967
 20
202.487982280684
 40
6.4973774459693
  0
CIRCLE
  8
画層4
  6
CONTINUOUS
 10
327.507185974146
 20
202.487982280684
 40
4.24789250391279
  0
CIRCLE
  8
画層4
  6
CONTINUOUS
 10
342.505484938259
 20
148.490815653046
 40
6.4973774459693
  0
CIRCLE
  8
画層5
  6
CONTINUOUS
 10
507.498708524005
 20
202.487982280684
 40
1.50114585100812
  0
CIRCLE
  8
画層5
  6
CONTINUOUS
 10
492.499753900742
 20
202.487982280684
 40
1.50114585100812
  0
CIRCLE
  8
画層5
  6
CONTINUOUS
 10
477.498291058679
 20
202.487982280684
 40
1.50114585100812
  0
CIRCLE
  8
画層5
  6
CONTINUOUS
 10
462.496828216617
 20
202.487982280684
 40
1.50114585100812
  0
CIRCLE
  8
画層5
  6
CONTINUOUS
 10
387.501876744008
 20
202.487982280684
 40
1.50114585100812
  0
CIRCLE
  8
画層5
  6
CONTINUOUS
 10
372.50283032319
 20
202.487982280684
 40
1.50114585100812
  0
CIRCLE
  8
画層5
  6
CONTINUOUS
 10
357.503783902371
 20
202.487982280684
 40
1.50114585100812
  0
CIRCLE
  8
画層5
  6
CONTINUOUS
 10
342.505484938259
 20
202.487982280684
 40
1.50114585100812
  0
CIRCLE
  8
画層5
  6
CONTINUOUS
 10
312.507744577311
 20
202.487982280684
 40
1.50114585100812
  0
CIRCLE
  8
画層5
  6
CONTINUOUS
 10
312.507744577311
 20
187.490046399679
 40
1.50114585100812
  0
CIRCLE
  8
画層5
  6
CONTINUOUS
 10
327.507185974146
 20
187.490046399679
 40
1.50114585100812
  0
CIRCLE
  8
画層5
  6
CONTINUOUS
 10
327.507185974146
 20
172.492179144637
 40
1.50114585100812
  0
CIRCLE
  8
画層5
  6
CONTINUOUS
 10
342.505484938259
 20
172.492179144637
 40
1.50114585100812
  0
CIRCLE
  8
画層5
  6
CONTINUOUS
 10
357.503783902371
 20
172.492179144637
 40
1.50114585100812
  0
CIRCLE
  8
画層5
  6
CONTINUOUS
 10
372.50283032319
 20
172.492179144637
 40
1.50114585100812
  0
CIRCLE
  8
画層5
  6
CONTINUOUS
 10
357.503783902371
 20
142.495738250105
 40
1.50114585100812
  0
CIRCLE
  8
画層5
  6
CONTINUOUS
 10
372.50283032319
 20
142.495738250105
 40
1.50114585100812
  0
CIRCLE
  8
画層5
  6
CONTINUOUS
 10
387.501876744008
 20
142.495738250105
 40
1.50114585100812
  0
CIRCLE
  8
画層5
  6
CONTINUOUS
 10
387.501876744008
 20
172.492179144637
 40
1.50114585100812
  0
CIRCLE
  8
画層5
  6
CONTINUOUS
 10
432.495415714525
 20
202.487982280684
 40
1.50114585100812
  0
CIRCLE
  8
画層5
  6
CONTINUOUS
 10
417.503587744126
 20
202.487982280684
 40
1.50114585100812
  0
CIRCLE
  8
画層4
  6
CONTINUOUS
 10
522.497663147269
 20
387.502087767994
 40
4.24789250391279
  0
CIRCLE
  8
画層4
  6
CONTINUOUS
 10
327.507185974146
 20
387.502087767994
 40
4.24789250391279
  0
CIRCLE
  8
画層4
  6
CONTINUOUS
 10
561.501274787797
 20
387.502087767994
 40
6.4973774459693
  0
CIRCLE
  8
画層4
  6
CONTINUOUS
 10
507.498708524005
 20
441.499108605684
 40
6.4973774459693
  0
CIRCLE
  8
画層4
  6
CONTINUOUS
 10
288.50998031435
 20
387.502087767994
 40
6.4973774459693
  0
CIRCLE
  8
画層4
  6
CONTINUOUS
 10
342.505484938259
 20
441.493718381649
 40
6.4973774459693
  0
CIRCLE
  8
画層5
  6
CONTINUOUS
 10
537.499349297231
 20
387.502087767994
 40
1.50114585100812
  0
CIRCLE
  8
画層5
  6
CONTINUOUS
 10
537.499349297231
 20
402.499955049102
 40
1.50114585100812
  0
CIRCLE
  8
画層5
  6
CONTINUOUS
 10
522.497663147269
 20
417.497729511692
 40
1.50114585100812
  0
CIRCLE
  8
画層5
  6
CONTINUOUS
 10
522.497663147269
 20
402.499955049102
 40
1.50114585100812
  0
CIRCLE
  8
画層5
  6
CONTINUOUS
 10
507.498708524005
 20
387.502087767994
 40
1.50114585100812
  0
CIRCLE
  8
画層5
  6
CONTINUOUS
 10
507.498708524005
 20
417.497729511692
 40
1.50114585100812
  0
CIRCLE
  8
画層5
  6
CONTINUOUS
 10
492.499753900742
 20
447.4965629891
 40
1.50114585100812
  0
CIRCLE
  8
画層5
  6
CONTINUOUS
 10
477.498291058679
 20
447.4965629891
 40
1.50114585100812
  0
CIRCLE
  8
画層5
  6
CONTINUOUS
 10
462.496828216617
 20
447.4965629891
 40
1.50114585100812
  0
CIRCLE
  8
画層5
  6
CONTINUOUS
 10
462.496828216617
 20
417.497729511692
 40
1.50114585100812
  0
CIRCLE
  8
画層5
  6
CONTINUOUS
 10
477.498291058679
 20
417.497729511692
 40
1.50114585100812
  0
CIRCLE
  8
画層5
  6
CONTINUOUS
 10
492.499753900742
 20
417.497729511692
 40
1.50114585100812
  0
CIRCLE
  8
画層5
  6
CONTINUOUS
 10
492.499753900742
 20
387.502087767994
 40
1.50114585100812
  0
CIRCLE
  8
画層5
  6
CONTINUOUS
 10
477.498291058679
 20
387.502087767994
 40
1.50114585100812
  0
CIRCLE
  8
画層5
  6
CONTINUOUS
 10
462.496828216617
 20
387.502087767994
 40
1.50114585100812
  0
CIRCLE
  8
画層5
  6
CONTINUOUS
 10
432.495415714525
 20
387.502087767994
 40
1.50114585100812
  0
CIRCLE
  8
画層5
  6
CONTINUOUS
 10
417.503587744126
 20
387.502087767994
 40
1.50114585100812
  0
CIRCLE
  8
画層5
  6
CONTINUOUS
 10
387.501876744008
 20
387.502087767994
 40
1.50114585100812
  0
CIRCLE
  8
画層5
  6
CONTINUOUS
 10
372.50283032319
 20
387.502087767994
 40
1.50114585100812
  0
CIRCLE
  8
画層5
  6
CONTINUOUS
 10
357.503783902371
 20
387.502087767994
 40
1.50114585100812
  0
CIRCLE
  8
画層5
  6
CONTINUOUS
 10
342.505484938259
 20
387.502087767994
 40
1.50114585100812
  0
CIRCLE
  8
画層5
  6
CONTINUOUS
 10
372.50283032319
 20
417.497729511692
 40
1.50114585100812
  0
CIRCLE
  8
画層5
  6
CONTINUOUS
 10
387.501876744008
 20
417.497729511692
 40
1.50114585100812
  0
CIRCLE
  8
画層5
  6
CONTINUOUS
 10
387.501876744008
 20
447.4965629891
 40
1.50114585100812
  0
CIRCLE
  8
画層5
  6
CONTINUOUS
 10
372.50283032319
 20
447.4965629891
 40
1.50114585100812
  0
CIRCLE
  8
画層5
  6
CONTINUOUS
 10
357.503783902371
 20
447.4965629891
 40
1.50114585100812
  0
CIRCLE
  8
画層5
  6
CONTINUOUS
 10
357.503783902371
 20
417.497729511692
 40
1.50114585100812
  0
CIRCLE
  8
画層5
  6
CONTINUOUS
 10
342.505484938259
 20
417.497729511692
 40
1.50114585100812
  0
CIRCLE
  8
画層5
  6
CONTINUOUS
 10
327.507185974146
 20
417.497729511692
 40
1.50114585100812
  0
CIRCLE
  8
画層5
  6
CONTINUOUS
 10
327.507185974146
 20
402.499955049102
 40
1.50114585100812
  0
CIRCLE
  8
画層5
  6
CONTINUOUS
 10
312.507744577311
 20
402.499955049102
 40
1.50114585100812
  0
CIRCLE
  8
画層5
  6
CONTINUOUS
 10
312.507744577311
 20
387.502087767994
 40
1.50114585100812
  0
LINE
  8
画層15
  6
CONTINUOUS
 10
410
 20
220
 11
410
 21
210
  0
LINE
  8
画層15
  6
CONTINUOUS
 10
410
 20
210
 11
350
 21
210
  0
LINE
  8
画層15
  6
CONTINUOUS
 10
350
 20
210
 11
350
 21
220
  0
LINE
  8
画層15
  6
CONTINUOUS
 10
350
 20
220
 11
410
 21
220
  0
LINE
  8
画層15
  6
CONTINUOUS
 10
440
 20
220
 11
440
 21
210
  0
LINE
  8
画層15
  6
CONTINUOUS
 10
440
 20
210
 11
500
 21
210
  0
LINE
  8
画層15
  6
CONTINUOUS
 10
500
 20
220
 11
500
 21
210
  0
LINE
  8
画層15
  6
CONTINUOUS
 10
500
 20
220
 11
440
 21
220
  0
LINE
  8
画層15
  6
CONTINUOUS
 10
440
 20
380
 11
440
 21
370
  0
LINE
  8
画層15
  6
CONTINUOUS
 10
440
 20
370
 11
500
 21
370
  0
LINE
  8
画層15
  6
CONTINUOUS
 10
500
 20
370
 11
500
 21
380
  0
LINE
  8
画層15
  6
CONTINUOUS
 10
500
 20
380
 11
440
 21
380
  0
LINE
  8
画層15
  6
CONTINUOUS
 10
410
 20
380
 11
410
 21
370
  0
LINE
  8
画層15
  6
CONTINUOUS
 10
410
 20
370
 11
350
 21
370
  0
LINE
  8
画層15
  6
CONTINUOUS
 10
350
 20
370
 11
350
 21
380
  0
LINE
  8
画層15
  6
CONTINUOUS
 10
350
 20
380
 11
410
 21
380
  0
LINE
  8
画層9
  6
CONTINUOUS
 10
601
 20
225
 11
613
 21
225
  0
LINE
  8
画層9
  6
CONTINUOUS
 10
610
 20
225
 11
610
 21
365
  0
POLYLINE
  8
画層9
  6
CONTINUOUS
 10
0.0
 20
0.0
 30
0.0
 66
1
 70
     1
  0
VERTEX
  8
画層9
 10
610
  20
225
  0
VERTEX
  8
画層9
 10
609.611771432346
  20
226.448888739434
  0
VERTEX
  8
画層9
 10
610.388228567654
  20
226.448888739434
  0
SEQEND
100
AcDbEntity
  8
画層9
  0
POLYLINE
  8
画層9
  6
CONTINUOUS
 10
0.0
 20
0.0
 30
0.0
 66
1
 70
     1
  0
VERTEX
  8
画層9
 10
610
  20
365
  0
VERTEX
  8
画層9
 10
610.388228567654
  20
363.551111260566
  0
VERTEX
  8
画層9
 10
609.611771432346
  20
363.551111260566
  0
SEQEND
100
AcDbEntity
  8
画層9
  0
TEXT
  8
画層9
 62
250
  6
CONTINUOUS
 62
250
 10
609.75
 20
286.5
 40
10
  1
140
  7
Font_0
 50
90
 72
1
 11
599.75
 21
295
 73
3
  0
LINE
  8
画層9
  6
CONTINUOUS
 10
601
 20
365
 11
613
 21
365
  0
LINE
  8
画層9
  6
CONTINUOUS
 10
601
 20
374.996334906118
 11
633
 21
374.996334906118
  0
LINE
  8
画層9
  6
CONTINUOUS
 10
630
 20
374.996334906118
 11
630
 21
214.996771034067
  0
POLYLINE
  8
画層9
  6
CONTINUOUS
 10
0.0
 20
0.0
 30
0.0
 66
1
 70
     1
  0
VERTEX
  8
画層9
 10
630
  20
374.996334906118
  0
VERTEX
  8
画層9
 10
630.388228567654
  20
373.547446166684
  0
VERTEX
  8
画層9
 10
629.611771432346
  20
373.547446166684
  0
SEQEND
100
AcDbEntity
  8
画層9
  0
POLYLINE
  8
画層9
  6
CONTINUOUS
 10
0.0
 20
0.0
 30
0.0
 66
1
 70
     1
  0
VERTEX
  8
画層9
 10
630
  20
214.996771034067
  0
VERTEX
  8
画層9
 10
629.611771432346
  20
216.445659773501
  0
VERTEX
  8
画層9
 10
630.388228567654
  20
216.445659773501
  0
SEQEND
100
AcDbEntity
  8
画層9
  0
TEXT
  8
画層9
 62
250
  6
CONTINUOUS
 62
250
 10
629.75
 20
286.496552970093
 40
10
  1
160
  7
Font_0
 50
90
 72
1
 11
619.75
 21
294.996552970093
 73
3
  0
LINE
  8
画層9
  6
CONTINUOUS
 10
601
 20
214.996771034067
 11
633
 21
214.996771034067
  0
LINE
  8
画層9
  6
CONTINUOUS
 10
505.99754927517
 20
470.000002305227
 11
652.999262326654
 21
470.000341177511
  0
LINE
  8
画層9
  6
CONTINUOUS
 10
649.999262326662
 20
470.000334261831
 11
650.000069156033
 21
120.000334261831
  0
POLYLINE
  8
画層9
  6
CONTINUOUS
 10
0.0
 20
0.0
 30
0.0
 66
1
 70
     1
  0
VERTEX
  8
画層9
 10
649.999262326662
  20
470.000334261831
  0
VERTEX
  8
画層9
 10
650.387494234332
  20
468.551446417356
  0
VERTEX
  8
画層9
 10
649.611037099027
  20
468.551444627446
  0
SEQEND
100
AcDbEntity
  8
画層9
  0
POLYLINE
  8
画層9
  6
CONTINUOUS
 10
0.0
 20
0.0
 30
0.0
 66
1
 70
     1
  0
VERTEX
  8
画層9
 10
650.000069156033
  20
120.000334261831
  0
VERTEX
  8
画層9
 10
649.611837248363
  20
121.449222106306
  0
VERTEX
  8
画層9
 10
650.388294383668
  20
121.449223896216
  0
SEQEND
100
AcDbEntity
  8
画層9
  0
LINE
  8
画層9
  6
CONTINUOUS
 10
505.99835610454
 20
120.000002305227
 11
653.000069156025
 21
120.000341177511
  0
TEXT
  8
画層9
 62
250
  6
CONTINUOUS
 62
250
 10
650.024075650274
 20
287.500886176595
 40
10
  1
350
  7
Font_0
 50
90.0101534863282
 11
640.024075807294
 21
287.499114058935
 73
3
  0
LINE
  8
画層9
  6
CONTINUOUS
 10
349
 20
370
 11
237
 21
370
  0
LINE
  8
画層9
  6
CONTINUOUS
 10
240
 20
370
 11
240
 21
220
  0
POLYLINE
  8
画層9
  6
CONTINUOUS
 10
0.0
 20
0.0
 30
0.0
 66
1
 70
     1
  0
VERTEX
  8
画層9
 10
240
  20
370
  0
VERTEX
  8
画層9
 10
240.388228567654
  20
368.551111260566
  0
VERTEX
  8
画層9
 10
239.611771432346
  20
368.551111260566
  0
SEQEND
100
AcDbEntity
  8
画層9
  0
POLYLINE
  8
画層9
  6
CONTINUOUS
 10
0.0
 20
0.0
 30
0.0
 66
1
 70
     1
  0
VERTEX
  8
画層9
 10
240
  20
220
  0
VERTEX
  8
画層9
 10
239.611771432346
  20
221.448888739434
  0
VERTEX
  8
画層9
 10
240.388228567654
  20
221.448888739434
  0
SEQEND
100
AcDbEntity
  8
画層9
  0
TEXT
  8
画層9
 62
250
  6
CONTINUOUS
 62
250
 10
239.75
 20
286.5
 40
10
  1
150
  7
Font_0
 50
90
 72
1
 11
229.75
 21
295
 73
3
  0
LINE
  8
画層9
  6
CONTINUOUS
 10
349
 20
220
 11
237
 21
220
  0
LINE
  8
画層9
  6
CONTINUOUS
 10
349
 20
380
 11
217
 21
380
  0
LINE
  8
画層9
  6
CONTINUOUS
 10
220
 20
380
 11
220
 21
210
  0
POLYLINE
  8
画層9
  6
CONTINUOUS
 10
0.0
 20
0.0
 30
0.0
 66
1
 70
     1
  0
VERTEX
  8
画層9
 10
220
  20
380
  0
VERTEX
  8
画層9
 10
220.388228567654
  20
378.551111260566
  0
VERTEX
  8
画層9
 10
219.611771432346
  20
378.551111260566
  0
SEQEND
100
AcDbEntity
  8
画層9
  0
POLYLINE
  8
画層9
  6
CONTINUOUS
 10
0.0
 20
0.0
 30
0.0
 66
1
 70
     1
  0
VERTEX
  8
画層9
 10
220
  20
210
  0
VERTEX
  8
画層9
 10
219.611771432346
  20
211.448888739434
  0
VERTEX
  8
画層9
 10
220.388228567654
  20
211.448888739434
  0
SEQEND
100
AcDbEntity
  8
画層9
  0
TEXT
  8
画層9
 62
250
  6
CONTINUOUS
 62
250
 10
219.75
 20
286.5
 40
10
  1
170
  7
Font_0
 50
90
 72
1
 11
209.75
 21
295
 73
3
  0
LINE
  8
画層9
  6
CONTINUOUS
 10
349
 20
210
 11
217
 21
210
  0
LINE
  8
画層9
  6
CONTINUOUS
 10
410
 20
209
 11
410
 21
107
  0
LINE
  8
画層9
  6
CONTINUOUS
 10
410
 20
110
 11
440
 21
110
  0
POLYLINE
  8
画層9
  6
CONTINUOUS
 10
0.0
 20
0.0
 30
0.0
 66
1
 70
     1
  0
VERTEX
  8
画層9
 10
410
  20
110
  0
VERTEX
  8
画層9
 10
411.448888739434
  20
110.388228567654
  0
VERTEX
  8
画層9
 10
411.448888739434
  20
109.611771432346
  0
SEQEND
100
AcDbEntity
  8
画層9
  0
POLYLINE
  8
画層9
  6
CONTINUOUS
 10
0.0
 20
0.0
 30
0.0
 66
1
 70
     1
  0
VERTEX
  8
画層9
 10
440
  20
110
  0
VERTEX
  8
画層9
 10
438.551111260566
  20
109.611771432346
  0
VERTEX
  8
画層9
 10
438.551111260566
  20
110.388228567654
  0
SEQEND
100
AcDbEntity
  8
画層9
  0
TEXT
  8
画層9
 62
250
  6
CONTINUOUS
 62
250
 10
419.5
 20
110.25
 40
10
  1
30
  7
Font_0
 72
1
 11
425
 21
120.25
 73
3
  0
LINE
  8
画層9
  6
CONTINUOUS
 10
440
 20
209
 11
440
 21
107
  0
LINE
  8
画層9
  6
CONTINUOUS
 10
350
 20
209
 11
350
 21
87
  0
LINE
  8
画層9
  6
CONTINUOUS
 10
350
 20
90
 11
500
 21
90
  0
POLYLINE
  8
画層9
  6
CONTINUOUS
 10
0.0
 20
0.0
 30
0.0
 66
1
 70
     1
  0
VERTEX
  8
画層9
 10
350
  20
90
  0
VERTEX
  8
画層9
 10
351.448888739434
  20
90.3882285676538
  0
VERTEX
  8
画層9
 10
351.448888739434
  20
89.6117714323462
  0
SEQEND
100
AcDbEntity
  8
画層9
  0
POLYLINE
  8
画層9
  6
CONTINUOUS
 10
0.0
 20
0.0
 30
0.0
 66
1
 70
     1
  0
VERTEX
  8
画層9
 10
500
  20
90
  0
VERTEX
  8
画層9
 10
498.551111260566
  20
89.6117714323462
  0
VERTEX
  8
画層9
 10
498.551111260566
  20
90.3882285676538
  0
SEQEND
100
AcDbEntity
  8
画層9
  0
TEXT
  8
画層9
 62
250
  6
CONTINUOUS
 62
250
 10
416.5
 20
90.25
 40
10
  1
150
  7
Font_0
 72
1
 11
425
 21
100.25
 73
3
  0
LINE
  8
画層9
  6
CONTINUOUS
 10
500
 20
209
 11
500
 21
87
  0
CIRCLE
  8
画層5
  6
CONTINUOUS
 10
585.002806035034
 20
370
 40
1.49747861080067
  0
CIRCLE
  8
画層5
  6
CONTINUOUS
 10
555.004580514641
 20
370
 40
1.49747861080067
  0
CIRCLE
  8
画層5
  6
CONTINUOUS
 10
585.002806035034
 20
220
 40
1.49747861080067
  0
CIRCLE
  8
画層5
  6
CONTINUOUS
 10
555.004580514641
 20
220
 40
1.49747861080067
  0
CIRCLE
  8
画層5
  6
CONTINUOUS
 10
295.00475602414
 20
220
 40
1.49747861080067
  0
CIRCLE
  8
画層5
  6
CONTINUOUS
 10
265.005722274852
 20
220
 40
1.49747861080067
  0
CIRCLE
  8
画層5
  6
CONTINUOUS
 10
295.00475602414
 20
370
 40
1.49747861080067
  0
CIRCLE
  8
画層5
  6
CONTINUOUS
 10
265.005722274852
 20
370
 40
1.49747861080067
  0
LINE
  8
画層9
  6
CONTINUOUS
 10
310
 20
224
 11
310
 21
67
  0
LINE
  8
画層9
  6
CONTINUOUS
 10
310
 20
70
 11
540
 21
70
  0
POLYLINE
  8
画層9
  6
CONTINUOUS
 10
0.0
 20
0.0
 30
0.0
 66
1
 70
     1
  0
VERTEX
  8
画層9
 10
310
  20
70
  0
VERTEX
  8
画層9
 10
311.448888739434
  20
70.3882285676538
  0
VERTEX
  8
画層9
 10
311.448888739434
  20
69.6117714323462
  0
SEQEND
100
AcDbEntity
  8
画層9
  0
POLYLINE
  8
画層9
  6
CONTINUOUS
 10
0.0
 20
0.0
 30
0.0
 66
1
 70
     1
  0
VERTEX
  8
画層9
 10
540
  20
70
  0
VERTEX
  8
画層9
 10
538.551111260566
  20
69.6117714323462
  0
VERTEX
  8
画層9
 10
538.551111260566
  20
70.3882285676538
  0
SEQEND
100
AcDbEntity
  8
画層9
  0
TEXT
  8
画層9
 62
250
  6
CONTINUOUS
 62
250
 10
416.5
 20
70.25
 40
10
  1
230
  7
Font_0
 72
1
 11
425
 21
80.25
 73
3
  0
LINE
  8
画層9
  6
CONTINUOUS
 10
540
 20
224
 11
540
 21
67
  0
LINE
  8
画層9
  6
CONTINUOUS
 10
345.000495294151
 20
471
 11
345.000495294151
 21
483
  0
LINE
  8
画層9
  6
CONTINUOUS
 10
345.000495294151
 20
480
 11
504.997549275172
 21
480
  0
POLYLINE
  8
画層9
  6
CONTINUOUS
 10
0.0
 20
0.0
 30
0.0
 66
1
 70
     1
  0
VERTEX
  8
画層9
 10
345.000495294151
  20
480
  0
VERTEX
  8
画層9
 10
346.449384033585
  20
480.388228567654
  0
VERTEX
  8
画層9
 10
346.449384033585
  20
479.611771432346
  0
SEQEND
100
AcDbEntity
  8
画層9
  0
POLYLINE
  8
画層9
  6
CONTINUOUS
 10
0.0
 20
0.0
 30
0.0
 66
1
 70
     1
  0
VERTEX
  8
画層9
 10
504.997549275172
  20
480
  0
VERTEX
  8
画層9
 10
503.548660535739
  20
479.611771432346
  0
VERTEX
  8
画層9
 10
503.548660535739
  20
480.388228567654
  0
SEQEND
100
AcDbEntity
  8
画層9
  0
TEXT
  8
画層9
 62
250
  6
CONTINUOUS
 62
250
 10
416.499022284662
 20
480.25
 40
10
  1
160
  7
Font_0
 72
1
 11
424.999022284662
 21
490.25
 73
3
  0
LINE
  8
画層9
  6
CONTINUOUS
 10
504.997549275172
 20
471
 11
504.997549275172
 21
483
  0
LINE
  8
画層9
  6
CONTINUOUS
 10
250.00001748696
 20
376.002455342003
 11
250.002238373579
 21
503.004896310147
  0
LINE
  8
画層9
  6
CONTINUOUS
 10
250.002185912699
 20
500.004896310606
 11
600.002185912699
 21
499.998775874567
  0
POLYLINE
  8
画層9
  6
CONTINUOUS
 10
0.0
 20
0.0
 30
0.0
 66
1
 70
     1
  0
VERTEX
  8
画層9
 10
250.002185912699
  20
500.004896310606
  0
VERTEX
  8
画層9
 10
251.451081440848
  20
500.393099541541
  0
VERTEX
  8
画層9
 10
251.451067862973
  20
499.616642406352
  0
SEQEND
100
AcDbEntity
  8
画層9
  0
POLYLINE
  8
画層9
  6
CONTINUOUS
 10
0.0
 20
0.0
 30
0.0
 66
1
 70
     1
  0
VERTEX
  8
画層9
 10
600.002185912699
  20
499.998775874567
  0
VERTEX
  8
画層9
 10
598.553290384549
  20
499.610572643632
  0
VERTEX
  8
画層9
 10
598.553303962424
  20
500.387029778821
  0
SEQEND
100
AcDbEntity
  8
画層9
  0
TEXT
  8
画層9
 62
250
  6
CONTINUOUS
 62
250
 10
416.502190285738
 20
500.251984731709
 40
10
  1
350
  7
Font_0
 50
359.998998070989
 72
1
 11
425.00236515404
 21
510.251836091019
 73
3
  0
LINE
  8
画層9
  6
CONTINUOUS
 10
600.00001748696
 20
375.996334905965
 11
600.002238373579
 21
502.998775874109
  0
LINE
  8
画層9
  6
CONTINUOUS
 10
519.493471031478
 20
384.498852769494
 11
525.501855263061
 21
390.505322766494
  0
POLYLINE
  8
画層9
  6
CONTINUOUS
 10
0.0
 20
0.0
 30
0.0
 66
1
 70
     1
  0
VERTEX
  8
画層9
 10
519.493471031478
  20
384.498852769494
  0
VERTEX
  8
画層9
 10
517.993057118962
  20
381.901015574609
  0
VERTEX
  8
画層9
 10
516.895155869605
  20
382.999266720085
  0
SEQEND
100
AcDbEntity
  8
画層9
  0
POLYLINE
  8
画層9
  6
CONTINUOUS
 10
0.0
 20
0.0
 30
0.0
 66
1
 70
     1
  0
VERTEX
  8
画層9
 10
525.501855263061
  20
390.505322766494
  0
VERTEX
  8
画層9
 10
527.002269175576
  20
393.103159961379
  0
VERTEX
  8
画層9
 10
528.100170424934
  20
392.004908815903
  0
SEQEND
100
AcDbEntity
  8
画層9
  0
TEXT
  8
画層9
 62
250
  6
CONTINUOUS
 62
250
 10
556.098502602822
 20
421.445719276062
 40
10
  1
%%c8.5
  7
Font_0
 50
44.990871502924
 72
2
 11
568.830705502812
 21
448.313748777934
 73
3
  0
LINE
  8
画層9
  6
CONTINUOUS
 10
525.501855263061
 20
390.505322766494
 11
576.077395174519
 21
441.064749619293
  0
LINE
  8
画層9
  6
CONTINUOUS
 10
519.493471031478
 20
384.498852769494
 11
515.25015445081
 21
380.256888083617
  0
ARC
  8
画層9
  6
CONTINUOUS
 10
504.998356104543
 20
120
 40
26.9273503612079
 50
0.00013207976487087
 51
44.9985305435742
  0
POLYLINE
  8
画層9
  6
CONTINUOUS
 10
0.0
 20
0.0
 30
0.0
 66
1
 70
     1
  0
VERTEX
  8
画層9
 10
531.925706465679
  20
120.000062073649
  0
VERTEX
  8
画層9
 10
531.537702153577
  20
121.449010883576
  0
VERTEX
  8
画層9
 10
532.314159279585
  20
121.44889070788
  0
SEQEND
100
AcDbEntity
  8
画層9
  0
POLYLINE
  8
画層9
  6
CONTINUOUS
 10
0.0
 20
0.0
 30
0.0
 66
1
 70
     1
  0
VERTEX
  8
画層9
 10
524.039356467287
  20
139.040023704324
  0
VERTEX
  8
画層9
 10
525.338493136327
  20
138.290194446988
  0
VERTEX
  8
画層9
 10
524.789527196995
  20
137.74108418445
  0
SEQEND
100
AcDbEntity
  8
画層9
  0
TEXT
  8
画層9
 62
250
  6
CONTINUOUS
 62
250
 10
525.8976760806
 20
140.562752665784
 40
10
  1
45%%d
  7
Font_0
 50
-67.5006686883305
 72
1
 11
539.345915216403
 21
134.226755179495
 73
3
  0
CIRCLE
  8
画層11
  6
CONTINUOUS
 10
424.998986856263
 20
164.993355301202
 40
19.0021196913892
  0
CIRCLE
  8
画層5
  6
CONTINUOUS
 10
447.750726608232
 20
164.993355301202
 40
1.50114585100812
  0
CIRCLE
  8
画層5
  6
CONTINUOUS
 10
402.249273391768
 20
164.993355301202
 40
1.50114585100812
  0
CIRCLE
  8
画層5
  6
CONTINUOUS
 10
424.998986856263
 20
187.743992623978
 40
1.50114585100812
  0
CIRCLE
  8
画層5
  6
CONTINUOUS
 10
424.998986856263
 20
142.247691821679
 40
1.50114585100812
  0
CIRCLE
  8
画層11
  6
CONTINUOUS
 10
424.998986856263
 20
425.000427682119
 40
19.0021196913892
  0
CIRCLE
  8
画層5
  6
CONTINUOUS
 10
447.750726608232
 20
425.000427682119
 40
1.50114585100812
  0
CIRCLE
  8
画層5
  6
CONTINUOUS
 10
402.249273391768
 20
425.000427682119
 40
1.50114585100812
  0
CIRCLE
  8
画層5
  6
CONTINUOUS
 10
424.998986856263
 20
447.751065004895
 40
1.50114585100812
  0
CIRCLE
  8
画層5
  6
CONTINUOUS
 10
424.998986856263
 20
402.254764202596
 40
1.50114585100812
  0
LINE
  8
画層9
  6
CONTINUOUS
 10
502.908080484479
 20
436.901060337331
 11
512.089336563531
 21
446.097156874038
  0
POLYLINE
  8
画層9
  6
CONTINUOUS
 10
0.0
 20
0.0
 30
0.0
 66
1
 70
     1
  0
VERTEX
  8
画層9
 10
502.908080484479
  20
436.901060337331
  0
VERTEX
  8
画層9
 10
501.41017902481
  20
434.30177366266
  0
VERTEX
  8
画層9
 10
500.311216430704
  20
435.398962775183
  0
SEQEND
100
AcDbEntity
  8
画層9
  0
POLYLINE
  8
画層9
  6
CONTINUOUS
 10
0.0
 20
0.0
 30
0.0
 66
1
 70
     1
  0
VERTEX
  8
画層9
 10
512.089336563531
  20
446.097156874038
  0
VERTEX
  8
画層9
 10
513.587238023201
  20
448.696443548708
  0
VERTEX
  8
画層9
 10
514.686200617306
  20
447.599254436186
  0
SEQEND
100
AcDbEntity
  8
画層9
  0
TEXT
  8
画層9
 62
250
  6
CONTINUOUS
 62
250
 10
533.815018707146
 20
468.211795360675
 40
10
  1
%%c13
  7
Font_0
 50
45.046268655917
 72
2
 11
542.282024763591
 21
490.846057187386
 73
3
  0
LINE
  8
画層9
  6
CONTINUOUS
 10
512.089336563531
 20
446.097156874038
 11
549.535719834033
 21
483.604067969977
  0
LINE
  8
画層9
  6
CONTINUOUS
 10
502.908080484479
 20
436.901060337331
 11
498.668867284045
 21
432.654994930243
  0
LINE
  8
画層9
  6
CONTINUOUS
 10
411.561852125096
 20
411.564507059313
 11
438.436121587429
 21
438.436348304926
  0
POLYLINE
  8
画層9
  6
CONTINUOUS
 10
0.0
 20
0.0
 30
0.0
 66
1
 70
     1
  0
VERTEX
  8
画層9
 10
411.561852125096
  20
411.564507059313
  0
VERTEX
  8
画層9
 10
410.061734747118
  20
408.966498619703
  0
VERTEX
  8
画層9
 10
408.963708147303
  20
410.064624440353
  0
SEQEND
100
AcDbEntity
  8
画層9
  0
POLYLINE
  8
画層9
  6
CONTINUOUS
 10
0.0
 20
0.0
 30
0.0
 66
1
 70
     1
  0
VERTEX
  8
画層9
 10
438.436121587429
  20
438.436348304926
  0
VERTEX
  8
画層9
 10
439.936238965408
  20
441.034356744536
  0
VERTEX
  8
画層9
 10
441.034265565222
  20
439.936230923886
  0
SEQEND
100
AcDbEntity
  8
画層9
  0
TEXT
  8
画層9
 62
250
  6
CONTINUOUS
 62
250
 10
498.640068964854
 20
498.988393390723
 40
10
  1
%%c38
  7
Font_0
 50
44.9974114113952
 72
2
 11
507.126372623423
 21
521.615427005728
 73
3
  0
LINE
  8
画層9
  6
CONTINUOUS
 10
438.436121587429
 20
438.436348304926
 11
514.373889669964
 21
514.367255052739
  0
LINE
  8
画層9
  6
CONTINUOUS
 10
411.561852125096
 20
411.564507059313
 11
407.319019762371
 21
407.32205805646
  0
LINE
  8
画層0
  6
CONTINUOUS
 10
470
 20
0
 11
590
 21
0
  0
LINE
  8
画層0
  6
CONTINUOUS
 10
470
 20
-10
 11
590
 21
-10
  0
POLYLINE
  8
画層0
  6
CONTINUOUS
 10
0.0
 20
0.0
 30
0.0
 66
1
 70
     1
  0
VERTEX
  8
画層0
 10
470
  20
10
  0
VERTEX
  8
画層0
 10
590
  20
10
  0
VERTEX
  8
画層0
 10
590
  20
-20
  0
VERTEX
  8
画層0
 10
470
  20
-20
  0
SEQEND
100
AcDbEntity
  8
画層0
  0
LINE
  8
画層0
  6
CONTINUOUS
 10
470
 20
-30
 11
590
 21
-30
  0
LINE
  8
画層0
  6
CONTINUOUS
 10
590
 20
-30
 11
590
 21
-20
  0
ARC
  8
画層5
  6
CONTINUOUS
 10
317.502906825184
 20
334.998079936537
 40
2.00207788368556
 50
90
 51
270
  0
ARC
  8
画層5
  6
CONTINUOUS
 10
317.502906825184
 20
319.99940495437
 40
2.00227041135184
 50
90
 51
270
  0
ARC
  8
画層5
  6
CONTINUOUS
 10
342.503342509209
 20
334.998079936537
 40
2.00207788368556
 50
-90
 51
90
  0
ARC
  8
画層5
  6
CONTINUOUS
 10
342.503342509209
 20
319.999597482037
 40
2.00207788368556
 50
-90
 51
90
  0
LINE
  8
画層5
  6
CONTINUOUS
 10
317.502906825184
 20
337.000157820222
 11
342.503342509209
 21
337.000157820222
  0
LINE
  8
画層5
  6
CONTINUOUS
 10
317.502906825184
 20
332.996002052851
 11
342.503342509209
 21
332.996002052851
  0
LINE
  8
画層5
  6
CONTINUOUS
 10
317.502906825184
 20
322.001675365722
 11
342.503342509209
 21
322.001675365722
  0
LINE
  8
画層5
  6
CONTINUOUS
 10
317.502906825184
 20
317.997134543019
 11
342.503342509209
 21
317.997519598351
  0
ARC
  8
画層5
  6
CONTINUOUS
 10
317.502906825184
 20
254.998091317667
 40
2.00207788368556
 50
90
 51
-89.9999999999998
  0
ARC
  8
画層5
  6
CONTINUOUS
 10
317.502906825184
 20
269.996766299833
 40
2.00227041135184
 50
90
 51
-90
  0
ARC
  8
画層5
  6
CONTINUOUS
 10
342.503342509209
 20
254.998091317667
 40
2.00207788368556
 50
-90
 51
90
  0
ARC
  8
画層5
  6
CONTINUOUS
 10
342.503342509209
 20
269.996573772167
 40
2.00207788368556
 50
-90
 51
90
  0
LINE
  8
画層5
  6
CONTINUOUS
 10
317.502906825184
 20
252.996013433982
 11
342.503342509209
 21
252.996013433982
  0
LINE
  8
画層5
  6
CONTINUOUS
 10
317.502906825184
 20
257.000169201353
 11
342.503342509209
 21
257.000169201353
  0
LINE
  8
画層5
  6
CONTINUOUS
 10
317.502906825184
 20
267.994495888481
 11
342.503342509209
 21
267.994495888481
  0
LINE
  8
画層5
  6
CONTINUOUS
 10
317.502906825184
 20
271.999036711185
 11
342.503342509209
 21
271.998651655853
  0
ARC
  8
画層5
  6
CONTINUOUS
 10
532.504631667311
 20
254.998091317667
 40
2.00207788368556
 50
-90
 51
90
  0
ARC
  8
画層5
  6
CONTINUOUS
 10
532.504631667311
 20
269.996766299833
 40
2.00227041135184
 50
-90
 51
90
  0
ARC
  8
画層5
  6
CONTINUOUS
 10
507.504195983287
 20
254.998091317667
 40
2.00207788368556
 50
90
 51
-90
  0
ARC
  8
画層5
  6
CONTINUOUS
 10
507.504195983287
 20
269.996573772167
 40
2.00207788368556
 50
90
 51
-90
  0
LINE
  8
画層5
  6
CONTINUOUS
 10
532.504631667311
 20
252.996013433982
 11
507.504195983287
 21
252.996013433982
  0
LINE
  8
画層5
  6
CONTINUOUS
 10
532.504631667311
 20
257.000169201353
 11
507.504195983287
 21
257.000169201353
  0
LINE
  8
画層5
  6
CONTINUOUS
 10
532.504631667311
 20
267.994495888481
 11
507.504195983287
 21
267.994495888481
  0
LINE
  8
画層5
  6
CONTINUOUS
 10
532.504631667311
 20
271.999036711185
 11
507.504195983287
 21
271.998651655853
  0
ARC
  8
画層5
  6
CONTINUOUS
 10
532.504631667311
 20
334.998079936537
 40
2.00207788368556
 50
-90
 51
90
  0
ARC
  8
画層5
  6
CONTINUOUS
 10
532.504631667311
 20
319.99940495437
 40
2.00227041135184
 50
-90
 51
90
  0
ARC
  8
画層5
  6
CONTINUOUS
 10
507.504195983287
 20
334.998079936537
 40
2.00207788368556
 50
90
 51
-90
  0
ARC
  8
画層5
  6
CONTINUOUS
 10
507.504195983287
 20
319.999597482037
 40
2.00207788368556
 50
90
 51
-90
  0
LINE
  8
画層5
  6
CONTINUOUS
 10
532.504631667311
 20
337.000157820222
 11
507.504195983287
 21
337.000157820222
  0
LINE
  8
画層5
  6
CONTINUOUS
 10
532.504631667311
 20
332.996002052851
 11
507.504195983287
 21
332.996002052851
  0
LINE
  8
画層5
  6
CONTINUOUS
 10
532.504631667311
 20
322.001675365722
 11
507.504195983287
 21
322.001675365722
  0
LINE
  8
画層5
  6
CONTINUOUS
 10
532.504631667311
 20
317.997134543019
 11
507.504195983287
 21
317.997519598351
  0
CIRCLE
  8
画層5
  6
CONTINUOUS
 10
317.502906825184
 20
347.493648419899
 40
1.50114585100812
  0
CIRCLE
  8
画層5
  6
CONTINUOUS
 10
332.500616481085
 20
347.493648419899
 40
1.50114585100812
  0
CIRCLE
  8
画層5
  6
CONTINUOUS
 10
347.504564856581
 20
362.496602370964
 40
1.50114585100812
  0
CIRCLE
  8
画層5
  6
CONTINUOUS
 10
362.499970264713
 20
362.496602370964
 40
1.50114585100812
  0
CIRCLE
  8
画層5
  6
CONTINUOUS
 10
362.499970264713
 20
347.493648419899
 40
1.50114585100812
  0
CIRCLE
  8
画層5
  6
CONTINUOUS
 10
347.504564856581
 20
347.493648419899
 40
1.50114585100812
  0
CIRCLE
  8
画層5
  6
CONTINUOUS
 10
392.504453997318
 20
347.493648419899
 40
1.50114585100812
  0
CIRCLE
  8
画層5
  6
CONTINUOUS
 10
407.507311058499
 20
347.493648419899
 40
1.50114585100812
  0
CIRCLE
  8
画層5
  6
CONTINUOUS
 10
347.504564856581
 20
302.495974783109
 40
1.50114585100812
  0
CIRCLE
  8
画層5
  6
CONTINUOUS
 10
362.499970264713
 20
302.495974783109
 40
1.50114585100812
  0
CIRCLE
  8
画層5
  6
CONTINUOUS
 10
362.499970264713
 20
287.500196471095
 40
1.50114585100812
  0
CIRCLE
  8
画層5
  6
CONTINUOUS
 10
347.504564856581
 20
287.499013237275
 40
1.50114585100812
  0
CIRCLE
  8
画層5
  6
CONTINUOUS
 10
407.507311058499
 20
242.504939425672
 40
1.50114585100812
  0
CIRCLE
  8
画層5
  6
CONTINUOUS
 10
392.504453997318
 20
242.504939425672
 40
1.50114585100812
  0
CIRCLE
  8
画層5
  6
CONTINUOUS
 10
362.499970264713
 20
242.504939425672
 40
1.50114585100812
  0
CIRCLE
  8
画層5
  6
CONTINUOUS
 10
362.499970264713
 20
227.504140694436
 40
1.50114585100812
  0
CIRCLE
  8
画層5
  6
CONTINUOUS
 10
347.504564856581
 20
227.507070991893
 40
1.50114585100812
  0
CIRCLE
  8
画層5
  6
CONTINUOUS
 10
347.504564856581
 20
242.503167650971
 40
1.50114585100812
  0
CIRCLE
  8
画層5
  6
CONTINUOUS
 10
317.502906825184
 20
242.504939425672
 40
1.50114585100812
  0
CIRCLE
  8
画層5
  6
CONTINUOUS
 10
332.500616481085
 20
242.504939425672
 40
1.50114585100812
  0
CIRCLE
  8
画層5
  6
CONTINUOUS
 10
532.504631667311
 20
242.497438869351
 40
1.50114585100812
  0
CIRCLE
  8
画層5
  6
CONTINUOUS
 10
517.506871614843
 20
242.504939425672
 40
1.50114585100812
  0
CIRCLE
  8
画層5
  6
CONTINUOUS
 10
502.505248864922
 20
242.504939425672
 40
1.50114585100812
  0
CIRCLE
  8
画層5
  6
CONTINUOUS
 10
487.508650283423
 20
242.504939425672
 40
1.50114585100812
  0
CIRCLE
  8
画層5
  6
CONTINUOUS
 10
487.508650283423
 20
227.502161824606
 40
1.50114585100812
  0
CIRCLE
  8
画層5
  6
CONTINUOUS
 10
502.505248864922
 20
227.502161824606
 40
1.50114585100812
  0
CIRCLE
  8
画層5
  6
CONTINUOUS
 10
457.513261345705
 20
242.504939425672
 40
1.50114585100812
  0
CIRCLE
  8
画層5
  6
CONTINUOUS
 10
442.51679451265
 20
242.504939425672
 40
1.50114585100812
  0
CIRCLE
  8
画層5
  6
CONTINUOUS
 10
487.508650283423
 20
287.500196471095
 40
1.50114585100812
  0
CIRCLE
  8
画層5
  6
CONTINUOUS
 10
502.505248864922
 20
287.500196471095
 40
1.50114585100812
  0
CIRCLE
  8
画層5
  6
CONTINUOUS
 10
502.505248864922
 20
302.495974783109
 40
1.50114585100812
  0
CIRCLE
  8
画層5
  6
CONTINUOUS
 10
487.508650283423
 20
302.495974783109
 40
1.50114585100812
  0
CIRCLE
  8
画層5
  6
CONTINUOUS
 10
517.506871614843
 20
347.493648419899
 40
1.50114585100812
  0
CIRCLE
  8
画層5
  6
CONTINUOUS
 10
532.504631667311
 20
347.493648419899
 40
1.50114585100812
  0
CIRCLE
  8
画層5
  6
CONTINUOUS
 10
502.505248864922
 20
362.496602370964
 40
1.50114585100812
  0
CIRCLE
  8
画層5
  6
CONTINUOUS
 10
487.508650283423
 20
362.496602370964
 40
1.50114585100812
  0
CIRCLE
  8
画層5
  6
CONTINUOUS
 10
487.508650283423
 20
347.493648419899
 40
1.50114585100812
  0
CIRCLE
  8
画層5
  6
CONTINUOUS
 10
502.505248864922
 20
347.493648419899
 40
1.50114585100812
  0
CIRCLE
  8
画層5
  6
CONTINUOUS
 10
457.513261345705
 20
347.493648419899
 40
1.50114585100812
  0
CIRCLE
  8
画層5
  6
CONTINUOUS
 10
442.51679451265
 20
347.493648419899
 40
1.50114585100812
  0
CIRCLE
  8
画層5
  6
CONTINUOUS
 10
402.502732244067
 20
142.495738250105
 40
1.50114585100812
  0
CIRCLE
  8
画層5
  6
CONTINUOUS
 10
357.503783902371
 20
187.490046399679
 40
1.50114585100812
  0
CIRCLE
  8
画層5
  6
CONTINUOUS
 10
372.50283032319
 20
187.490046399679
 40
1.50114585100812
  0
CIRCLE
  8
画層5
  6
CONTINUOUS
 10
402.502732244067
 20
202.487982280684
 40
1.50114585100812
  0
CIRCLE
  8
画層5
  6
CONTINUOUS
 10
357.503783902371
 20
157.494311889596
 40
1.50114585100812
  0
CIRCLE
  8
画層5
  6
CONTINUOUS
 10
372.50283032319
 20
157.494311889596
 40
1.50114585100812
  0
CIRCLE
  8
画層5
  6
CONTINUOUS
 10
447.496121965571
 20
142.495738250105
 40
1.50114585100812
  0
CIRCLE
  8
画層5
  6
CONTINUOUS
 10
477.498291058679
 20
157.494311889596
 40
1.50114585100812
  0
CIRCLE
  8
画層5
  6
CONTINUOUS
 10
492.499753900742
 20
157.494311889596
 40
1.50114585100812
  0
CIRCLE
  8
画層5
  6
CONTINUOUS
 10
492.499753900742
 20
187.490046399679
 40
1.50114585100812
  0
CIRCLE
  8
画層5
  6
CONTINUOUS
 10
477.498291058679
 20
187.490046399679
 40
1.50114585100812
  0
CIRCLE
  8
画層5
  6
CONTINUOUS
 10
447.496121965571
 20
202.487982280684
 40
1.50114585100812
  0
CIRCLE
  8
画層5
  6
CONTINUOUS
 10
492.499753900742
 20
432.495503974282
 40
1.50114585100812
  0
CIRCLE
  8
画層5
  6
CONTINUOUS
 10
477.498291058679
 20
432.495503974282
 40
1.50114585100812
  0
CIRCLE
  8
画層5
  6
CONTINUOUS
 10
477.498291058679
 20
402.499955049102
 40
1.50114585100812
  0
CIRCLE
  8
画層5
  6
CONTINUOUS
 10
492.499753900742
 20
402.499955049102
 40
1.50114585100812
  0
CIRCLE
  8
画層5
  6
CONTINUOUS
 10
447.496121965571
 20
387.502087767994
 40
1.50114585100812
  0
CIRCLE
  8
画層5
  6
CONTINUOUS
 10
447.496121965571
 20
447.4965629891
 40
1.50114585100812
  0
CIRCLE
  8
画層5
  6
CONTINUOUS
 10
402.502732244067
 20
447.4965629891
 40
1.50114585100812
  0
CIRCLE
  8
画層5
  6
CONTINUOUS
 10
372.50283032319
 20
432.495503974282
 40
1.50114585100812
  0
CIRCLE
  8
画層5
  6
CONTINUOUS
 10
357.503783902371
 20
432.495503974282
 40
1.50114585100812
  0
CIRCLE
  8
画層5
  6
CONTINUOUS
 10
357.503783902371
 20
402.499955049102
 40
1.50114585100812
  0
CIRCLE
  8
画層5
  6
CONTINUOUS
 10
372.50283032319
 20
402.499955049102
 40
1.50114585100812
  0
CIRCLE
  8
画層5
  6
CONTINUOUS
 10
402.502732244067
 20
387.502087767994
 40
1.50114585100812
  0
ENDSEC
  0
EOF
