999
Outputted By AR_CAD Ver.1.4.1
  0
SECTION
  2
HEADER
  9
$ACADVER
  1
AC1009
  9
$DWGCODEPAGE
  3
DOS932
  9
$EXTMIN
 10
0
 20
0
  9
$EXTMAX
 10
297
 20
210
  9
$INSBASE
 10
0.0
 20
0.0
 30
0.0
  9
$HANDLING
 70
     1
  9
$LTSCALE
 40
1
  0
ENDSEC
  0
SECTION
  2
TABLES
  0
TABLE
  2
LTYPE
 70
     7
  0
LTYPE
  2
BYBLOCK
 70
    64
 3

 72
    65
 73
    0
 40
    0
  0
LTYPE
  2
BYLAYER
 70
    64
 3

 72
    65
 73
    0
 40
    0
  0
LTYPE
  2
CONTINUOUS
 70
    64
 3
CONTINUOUS
 72
    65
 73
    0
 40
    0
  0
LTYPE
  2
DASHED
 70
    64
 3

 72
    65
 73
    2
 40
    3.5
 49
    2.91666666666667
 49
    -0.583333333333333
  0
LTYPE
  2
DOT
 70
    64
 3

 72
    65
 73
    2
 40
    0.5
 49
    0.25
 49
    -0.25
  0
LTYPE
  2
DASHDOT
 70
    64
 3

 72
    65
 73
    4
 40
    3.5
 49
    1.84210526315789
 49
    -0.552631578947368
 49
    0.552631578947368
 49
    -0.552631578947368
  0
LTYPE
  2
DIVIDE
 70
    64
 3

 72
    65
 73
    6
 40
    3.5
 49
    1.4
 49
    -0.42
 49
    0.42
 49
    -0.42
 49
    0.42
 49
    -0.42
  0
LTYPE
  2
HIDDEN
 70
    64
 3

 72
    65
 73
    2
 40
    4
 49
    2
 49
    -2
  0
ENDTAB
  0
TABLE
  2
LAYER
 70
   257
  0
LAYER
  2
画層0
 70
    0
 62
-7
  6
CONTINUOUS
  0
LAYER
  2
画層1
 70
    0
 62
-3
  6
CONTINUOUS
  0
LAYER
  2
画層2
 70
    0
 62
-9
  6
CONTINUOUS
  0
LAYER
  2
画層3
 70
    0
 62
-7
  6
CONTINUOUS
  0
LAYER
  2
画層4
 70
    4
 62
7
  6
CONTINUOUS
  0
LAYER
  2
画層5
 70
    4
 62
7
  6
CONTINUOUS
  0
LAYER
  2
画層6
 70
    0
 62
-253
  6
CONTINUOUS
  0
LAYER
  2
画層7
 70
    0
 62
-192
  6
CONTINUOUS
  0
LAYER
  2
画層8
 70
    0
 62
-74
  6
CONTINUOUS
  0
LAYER
  2
画層9
 70
    4
 62
7
  6
CONTINUOUS
  0
LAYER
  2
画層10
 70
    0
 62
-190
  6
CONTINUOUS
  0
LAYER
  2
画層11
 70
    0
 62
-132
  6
CONTINUOUS
  0
LAYER
  2
画層12
 70
    0
 62
-161
  6
CONTINUOUS
  0
LAYER
  2
画層13
 70
    0
 62
-5
  6
CONTINUOUS
  0
LAYER
  2
画層14
 70
    0
 62
-150
  6
CONTINUOUS
  0
LAYER
  2
画層15
 70
    4
 62
7
  6
CONTINUOUS
  0
LAYER
  2
画層16
 70
    0
 62
7
  6
CONTINUOUS
  0
LAYER
  2
画層17
 70
    0
 62
70
  6
CONTINUOUS
  0
LAYER
  2
画層18
 70
    0
 62
211
  6
CONTINUOUS
  0
LAYER
  2
画層19
 70
    0
 62
137
  6
CONTINUOUS
  0
LAYER
  2
画層20
 70
    0
 62
4
  6
CONTINUOUS
  0
LAYER
  2
画層21
 70
    0
 62
131
  6
CONTINUOUS
  0
LAYER
  2
画層22
 70
    0
 62
4
  6
CONTINUOUS
  0
LAYER
  2
画層23
 70
    0
 62
4
  6
CONTINUOUS
  0
LAYER
  2
画層24
 70
    0
 62
7
  6
CONTINUOUS
  0
LAYER
  2
画層25
 70
    0
 62
7
  6
CONTINUOUS
  0
LAYER
  2
画層26
 70
    0
 62
7
  6
CONTINUOUS
  0
LAYER
  2
画層27
 70
    0
 62
7
  6
CONTINUOUS
  0
LAYER
  2
画層28
 70
    0
 62
7
  6
CONTINUOUS
  0
LAYER
  2
画層29
 70
    0
 62
7
  6
CONTINUOUS
  0
LAYER
  2
画層30
 70
    0
 62
7
  6
CONTINUOUS
  0
LAYER
  2
画層31
 70
    0
 62
7
  6
CONTINUOUS
  0
LAYER
  2
画層32
 70
    0
 62
7
  6
CONTINUOUS
  0
LAYER
  2
画層33
 70
    0
 62
7
  6
CONTINUOUS
  0
LAYER
  2
画層34
 70
    0
 62
7
  6
CONTINUOUS
  0
LAYER
  2
画層35
 70
    0
 62
7
  6
CONTINUOUS
  0
LAYER
  2
画層36
 70
    0
 62
7
  6
CONTINUOUS
  0
LAYER
  2
画層37
 70
    0
 62
7
  6
CONTINUOUS
  0
LAYER
  2
画層38
 70
    0
 62
7
  6
CONTINUOUS
  0
LAYER
  2
画層39
 70
    0
 62
7
  6
CONTINUOUS
  0
LAYER
  2
画層40
 70
    0
 62
7
  6
CONTINUOUS
  0
LAYER
  2
画層41
 70
    0
 62
7
  6
CONTINUOUS
  0
LAYER
  2
画層42
 70
    0
 62
7
  6
CONTINUOUS
  0
LAYER
  2
画層43
 70
    0
 62
7
  6
CONTINUOUS
  0
LAYER
  2
画層44
 70
    0
 62
7
  6
CONTINUOUS
  0
LAYER
  2
画層45
 70
    0
 62
7
  6
CONTINUOUS
  0
LAYER
  2
画層46
 70
    0
 62
7
  6
CONTINUOUS
  0
LAYER
  2
画層47
 70
    0
 62
7
  6
CONTINUOUS
  0
LAYER
  2
画層48
 70
    0
 62
7
  6
CONTINUOUS
  0
LAYER
  2
画層49
 70
    0
 62
7
  6
CONTINUOUS
  0
LAYER
  2
画層50
 70
    0
 62
7
  6
CONTINUOUS
  0
LAYER
  2
画層51
 70
    0
 62
7
  6
CONTINUOUS
  0
LAYER
  2
画層52
 70
    0
 62
7
  6
CONTINUOUS
  0
LAYER
  2
画層53
 70
    0
 62
7
  6
CONTINUOUS
  0
LAYER
  2
画層54
 70
    0
 62
7
  6
CONTINUOUS
  0
LAYER
  2
画層55
 70
    0
 62
7
  6
CONTINUOUS
  0
LAYER
  2
画層56
 70
    0
 62
7
  6
CONTINUOUS
  0
LAYER
  2
画層57
 70
    0
 62
7
  6
CONTINUOUS
  0
LAYER
  2
画層58
 70
    0
 62
7
  6
CONTINUOUS
  0
LAYER
  2
画層59
 70
    0
 62
7
  6
CONTINUOUS
  0
LAYER
  2
画層60
 70
    0
 62
7
  6
CONTINUOUS
  0
LAYER
  2
画層61
 70
    0
 62
7
  6
CONTINUOUS
  0
LAYER
  2
画層62
 70
    0
 62
7
  6
CONTINUOUS
  0
LAYER
  2
画層63
 70
    0
 62
7
  6
CONTINUOUS
  0
LAYER
  2
画層64
 70
    0
 62
7
  6
CONTINUOUS
  0
LAYER
  2
画層65
 70
    0
 62
7
  6
CONTINUOUS
  0
LAYER
  2
画層66
 70
    0
 62
7
  6
CONTINUOUS
  0
LAYER
  2
画層67
 70
    0
 62
7
  6
CONTINUOUS
  0
LAYER
  2
画層68
 70
    0
 62
7
  6
CONTINUOUS
  0
LAYER
  2
画層69
 70
    0
 62
7
  6
CONTINUOUS
  0
LAYER
  2
画層70
 70
    0
 62
7
  6
CONTINUOUS
  0
LAYER
  2
画層71
 70
    0
 62
7
  6
CONTINUOUS
  0
LAYER
  2
画層72
 70
    0
 62
7
  6
CONTINUOUS
  0
LAYER
  2
画層73
 70
    0
 62
7
  6
CONTINUOUS
  0
LAYER
  2
画層74
 70
    0
 62
7
  6
CONTINUOUS
  0
LAYER
  2
画層75
 70
    0
 62
7
  6
CONTINUOUS
  0
LAYER
  2
画層76
 70
    0
 62
7
  6
CONTINUOUS
  0
LAYER
  2
画層77
 70
    0
 62
7
  6
CONTINUOUS
  0
LAYER
  2
画層78
 70
    0
 62
7
  6
CONTINUOUS
  0
LAYER
  2
画層79
 70
    0
 62
7
  6
CONTINUOUS
  0
LAYER
  2
画層80
 70
    0
 62
7
  6
CONTINUOUS
  0
LAYER
  2
画層81
 70
    0
 62
7
  6
CONTINUOUS
  0
LAYER
  2
画層82
 70
    0
 62
7
  6
CONTINUOUS
  0
LAYER
  2
画層83
 70
    0
 62
7
  6
CONTINUOUS
  0
LAYER
  2
画層84
 70
    0
 62
7
  6
CONTINUOUS
  0
LAYER
  2
画層85
 70
    0
 62
7
  6
CONTINUOUS
  0
LAYER
  2
画層86
 70
    0
 62
7
  6
CONTINUOUS
  0
LAYER
  2
画層87
 70
    0
 62
7
  6
CONTINUOUS
  0
LAYER
  2
画層88
 70
    0
 62
7
  6
CONTINUOUS
  0
LAYER
  2
画層89
 70
    0
 62
7
  6
CONTINUOUS
  0
LAYER
  2
画層90
 70
    0
 62
7
  6
CONTINUOUS
  0
LAYER
  2
画層91
 70
    0
 62
7
  6
CONTINUOUS
  0
LAYER
  2
画層92
 70
    0
 62
7
  6
CONTINUOUS
  0
LAYER
  2
画層93
 70
    0
 62
7
  6
CONTINUOUS
  0
LAYER
  2
画層94
 70
    0
 62
7
  6
CONTINUOUS
  0
LAYER
  2
画層95
 70
    0
 62
7
  6
CONTINUOUS
  0
LAYER
  2
画層96
 70
    0
 62
7
  6
CONTINUOUS
  0
LAYER
  2
画層97
 70
    0
 62
7
  6
CONTINUOUS
  0
LAYER
  2
画層98
 70
    0
 62
7
  6
CONTINUOUS
  0
LAYER
  2
画層99
 70
    0
 62
7
  6
CONTINUOUS
  0
LAYER
  2
画層100
 70
    0
 62
7
  6
CONTINUOUS
  0
LAYER
  2
画層101
 70
    0
 62
7
  6
CONTINUOUS
  0
LAYER
  2
画層102
 70
    0
 62
7
  6
CONTINUOUS
  0
LAYER
  2
画層103
 70
    0
 62
7
  6
CONTINUOUS
  0
LAYER
  2
画層104
 70
    0
 62
7
  6
CONTINUOUS
  0
LAYER
  2
画層105
 70
    0
 62
7
  6
CONTINUOUS
  0
LAYER
  2
画層106
 70
    0
 62
7
  6
CONTINUOUS
  0
LAYER
  2
画層107
 70
    0
 62
7
  6
CONTINUOUS
  0
LAYER
  2
画層108
 70
    0
 62
7
  6
CONTINUOUS
  0
LAYER
  2
画層109
 70
    0
 62
7
  6
CONTINUOUS
  0
LAYER
  2
画層110
 70
    0
 62
7
  6
CONTINUOUS
  0
LAYER
  2
画層111
 70
    0
 62
7
  6
CONTINUOUS
  0
LAYER
  2
画層112
 70
    0
 62
7
  6
CONTINUOUS
  0
LAYER
  2
画層113
 70
    0
 62
7
  6
CONTINUOUS
  0
LAYER
  2
画層114
 70
    0
 62
7
  6
CONTINUOUS
  0
LAYER
  2
画層115
 70
    0
 62
7
  6
CONTINUOUS
  0
LAYER
  2
画層116
 70
    0
 62
7
  6
CONTINUOUS
  0
LAYER
  2
画層117
 70
    0
 62
7
  6
CONTINUOUS
  0
LAYER
  2
画層118
 70
    0
 62
7
  6
CONTINUOUS
  0
LAYER
  2
画層119
 70
    0
 62
7
  6
CONTINUOUS
  0
LAYER
  2
画層120
 70
    0
 62
7
  6
CONTINUOUS
  0
LAYER
  2
画層121
 70
    0
 62
7
  6
CONTINUOUS
  0
LAYER
  2
画層122
 70
    0
 62
7
  6
CONTINUOUS
  0
LAYER
  2
画層123
 70
    0
 62
7
  6
CONTINUOUS
  0
LAYER
  2
画層124
 70
    0
 62
7
  6
CONTINUOUS
  0
LAYER
  2
画層125
 70
    0
 62
7
  6
CONTINUOUS
  0
LAYER
  2
画層126
 70
    0
 62
7
  6
CONTINUOUS
  0
LAYER
  2
画層127
 70
    0
 62
7
  6
CONTINUOUS
  0
LAYER
  2
画層128
 70
    0
 62
7
  6
CONTINUOUS
  0
LAYER
  2
画層129
 70
    0
 62
7
  6
CONTINUOUS
  0
LAYER
  2
画層130
 70
    0
 62
7
  6
CONTINUOUS
  0
LAYER
  2
画層131
 70
    0
 62
7
  6
CONTINUOUS
  0
LAYER
  2
画層132
 70
    0
 62
7
  6
CONTINUOUS
  0
LAYER
  2
画層133
 70
    0
 62
7
  6
CONTINUOUS
  0
LAYER
  2
画層134
 70
    0
 62
7
  6
CONTINUOUS
  0
LAYER
  2
画層135
 70
    0
 62
7
  6
CONTINUOUS
  0
LAYER
  2
画層136
 70
    0
 62
7
  6
CONTINUOUS
  0
LAYER
  2
画層137
 70
    0
 62
7
  6
CONTINUOUS
  0
LAYER
  2
画層138
 70
    0
 62
7
  6
CONTINUOUS
  0
LAYER
  2
画層139
 70
    0
 62
7
  6
CONTINUOUS
  0
LAYER
  2
画層140
 70
    0
 62
7
  6
CONTINUOUS
  0
LAYER
  2
画層141
 70
    0
 62
7
  6
CONTINUOUS
  0
LAYER
  2
画層142
 70
    0
 62
7
  6
CONTINUOUS
  0
LAYER
  2
画層143
 70
    0
 62
7
  6
CONTINUOUS
  0
LAYER
  2
画層144
 70
    0
 62
7
  6
CONTINUOUS
  0
LAYER
  2
画層145
 70
    0
 62
7
  6
CONTINUOUS
  0
LAYER
  2
画層146
 70
    0
 62
7
  6
CONTINUOUS
  0
LAYER
  2
画層147
 70
    0
 62
7
  6
CONTINUOUS
  0
LAYER
  2
画層148
 70
    0
 62
7
  6
CONTINUOUS
  0
LAYER
  2
画層149
 70
    0
 62
7
  6
CONTINUOUS
  0
LAYER
  2
画層150
 70
    0
 62
7
  6
CONTINUOUS
  0
LAYER
  2
画層151
 70
    0
 62
7
  6
CONTINUOUS
  0
LAYER
  2
画層152
 70
    0
 62
7
  6
CONTINUOUS
  0
LAYER
  2
画層153
 70
    0
 62
7
  6
CONTINUOUS
  0
LAYER
  2
画層154
 70
    0
 62
7
  6
CONTINUOUS
  0
LAYER
  2
画層155
 70
    0
 62
7
  6
CONTINUOUS
  0
LAYER
  2
画層156
 70
    0
 62
7
  6
CONTINUOUS
  0
LAYER
  2
画層157
 70
    0
 62
7
  6
CONTINUOUS
  0
LAYER
  2
画層158
 70
    0
 62
7
  6
CONTINUOUS
  0
LAYER
  2
画層159
 70
    0
 62
7
  6
CONTINUOUS
  0
LAYER
  2
画層160
 70
    0
 62
7
  6
CONTINUOUS
  0
LAYER
  2
画層161
 70
    0
 62
7
  6
CONTINUOUS
  0
LAYER
  2
画層162
 70
    0
 62
7
  6
CONTINUOUS
  0
LAYER
  2
画層163
 70
    0
 62
7
  6
CONTINUOUS
  0
LAYER
  2
画層164
 70
    0
 62
7
  6
CONTINUOUS
  0
LAYER
  2
画層165
 70
    0
 62
7
  6
CONTINUOUS
  0
LAYER
  2
画層166
 70
    0
 62
7
  6
CONTINUOUS
  0
LAYER
  2
画層167
 70
    0
 62
7
  6
CONTINUOUS
  0
LAYER
  2
画層168
 70
    0
 62
7
  6
CONTINUOUS
  0
LAYER
  2
画層169
 70
    0
 62
7
  6
CONTINUOUS
  0
LAYER
  2
画層170
 70
    0
 62
7
  6
CONTINUOUS
  0
LAYER
  2
画層171
 70
    0
 62
7
  6
CONTINUOUS
  0
LAYER
  2
画層172
 70
    0
 62
7
  6
CONTINUOUS
  0
LAYER
  2
画層173
 70
    0
 62
7
  6
CONTINUOUS
  0
LAYER
  2
画層174
 70
    0
 62
7
  6
CONTINUOUS
  0
LAYER
  2
画層175
 70
    0
 62
7
  6
CONTINUOUS
  0
LAYER
  2
画層176
 70
    0
 62
7
  6
CONTINUOUS
  0
LAYER
  2
画層177
 70
    0
 62
7
  6
CONTINUOUS
  0
LAYER
  2
画層178
 70
    0
 62
7
  6
CONTINUOUS
  0
LAYER
  2
画層179
 70
    0
 62
7
  6
CONTINUOUS
  0
LAYER
  2
画層180
 70
    0
 62
7
  6
CONTINUOUS
  0
LAYER
  2
画層181
 70
    0
 62
7
  6
CONTINUOUS
  0
LAYER
  2
画層182
 70
    0
 62
7
  6
CONTINUOUS
  0
LAYER
  2
画層183
 70
    0
 62
7
  6
CONTINUOUS
  0
LAYER
  2
画層184
 70
    0
 62
7
  6
CONTINUOUS
  0
LAYER
  2
画層185
 70
    0
 62
7
  6
CONTINUOUS
  0
LAYER
  2
画層186
 70
    0
 62
7
  6
CONTINUOUS
  0
LAYER
  2
画層187
 70
    0
 62
7
  6
CONTINUOUS
  0
LAYER
  2
画層188
 70
    0
 62
7
  6
CONTINUOUS
  0
LAYER
  2
画層189
 70
    0
 62
7
  6
CONTINUOUS
  0
LAYER
  2
画層190
 70
    0
 62
7
  6
CONTINUOUS
  0
LAYER
  2
画層191
 70
    0
 62
7
  6
CONTINUOUS
  0
LAYER
  2
画層192
 70
    0
 62
7
  6
CONTINUOUS
  0
LAYER
  2
画層193
 70
    0
 62
7
  6
CONTINUOUS
  0
LAYER
  2
画層194
 70
    0
 62
7
  6
CONTINUOUS
  0
LAYER
  2
画層195
 70
    0
 62
7
  6
CONTINUOUS
  0
LAYER
  2
画層196
 70
    0
 62
7
  6
CONTINUOUS
  0
LAYER
  2
画層197
 70
    0
 62
7
  6
CONTINUOUS
  0
LAYER
  2
画層198
 70
    0
 62
7
  6
CONTINUOUS
  0
LAYER
  2
画層199
 70
    0
 62
7
  6
CONTINUOUS
  0
LAYER
  2
画層200
 70
    0
 62
7
  6
CONTINUOUS
  0
LAYER
  2
画層201
 70
    0
 62
7
  6
CONTINUOUS
  0
LAYER
  2
画層202
 70
    0
 62
7
  6
CONTINUOUS
  0
LAYER
  2
画層203
 70
    0
 62
7
  6
CONTINUOUS
  0
LAYER
  2
画層204
 70
    0
 62
7
  6
CONTINUOUS
  0
LAYER
  2
画層205
 70
    0
 62
7
  6
CONTINUOUS
  0
LAYER
  2
画層206
 70
    0
 62
7
  6
CONTINUOUS
  0
LAYER
  2
画層207
 70
    0
 62
7
  6
CONTINUOUS
  0
LAYER
  2
画層208
 70
    0
 62
7
  6
CONTINUOUS
  0
LAYER
  2
画層209
 70
    0
 62
7
  6
CONTINUOUS
  0
LAYER
  2
画層210
 70
    0
 62
7
  6
CONTINUOUS
  0
LAYER
  2
画層211
 70
    0
 62
7
  6
CONTINUOUS
  0
LAYER
  2
画層212
 70
    0
 62
7
  6
CONTINUOUS
  0
LAYER
  2
画層213
 70
    0
 62
7
  6
CONTINUOUS
  0
LAYER
  2
画層214
 70
    0
 62
7
  6
CONTINUOUS
  0
LAYER
  2
画層215
 70
    0
 62
7
  6
CONTINUOUS
  0
LAYER
  2
画層216
 70
    0
 62
7
  6
CONTINUOUS
  0
LAYER
  2
画層217
 70
    0
 62
7
  6
CONTINUOUS
  0
LAYER
  2
画層218
 70
    0
 62
7
  6
CONTINUOUS
  0
LAYER
  2
画層219
 70
    0
 62
7
  6
CONTINUOUS
  0
LAYER
  2
画層220
 70
    0
 62
7
  6
CONTINUOUS
  0
LAYER
  2
画層221
 70
    0
 62
7
  6
CONTINUOUS
  0
LAYER
  2
画層222
 70
    0
 62
7
  6
CONTINUOUS
  0
LAYER
  2
画層223
 70
    0
 62
7
  6
CONTINUOUS
  0
LAYER
  2
画層224
 70
    0
 62
7
  6
CONTINUOUS
  0
LAYER
  2
画層225
 70
    0
 62
7
  6
CONTINUOUS
  0
LAYER
  2
画層226
 70
    0
 62
7
  6
CONTINUOUS
  0
LAYER
  2
画層227
 70
    0
 62
7
  6
CONTINUOUS
  0
LAYER
  2
画層228
 70
    0
 62
7
  6
CONTINUOUS
  0
LAYER
  2
画層229
 70
    0
 62
7
  6
CONTINUOUS
  0
LAYER
  2
画層230
 70
    0
 62
7
  6
CONTINUOUS
  0
LAYER
  2
画層231
 70
    0
 62
7
  6
CONTINUOUS
  0
LAYER
  2
画層232
 70
    0
 62
7
  6
CONTINUOUS
  0
LAYER
  2
画層233
 70
    0
 62
7
  6
CONTINUOUS
  0
LAYER
  2
画層234
 70
    0
 62
7
  6
CONTINUOUS
  0
LAYER
  2
画層235
 70
    0
 62
7
  6
CONTINUOUS
  0
LAYER
  2
画層236
 70
    0
 62
7
  6
CONTINUOUS
  0
LAYER
  2
画層237
 70
    0
 62
7
  6
CONTINUOUS
  0
LAYER
  2
画層238
 70
    0
 62
7
  6
CONTINUOUS
  0
LAYER
  2
画層239
 70
    0
 62
7
  6
CONTINUOUS
  0
LAYER
  2
画層240
 70
    0
 62
7
  6
CONTINUOUS
  0
LAYER
  2
画層241
 70
    0
 62
7
  6
CONTINUOUS
  0
LAYER
  2
画層242
 70
    0
 62
7
  6
CONTINUOUS
  0
LAYER
  2
画層243
 70
    0
 62
7
  6
CONTINUOUS
  0
LAYER
  2
画層244
 70
    0
 62
7
  6
CONTINUOUS
  0
LAYER
  2
画層245
 70
    0
 62
7
  6
CONTINUOUS
  0
LAYER
  2
画層246
 70
    0
 62
7
  6
CONTINUOUS
  0
LAYER
  2
画層247
 70
    0
 62
7
  6
CONTINUOUS
  0
LAYER
  2
画層248
 70
    0
 62
7
  6
CONTINUOUS
  0
LAYER
  2
画層249
 70
    0
 62
7
  6
CONTINUOUS
  0
LAYER
  2
画層250
 70
    0
 62
7
  6
CONTINUOUS
  0
LAYER
  2
画層251
 70
    0
 62
7
  6
CONTINUOUS
  0
LAYER
  2
画層252
 70
    0
 62
7
  6
CONTINUOUS
  0
LAYER
  2
画層253
 70
    0
 62
7
  6
CONTINUOUS
  0
LAYER
  2
画層254
 70
    0
 62
7
  6
CONTINUOUS
  0
LAYER
  2
画層255
 70
    0
 62
7
  6
CONTINUOUS
  0
LAYER
  2
0
 70
   64
 62
    7
  6
CONTINUOUS
  0
ENDTAB
  0
TABLE
  2
STYLE
 70
     1
  0
STYLE
  2
Standard
 70
     0
 40
0.0
 41
1.0
 50
0.0
 71
     0
 42
3.2
  3
TXT
  4
BIGFONT
  0
STYLE
  2
Font_0
 70
     0
 40
0.0
 41
1.0
 50
0.0
 71
     0
 42
3.2
  3
txt
  4
BIGFONT
  0
ENDTAB
  0
ENDSEC
  0
SECTION
  2
ENTITIES
  0
LINE
  8
画層15
  6
CONTINUOUS
 10
240
 20
380
 11
240
 21
375
  0
LINE
  8
画層15
  6
CONTINUOUS
 10
340
 20
130
 11
490
 21
130
  0
LINE
  8
画層15
  6
CONTINUOUS
 10
590
 20
230
 11
590
 21
235
  0
LINE
  8
画層15
  6
CONTINUOUS
 10
590
 20
375
 11
590
 21
380
  0
LINE
  8
画層15
  6
CONTINUOUS
 10
340
 20
480
 11
490
 21
480
  0
LINE
  8
画層15
  6
CONTINUOUS
 10
494.998356104543
 20
130
 11
590
 21
224.996771034067
  0
LINE
  8
画層15
  6
CONTINUOUS
 10
590
 20
384.996334906118
 11
494.997549275172
 21
480
  0
LINE
  8
画層15
  6
CONTINUOUS
 10
240
 20
224.998807336096
 11
335.002885458578
 21
130
  0
LINE
  8
画層15
  6
CONTINUOUS
 10
590
 20
224.996771034067
 11
590
 21
230
  0
LINE
  8
画層15
  6
CONTINUOUS
 10
494.998356104543
 20
130
 11
490
 21
130
  0
LINE
  8
画層15
  6
CONTINUOUS
 10
335.002885458578
 20
130
 11
340
 21
130
  0
LINE
  8
画層15
  6
CONTINUOUS
 10
240
 20
224.998807336096
 11
240
 21
230
  0
LINE
  8
画層15
  6
CONTINUOUS
 10
240
 20
230
 11
240
 21
235
  0
LINE
  8
画層15
  6
CONTINUOUS
 10
240
 20
380
 11
240
 21
385.002455342156
  0
LINE
  8
画層15
  6
CONTINUOUS
 10
340
 20
480
 11
335.000495294151
 21
480
  0
LINE
  8
画層15
  6
CONTINUOUS
 10
335.000495294151
 20
480
 11
240
 21
385.002455342156
  0
LINE
  8
画層15
  6
CONTINUOUS
 10
494.997549275172
 20
480
 11
490
 21
480
  0
LINE
  8
画層15
  6
CONTINUOUS
 10
590
 20
384.996334906118
 11
590
 21
380
  0
LINE
  8
画層15
  6
CONTINUOUS
 10
240
 20
375
 11
240
 21
235
  0
LINE
  8
画層15
  6
CONTINUOUS
 10
590
 20
235
 11
590
 21
375
  0
CIRCLE
  8
画層5
  6
CONTINUOUS
 10
340
 20
350
 40
1.50114585100812
  0
CIRCLE
  8
画層5
  6
CONTINUOUS
 10
395.000260283222
 20
350
 40
1.50114585100812
  0
CIRCLE
  8
画層5
  6
CONTINUOUS
 10
340
 20
260
 40
1.50114585100812
  0
CIRCLE
  8
画層5
  6
CONTINUOUS
 10
394.999923538269
 20
260
 40
1.50114585100812
  0
CIRCLE
  8
画層5
  6
CONTINUOUS
 10
434.99995263995
 20
260
 40
1.50114585100812
  0
CIRCLE
  8
画層5
  6
CONTINUOUS
 10
490
 20
260
 40
1.50114585100812
  0
CIRCLE
  8
画層5
  6
CONTINUOUS
 10
490
 20
350
 40
1.50114585100812
  0
CIRCLE
  8
画層5
  6
CONTINUOUS
 10
435.002762080683
 20
350
 40
1.50114585100812
  0
CIRCLE
  8
画層5
  6
CONTINUOUS
 10
340
 20
380
 40
1.50114585100812
  0
CIRCLE
  8
画層5
  6
CONTINUOUS
 10
490
 20
380
 40
1.50114585100812
  0
CIRCLE
  8
画層5
  6
CONTINUOUS
 10
490
 20
230
 40
1.50114585100812
  0
CIRCLE
  8
画層5
  6
CONTINUOUS
 10
340
 20
230
 40
1.50114585100812
  0
CIRCLE
  8
画層5
  6
CONTINUOUS
 10
367.499961769134
 20
235
 40
1.50114585100812
  0
CIRCLE
  8
画層5
  6
CONTINUOUS
 10
462.499976319975
 20
235
 40
1.50114585100812
  0
CIRCLE
  8
画層5
  6
CONTINUOUS
 10
507.506871614843
 20
372.496602370964
 40
1.50114585100812
  0
CIRCLE
  8
画層5
  6
CONTINUOUS
 10
537.504301347393
 20
372.496602370964
 40
1.50114585100812
  0
CIRCLE
  8
画層5
  6
CONTINUOUS
 10
552.50538405726
 20
372.496602370964
 40
1.50114585100812
  0
CIRCLE
  8
画層5
  6
CONTINUOUS
 10
582.499809579889
 20
372.496602370964
 40
1.50114585100812
  0
CIRCLE
  8
画層5
  6
CONTINUOUS
 10
507.506871614843
 20
357.493648419899
 40
1.50114585100812
  0
CIRCLE
  8
画層5
  6
CONTINUOUS
 10
537.504301347393
 20
357.493648419899
 40
1.50114585100812
  0
CIRCLE
  8
画層5
  6
CONTINUOUS
 10
552.50538405726
 20
357.493648419899
 40
1.50114585100812
  0
CIRCLE
  8
画層5
  6
CONTINUOUS
 10
582.499809579889
 20
357.493648419899
 40
1.50114585100812
  0
CIRCLE
  8
画層5
  6
CONTINUOUS
 10
537.504301347393
 20
342.497269827564
 40
1.50114585100812
  0
CIRCLE
  8
画層5
  6
CONTINUOUS
 10
582.499809579889
 20
342.497269827564
 40
1.50114585100812
  0
CIRCLE
  8
画層5
  6
CONTINUOUS
 10
582.499809579889
 20
327.500027005632
 40
1.50114585100812
  0
CIRCLE
  8
画層5
  6
CONTINUOUS
 10
537.504301347393
 20
327.500027005632
 40
1.50114585100812
  0
CIRCLE
  8
画層5
  6
CONTINUOUS
 10
582.499809579889
 20
312.495974783109
 40
1.50114585100812
  0
CIRCLE
  8
画層5
  6
CONTINUOUS
 10
552.50538405726
 20
312.495974783109
 40
1.50114585100812
  0
CIRCLE
  8
画層5
  6
CONTINUOUS
 10
537.504301347393
 20
312.495974783109
 40
1.50114585100812
  0
CIRCLE
  8
画層5
  6
CONTINUOUS
 10
582.499809579889
 20
297.500196471095
 40
1.50114585100812
  0
CIRCLE
  8
画層5
  6
CONTINUOUS
 10
552.50538405726
 20
297.500196471095
 40
1.50114585100812
  0
CIRCLE
  8
画層5
  6
CONTINUOUS
 10
537.504301347393
 20
297.500196471095
 40
1.50114585100812
  0
CIRCLE
  8
画層5
  6
CONTINUOUS
 10
582.499809579889
 20
282.504673890789
 40
1.50114585100812
  0
CIRCLE
  8
画層5
  6
CONTINUOUS
 10
537.504301347393
 20
282.504673890789
 40
1.50114585100812
  0
CIRCLE
  8
画層5
  6
CONTINUOUS
 10
582.499809579889
 20
267.506580451589
 40
1.50114585100812
  0
CIRCLE
  8
画層5
  6
CONTINUOUS
 10
537.504301347393
 20
267.506580451589
 40
1.50114585100812
  0
CIRCLE
  8
画層5
  6
CONTINUOUS
 10
582.499809579889
 20
252.504939425672
 40
1.50114585100812
  0
CIRCLE
  8
画層5
  6
CONTINUOUS
 10
552.50538405726
 20
252.504939425672
 40
1.50114585100812
  0
CIRCLE
  8
画層5
  6
CONTINUOUS
 10
537.504301347393
 20
252.504939425672
 40
1.50114585100812
  0
CIRCLE
  8
画層5
  6
CONTINUOUS
 10
507.506871614843
 20
252.504939425672
 40
1.50114585100812
  0
CIRCLE
  8
画層5
  6
CONTINUOUS
 10
582.499809579889
 20
237.502161824606
 40
1.50114585100812
  0
CIRCLE
  8
画層5
  6
CONTINUOUS
 10
552.50538405726
 20
237.502161824606
 40
1.50114585100812
  0
CIRCLE
  8
画層5
  6
CONTINUOUS
 10
537.504301347393
 20
237.502161824606
 40
1.50114585100812
  0
CIRCLE
  8
画層5
  6
CONTINUOUS
 10
507.506871614843
 20
237.502161824606
 40
1.50114585100812
  0
CIRCLE
  8
画層5
  6
CONTINUOUS
 10
563.703939936945
 20
209.314001740674
 40
1.50114585100812
  0
CIRCLE
  8
画層5
  6
CONTINUOUS
 10
553.099553455008
 20
198.70970513026
 40
1.50114585100812
  0
CIRCLE
  8
画層5
  6
CONTINUOUS
 10
521.279551387384
 20
166.889837830711
 40
1.50114585100812
  0
CIRCLE
  8
画層5
  6
CONTINUOUS
 10
510.669766172916
 20
156.28005259409
 40
1.50114585100812
  0
CIRCLE
  8
画層5
  6
CONTINUOUS
 10
247.499791051015
 20
237.502161824606
 40
1.50114585100812
  0
CIRCLE
  8
画層5
  6
CONTINUOUS
 10
277.498043669659
 20
237.502161824606
 40
1.50114585100812
  0
CIRCLE
  8
画層5
  6
CONTINUOUS
 10
292.50237801207
 20
237.502161824606
 40
1.50114585100812
  0
CIRCLE
  8
画層5
  6
CONTINUOUS
 10
322.500616481085
 20
237.502161824606
 40
1.50114585100812
  0
CIRCLE
  8
画層5
  6
CONTINUOUS
 10
247.499791051015
 20
252.504939425672
 40
1.50114585100812
  0
CIRCLE
  8
画層5
  6
CONTINUOUS
 10
277.498043669659
 20
252.504939425672
 40
1.50114585100812
  0
CIRCLE
  8
画層5
  6
CONTINUOUS
 10
292.50237801207
 20
252.504939425672
 40
1.50114585100812
  0
CIRCLE
  8
画層5
  6
CONTINUOUS
 10
322.500616481085
 20
252.504939425672
 40
1.50114585100812
  0
CIRCLE
  8
画層5
  6
CONTINUOUS
 10
247.499791051015
 20
267.506580451589
 40
1.50114585100812
  0
CIRCLE
  8
画層5
  6
CONTINUOUS
 10
292.50237801207
 20
267.506580451589
 40
1.50114585100812
  0
CIRCLE
  8
画層5
  6
CONTINUOUS
 10
247.499791051015
 20
282.504673890789
 40
1.50114585100812
  0
CIRCLE
  8
画層5
  6
CONTINUOUS
 10
292.50237801207
 20
282.504673890789
 40
1.50114585100812
  0
CIRCLE
  8
画層5
  6
CONTINUOUS
 10
247.499791051015
 20
297.500196471095
 40
1.50114585100812
  0
CIRCLE
  8
画層5
  6
CONTINUOUS
 10
277.498043669659
 20
297.500196471095
 40
1.50114585100812
  0
CIRCLE
  8
画層5
  6
CONTINUOUS
 10
292.50237801207
 20
297.500196471095
 40
1.50114585100812
  0
CIRCLE
  8
画層5
  6
CONTINUOUS
 10
247.499791051015
 20
312.495974783109
 40
1.50114585100812
  0
CIRCLE
  8
画層5
  6
CONTINUOUS
 10
277.503511540463
 20
312.495974783109
 40
1.50114585100812
  0
CIRCLE
  8
画層5
  6
CONTINUOUS
 10
292.50237801207
 20
312.495974783109
 40
1.50114585100812
  0
CIRCLE
  8
画層5
  6
CONTINUOUS
 10
247.499791051015
 20
327.500027005632
 40
1.50114585100812
  0
CIRCLE
  8
画層5
  6
CONTINUOUS
 10
292.50237801207
 20
327.500027005632
 40
1.50114585100812
  0
CIRCLE
  8
画層5
  6
CONTINUOUS
 10
247.499791051015
 20
342.497269827564
 40
1.50114585100812
  0
CIRCLE
  8
画層5
  6
CONTINUOUS
 10
292.50237801207
 20
342.497269827564
 40
1.50114585100812
  0
CIRCLE
  8
画層5
  6
CONTINUOUS
 10
247.499791051015
 20
357.493648419899
 40
1.50114585100812
  0
CIRCLE
  8
画層5
  6
CONTINUOUS
 10
277.503511540463
 20
357.493648419899
 40
1.50114585100812
  0
CIRCLE
  8
画層5
  6
CONTINUOUS
 10
292.50237801207
 20
357.493648419899
 40
1.50114585100812
  0
CIRCLE
  8
画層5
  6
CONTINUOUS
 10
322.500616481085
 20
357.493648419899
 40
1.50114585100812
  0
CIRCLE
  8
画層5
  6
CONTINUOUS
 10
247.499791051015
 20
372.496602370964
 40
1.50114585100812
  0
CIRCLE
  8
画層5
  6
CONTINUOUS
 10
277.503511540463
 20
372.496602370964
 40
1.50114585100812
  0
CIRCLE
  8
画層5
  6
CONTINUOUS
 10
292.50237801207
 20
372.496602370964
 40
1.50114585100812
  0
CIRCLE
  8
画層5
  6
CONTINUOUS
 10
322.500616481085
 20
372.496602370964
 40
1.50114585100812
  0
CIRCLE
  8
画層5
  6
CONTINUOUS
 10
407.499779734828
 20
137.498457879236
 40
1.50114585100812
  0
CIRCLE
  8
画層5
  6
CONTINUOUS
 10
392.4951479178
 20
137.498457879236
 40
1.50114585100812
  0
CIRCLE
  8
画層5
  6
CONTINUOUS
 10
377.498948478035
 20
137.498457879236
 40
1.50114585100812
  0
CIRCLE
  8
画層5
  6
CONTINUOUS
 10
362.501034135377
 20
137.498457879236
 40
1.50114585100812
  0
CIRCLE
  8
画層5
  6
CONTINUOUS
 10
347.504510110543
 20
137.498457879236
 40
1.50114585100812
  0
CIRCLE
  8
画層5
  6
CONTINUOUS
 10
407.499779734828
 20
167.498184265082
 40
1.50114585100812
  0
CIRCLE
  8
画層5
  6
CONTINUOUS
 10
407.499779734828
 20
182.50041514902
 40
1.50114585100812
  0
CIRCLE
  8
画層5
  6
CONTINUOUS
 10
392.4951479178
 20
182.50041514902
 40
1.50114585100812
  0
CIRCLE
  8
画層5
  6
CONTINUOUS
 10
377.498948478035
 20
182.50041514902
 40
1.50114585100812
  0
CIRCLE
  8
画層5
  6
CONTINUOUS
 10
362.501034135377
 20
182.50041514902
 40
1.50114585100812
  0
CIRCLE
  8
画層5
  6
CONTINUOUS
 10
362.501034135377
 20
167.498184265082
 40
1.50114585100812
  0
CIRCLE
  8
画層5
  6
CONTINUOUS
 10
347.504510110543
 20
167.498184265082
 40
1.50114585100812
  0
CIRCLE
  8
画層5
  6
CONTINUOUS
 10
347.504510110543
 20
182.50041514902
 40
1.50114585100812
  0
CIRCLE
  8
画層5
  6
CONTINUOUS
 10
347.504510110543
 20
212.500865990152
 40
1.50114585100812
  0
CIRCLE
  8
画層5
  6
CONTINUOUS
 10
362.501034135377
 20
212.500865990152
 40
1.50114585100812
  0
CIRCLE
  8
画層5
  6
CONTINUOUS
 10
422.50223290383
 20
137.498457879236
 40
1.50114585100812
  0
CIRCLE
  8
画層5
  6
CONTINUOUS
 10
422.50223290383
 20
167.498184265082
 40
1.50114585100812
  0
CIRCLE
  8
画層5
  6
CONTINUOUS
 10
422.50223290383
 20
182.50041514902
 40
1.50114585100812
  0
CIRCLE
  8
画層5
  6
CONTINUOUS
 10
437.501282723072
 20
182.50041514902
 40
1.50114585100812
  0
CIRCLE
  8
画層5
  6
CONTINUOUS
 10
437.501282723072
 20
137.498457879236
 40
1.50114585100812
  0
CIRCLE
  8
画層5
  6
CONTINUOUS
 10
452.501153208997
 20
137.498457879236
 40
1.50114585100812
  0
CIRCLE
  8
画層5
  6
CONTINUOUS
 10
452.501153208997
 20
182.50041514902
 40
1.50114585100812
  0
CIRCLE
  8
画層5
  6
CONTINUOUS
 10
467.499206640811
 20
182.50041514902
 40
1.50114585100812
  0
CIRCLE
  8
画層5
  6
CONTINUOUS
 10
467.499206640811
 20
167.498184265082
 40
1.50114585100812
  0
CIRCLE
  8
画層5
  6
CONTINUOUS
 10
467.499206640811
 20
137.498457879236
 40
1.50114585100812
  0
CIRCLE
  8
画層5
  6
CONTINUOUS
 10
482.501238775324
 20
137.498457879236
 40
1.50114585100812
  0
CIRCLE
  8
画層5
  6
CONTINUOUS
 10
482.501238775324
 20
167.498184265082
 40
1.50114585100812
  0
CIRCLE
  8
画層5
  6
CONTINUOUS
 10
482.501238775324
 20
182.50041514902
 40
1.50114585100812
  0
CIRCLE
  8
画層5
  6
CONTINUOUS
 10
482.501238775324
 20
212.500865990152
 40
1.50114585100812
  0
CIRCLE
  8
画層5
  6
CONTINUOUS
 10
467.499206640811
 20
212.500865990152
 40
1.50114585100812
  0
CIRCLE
  8
画層5
  6
CONTINUOUS
 10
319.320992477989
 20
156.287631733397
 40
1.50114585100812
  0
CIRCLE
  8
画層5
  6
CONTINUOUS
 10
308.723096940342
 20
166.884537003104
 40
1.50114585100812
  0
CIRCLE
  8
画層5
  6
CONTINUOUS
 10
266.289667220771
 20
209.314001740674
 40
1.50114585100812
  0
CIRCLE
  8
画層5
  6
CONTINUOUS
 10
276.88753325648
 20
198.717125970149
 40
1.50114585100812
  0
CIRCLE
  8
画層5
  6
CONTINUOUS
 10
422.50223290383
 20
472.496209866806
 40
1.50114585100812
  0
CIRCLE
  8
画層5
  6
CONTINUOUS
 10
437.501282723072
 20
472.496209866806
 40
1.50114585100812
  0
CIRCLE
  8
画層5
  6
CONTINUOUS
 10
452.501153208997
 20
472.496209866806
 40
1.50114585100812
  0
CIRCLE
  8
画層5
  6
CONTINUOUS
 10
467.499206640811
 20
472.496209866806
 40
1.50114585100812
  0
CIRCLE
  8
画層5
  6
CONTINUOUS
 10
482.501238775324
 20
472.496209866806
 40
1.50114585100812
  0
CIRCLE
  8
画層5
  6
CONTINUOUS
 10
422.50223290383
 20
442.492678504554
 40
1.50114585100812
  0
CIRCLE
  8
画層5
  6
CONTINUOUS
 10
467.499206640811
 20
442.492678504554
 40
1.50114585100812
  0
CIRCLE
  8
画層5
  6
CONTINUOUS
 10
482.501238775324
 20
442.492678504554
 40
1.50114585100812
  0
CIRCLE
  8
画層5
  6
CONTINUOUS
 10
422.50223290383
 20
427.491868655547
 40
1.50114585100812
  0
CIRCLE
  8
画層5
  6
CONTINUOUS
 10
437.501282723072
 20
427.491868655547
 40
1.50114585100812
  0
CIRCLE
  8
画層5
  6
CONTINUOUS
 10
452.501153208997
 20
427.491868655547
 40
1.50114585100812
  0
CIRCLE
  8
画層5
  6
CONTINUOUS
 10
467.499206640811
 20
427.491868655547
 40
1.50114585100812
  0
CIRCLE
  8
画層5
  6
CONTINUOUS
 10
482.501238775324
 20
427.491868655547
 40
1.50114585100812
  0
CIRCLE
  8
画層5
  6
CONTINUOUS
 10
407.499779734828
 20
472.496209866806
 40
1.50114585100812
  0
CIRCLE
  8
画層5
  6
CONTINUOUS
 10
392.4951479178
 20
472.496209866806
 40
1.50114585100812
  0
CIRCLE
  8
画層5
  6
CONTINUOUS
 10
377.498948478035
 20
472.496209866806
 40
1.50114585100812
  0
CIRCLE
  8
画層5
  6
CONTINUOUS
 10
362.501034135377
 20
472.496209866806
 40
1.50114585100812
  0
CIRCLE
  8
画層5
  6
CONTINUOUS
 10
347.504510110543
 20
472.496209866806
 40
1.50114585100812
  0
CIRCLE
  8
画層5
  6
CONTINUOUS
 10
407.499779734828
 20
442.492678504554
 40
1.50114585100812
  0
CIRCLE
  8
画層5
  6
CONTINUOUS
 10
362.501034135377
 20
442.492678504554
 40
1.50114585100812
  0
CIRCLE
  8
画層5
  6
CONTINUOUS
 10
347.504510110543
 20
442.492678504554
 40
1.50114585100812
  0
CIRCLE
  8
画層5
  6
CONTINUOUS
 10
347.504510110543
 20
427.491868655547
 40
1.50114585100812
  0
CIRCLE
  8
画層5
  6
CONTINUOUS
 10
362.501034135377
 20
427.491868655547
 40
1.50114585100812
  0
CIRCLE
  8
画層5
  6
CONTINUOUS
 10
377.498948478035
 20
427.491868655547
 40
1.50114585100812
  0
CIRCLE
  8
画層5
  6
CONTINUOUS
 10
392.4951479178
 20
427.491868655547
 40
1.50114585100812
  0
CIRCLE
  8
画層5
  6
CONTINUOUS
 10
407.499779734828
 20
427.491868655547
 40
1.50114585100812
  0
CIRCLE
  8
画層5
  6
CONTINUOUS
 10
467.499206640811
 20
397.491728140777
 40
1.50114585100812
  0
CIRCLE
  8
画層5
  6
CONTINUOUS
 10
482.501238775324
 20
397.491728140777
 40
1.50114585100812
  0
CIRCLE
  8
画層5
  6
CONTINUOUS
 10
347.504510110543
 20
397.491728140777
 40
1.50114585100812
  0
CIRCLE
  8
画層5
  6
CONTINUOUS
 10
362.501034135377
 20
397.491728140777
 40
1.50114585100812
  0
CIRCLE
  8
画層5
  6
CONTINUOUS
 10
563.703939936945
 20
400.6898868067
 40
1.50114585100812
  0
CIRCLE
  8
画層5
  6
CONTINUOUS
 10
553.099553455008
 20
411.293881842167
 40
1.50114585100812
  0
CIRCLE
  8
画層5
  6
CONTINUOUS
 10
521.279551387384
 20
443.1127093178
 40
1.50114585100812
  0
CIRCLE
  8
画層5
  6
CONTINUOUS
 10
510.669766172916
 20
453.722102886513
 40
1.50114585100812
  0
CIRCLE
  8
画層5
  6
CONTINUOUS
 10
319.320992477989
 20
453.722102886513
 40
1.50114585100812
  0
CIRCLE
  8
画層5
  6
CONTINUOUS
 10
308.723096940342
 20
443.1127093178
 40
1.50114585100812
  0
CIRCLE
  8
画層5
  6
CONTINUOUS
 10
276.88753325648
 20
411.293881842167
 40
1.50114585100812
  0
CIRCLE
  8
画層5
  6
CONTINUOUS
 10
266.289667220771
 20
400.6898868067
 40
1.50114585100812
  0
CIRCLE
  8
画層5
  6
CONTINUOUS
 10
497.496281728967
 20
182.50041514902
 40
1.50114585100812
  0
CIRCLE
  8
画層5
  6
CONTINUOUS
 10
512.497857063587
 20
182.50041514902
 40
1.50114585100812
  0
CIRCLE
  8
画層5
  6
CONTINUOUS
 10
527.499432398208
 20
212.500865990152
 40
1.50114585100812
  0
CIRCLE
  8
画層5
  6
CONTINUOUS
 10
542.497431694068
 20
212.500865990152
 40
1.50114585100812
  0
LINE
  8
画層15
  6
CONTINUOUS
 10
530
 20
260
 11
500
 21
260
  0
LINE
  8
画層15
  6
CONTINUOUS
 10
500
 20
260
 11
500
 21
350
  0
LINE
  8
画層15
  6
CONTINUOUS
 10
500
 20
350
 11
530
 21
350
  0
LINE
  8
画層15
  6
CONTINUOUS
 10
530
 20
350
 11
530
 21
260
  0
LINE
  8
画層15
  6
CONTINUOUS
 10
460
 20
390
 11
460
 21
420
  0
LINE
  8
画層15
  6
CONTINUOUS
 10
370
 20
420
 11
460
 21
420
  0
LINE
  8
画層15
  6
CONTINUOUS
 10
370
 20
420
 11
370
 21
390
  0
LINE
  8
画層15
  6
CONTINUOUS
 10
370
 20
390
 11
460
 21
390
  0
LINE
  8
画層15
  6
CONTINUOUS
 10
330
 20
350
 11
300
 21
350
  0
LINE
  8
画層15
  6
CONTINUOUS
 10
300
 20
350
 11
300
 21
260
  0
LINE
  8
画層15
  6
CONTINUOUS
 10
300
 20
260
 11
330
 21
260
  0
LINE
  8
画層15
  6
CONTINUOUS
 10
330
 20
260
 11
330
 21
350
  0
LINE
  8
画層15
  6
CONTINUOUS
 10
370
 20
220
 11
370
 21
190
  0
LINE
  8
画層15
  6
CONTINUOUS
 10
370
 20
190
 11
460
 21
190
  0
LINE
  8
画層15
  6
CONTINUOUS
 10
460
 20
190
 11
460
 21
220
  0
LINE
  8
画層15
  6
CONTINUOUS
 10
460
 20
220
 11
370
 21
220
  0
CIRCLE
  8
画層5
  6
CONTINUOUS
 10
332.507468137968
 20
182.50041514902
 40
1.50114585100812
  0
CIRCLE
  8
画層5
  6
CONTINUOUS
 10
317.507283966985
 20
182.50041514902
 40
1.50114585100812
  0
CIRCLE
  8
画層5
  6
CONTINUOUS
 10
302.507099796003
 20
212.500865990152
 40
1.50114585100812
  0
CIRCLE
  8
画層5
  6
CONTINUOUS
 10
287.506591982507
 20
212.500865990152
 40
1.50114585100812
  0
CIRCLE
  8
画層5
  6
CONTINUOUS
 10
497.496281728967
 20
427.491868655547
 40
1.50114585100812
  0
CIRCLE
  8
画層5
  6
CONTINUOUS
 10
512.497857063587
 20
427.491868655547
 40
1.50114585100812
  0
CIRCLE
  8
画層5
  6
CONTINUOUS
 10
527.499432398208
 20
397.491728140777
 40
1.50114585100812
  0
CIRCLE
  8
画層5
  6
CONTINUOUS
 10
542.497431694068
 20
397.491728140777
 40
1.50114585100812
  0
CIRCLE
  8
画層5
  6
CONTINUOUS
 10
332.507468137968
 20
427.491868655547
 40
1.50114585100812
  0
CIRCLE
  8
画層5
  6
CONTINUOUS
 10
302.507099796003
 20
397.491728140777
 40
1.50114585100812
  0
CIRCLE
  8
画層5
  6
CONTINUOUS
 10
287.506591982507
 20
397.491728140777
 40
1.50114585100812
  0
CIRCLE
  8
画層5
  6
CONTINUOUS
 10
527.499432398208
 20
197.502646032957
 40
1.50114585100812
  0
CIRCLE
  8
画層5
  6
CONTINUOUS
 10
512.497857063587
 20
197.502646032957
 40
1.50114585100812
  0
CIRCLE
  8
画層5
  6
CONTINUOUS
 10
467.499206640811
 20
152.498321072159
 40
1.50114585100812
  0
CIRCLE
  8
画層5
  6
CONTINUOUS
 10
482.501238775324
 20
152.498321072159
 40
1.50114585100812
  0
CIRCLE
  8
画層5
  6
CONTINUOUS
 10
422.50223290383
 20
152.498321072159
 40
1.50114585100812
  0
CIRCLE
  8
画層5
  6
CONTINUOUS
 10
407.499779734828
 20
152.498321072159
 40
1.50114585100812
  0
CIRCLE
  8
画層5
  6
CONTINUOUS
 10
362.501034135377
 20
152.498321072159
 40
1.50114585100812
  0
CIRCLE
  8
画層5
  6
CONTINUOUS
 10
347.504510110543
 20
152.498321072159
 40
1.50114585100812
  0
CIRCLE
  8
画層5
  6
CONTINUOUS
 10
317.507283966985
 20
197.502646032958
 40
1.50114585100812
  0
CIRCLE
  8
画層5
  6
CONTINUOUS
 10
302.507099796003
 20
197.502646032958
 40
1.50114585100812
  0
CIRCLE
  8
画層5
  6
CONTINUOUS
 10
567.504496817456
 20
237.502161824606
 40
1.50114585100812
  0
CIRCLE
  8
画層5
  6
CONTINUOUS
 10
567.504496817456
 20
252.504939425672
 40
1.50114585100812
  0
CIRCLE
  8
画層5
  6
CONTINUOUS
 10
567.504496817456
 20
297.500196471095
 40
1.50114585100812
  0
CIRCLE
  8
画層5
  6
CONTINUOUS
 10
567.504496817456
 20
312.495974783109
 40
1.50114585100812
  0
CIRCLE
  8
画層5
  6
CONTINUOUS
 10
567.504496817456
 20
372.496602370964
 40
1.50114585100812
  0
CIRCLE
  8
画層5
  6
CONTINUOUS
 10
567.504496817456
 20
357.493648419899
 40
1.50114585100812
  0
CIRCLE
  8
画層5
  6
CONTINUOUS
 10
262.503994665819
 20
252.504939425672
 40
1.50114585100812
  0
CIRCLE
  8
画層5
  6
CONTINUOUS
 10
262.503994665819
 20
237.502161824606
 40
1.50114585100812
  0
CIRCLE
  8
画層5
  6
CONTINUOUS
 10
262.503994665819
 20
297.500196471095
 40
1.50114585100812
  0
CIRCLE
  8
画層5
  6
CONTINUOUS
 10
262.503994665819
 20
312.495974783109
 40
1.50114585100812
  0
CIRCLE
  8
画層5
  6
CONTINUOUS
 10
262.503994665819
 20
372.496602370964
 40
1.50114585100812
  0
CIRCLE
  8
画層5
  6
CONTINUOUS
 10
262.503994665819
 20
357.493648419899
 40
1.50114585100812
  0
CIRCLE
  8
画層5
  6
CONTINUOUS
 10
527.499432398208
 20
412.49105880654
 40
1.50114585100812
  0
CIRCLE
  8
画層5
  6
CONTINUOUS
 10
512.497857063587
 20
412.49105880654
 40
1.50114585100812
  0
CIRCLE
  8
画層5
  6
CONTINUOUS
 10
482.501238775324
 20
457.49444418568
 40
1.50114585100812
  0
CIRCLE
  8
画層5
  6
CONTINUOUS
 10
467.499206640811
 20
457.49444418568
 40
1.50114585100812
  0
CIRCLE
  8
画層5
  6
CONTINUOUS
 10
422.50223290383
 20
457.49444418568
 40
1.50114585100812
  0
CIRCLE
  8
画層5
  6
CONTINUOUS
 10
407.499779734828
 20
457.49444418568
 40
1.50114585100812
  0
CIRCLE
  8
画層5
  6
CONTINUOUS
 10
362.501034135377
 20
457.49444418568
 40
1.50114585100812
  0
CIRCLE
  8
画層5
  6
CONTINUOUS
 10
347.504510110543
 20
457.49444418568
 40
1.50114585100812
  0
CIRCLE
  8
画層5
  6
CONTINUOUS
 10
302.507099796003
 20
412.49105880654
 40
1.50114585100812
  0
LINE
  8
画層15
  6
CONTINUOUS
 10
415
 20
235
 11
404.996591508759
 21
235
  0
LINE
  8
画層15
  6
CONTINUOUS
 10
415
 20
235
 11
424.995413549507
 21
235
  0
LINE
  8
画層15
  6
CONTINUOUS
 10
404.996591508759
 20
375
 11
424.995413549507
 21
375
  0
LINE
  8
画層15
  6
CONTINUOUS
 10
404.996591508759
 20
310
 11
424.995413549507
 21
310
  0
LINE
  8
画層15
  6
CONTINUOUS
 10
404.996591508759
 20
300
 11
424.995413549507
 21
300
  0
LINE
  8
画層15
  6
CONTINUOUS
 10
404.996591508759
 20
375
 11
404.996591508759
 21
310
  0
LINE
  8
画層15
  6
CONTINUOUS
 10
424.995413549507
 20
375
 11
424.995413549507
 21
310
  0
LINE
  8
画層15
  6
CONTINUOUS
 10
404.996591508759
 20
300
 11
404.996591508759
 21
235
  0
LINE
  8
画層15
  6
CONTINUOUS
 10
424.995413549507
 20
300
 11
424.995413549507
 21
235
  0
CIRCLE
  8
画層5
  6
CONTINUOUS
 10
367.499549120604
 20
342.497269827564
 40
1.50114585100812
  0
CIRCLE
  8
画層5
  6
CONTINUOUS
 10
462.509404855665
 20
342.497269827564
 40
1.50114585100812
  0
CIRCLE
  8
画層5
  6
CONTINUOUS
 10
462.509404855665
 20
267.506580451589
 40
1.50114585100812
  0
CIRCLE
  8
画層5
  6
CONTINUOUS
 10
367.499549120604
 20
267.506580451589
 40
1.50114585100812
  0
LINE
  8
画層9
  6
CONTINUOUS
 10
407.499779734828
 20
473.496209866806
 11
407.499779734828
 21
493
  0
LINE
  8
画層9
  6
CONTINUOUS
 10
407.499779734828
 20
490
 11
422.50223290383
 21
490
  0
POLYLINE
  8
画層9
  6
CONTINUOUS
 10
0.0
 20
0.0
 30
0.0
 66
1
 70
     1
  0
VERTEX
  8
画層9
 10
407.499779734828
  20
490
  0
VERTEX
  8
画層9
 10
408.948668474262
  20
490.388228567654
  0
VERTEX
  8
画層9
 10
408.948668474262
  20
489.611771432346
  0
SEQEND
100
AcDbEntity
  8
画層9
  0
POLYLINE
  8
画層9
  6
CONTINUOUS
 10
0.0
 20
0.0
 30
0.0
 66
1
 70
     1
  0
VERTEX
  8
画層9
 10
422.50223290383
  20
490
  0
VERTEX
  8
画層9
 10
421.053344164396
  20
489.611771432346
  0
VERTEX
  8
画層9
 10
421.053344164396
  20
490.388228567654
  0
SEQEND
100
AcDbEntity
  8
画層9
  0
TEXT
  8
画層9
 62
7
  6
CONTINUOUS
 62
7
 10
409.501006319329
 20
490.25
 40
10
  1
15
  7
Font_0
 72
1
 11
415.001006319329
 21
500.25
 73
3
  0
LINE
  8
画層9
  6
CONTINUOUS
 10
422.50223290383
 20
473.496209866806
 11
422.50223290383
 21
493
  0
LINE
  8
画層9
  6
CONTINUOUS
 10
422.50223290383
 20
473.496209866806
 11
422.50223290383
 21
493
  0
LINE
  8
画層9
  6
CONTINUOUS
 10
422.50223290383
 20
490
 11
437.501282723072
 21
490
  0
POLYLINE
  8
画層9
  6
CONTINUOUS
 10
0.0
 20
0.0
 30
0.0
 66
1
 70
     1
  0
VERTEX
  8
画層9
 10
422.50223290383
  20
490
  0
VERTEX
  8
画層9
 10
423.951121643263
  20
490.388228567653
  0
VERTEX
  8
画層9
 10
423.951121643263
  20
489.611771432346
  0
SEQEND
100
AcDbEntity
  8
画層9
  0
POLYLINE
  8
画層9
  6
CONTINUOUS
 10
0.0
 20
0.0
 30
0.0
 66
1
 70
     1
  0
VERTEX
  8
画層9
 10
437.501282723072
  20
490
  0
VERTEX
  8
画層9
 10
436.052393983639
  20
489.611771432346
  0
VERTEX
  8
画層9
 10
436.052393983639
  20
490.388228567653
  0
SEQEND
100
AcDbEntity
  8
画層9
  0
TEXT
  8
画層9
 62
7
  6
CONTINUOUS
 62
7
 10
424.501757813451
 20
490.25
 40
10
  1
15
  7
Font_0
 72
1
 11
430.001757813451
 21
500.25
 73
3
  0
LINE
  8
画層9
  6
CONTINUOUS
 10
437.501282723072
 20
473.496209866806
 11
437.501282723072
 21
493
  0
LINE
  8
画層9
  6
CONTINUOUS
 10
437.501282723072
 20
473.496209866806
 11
437.501282723072
 21
492.999999999999
  0
LINE
  8
画層9
  6
CONTINUOUS
 10
437.501282723072
 20
489.999999999999
 11
452.501153208997
 21
489.999999999999
  0
POLYLINE
  8
画層9
  6
CONTINUOUS
 10
0.0
 20
0.0
 30
0.0
 66
1
 70
     1
  0
VERTEX
  8
画層9
 10
437.501282723072
  20
489.999999999999
  0
VERTEX
  8
画層9
 10
438.950171462506
  20
490.388228567653
  0
VERTEX
  8
画層9
 10
438.950171462506
  20
489.611771432345
  0
SEQEND
100
AcDbEntity
  8
画層9
  0
POLYLINE
  8
画層9
  6
CONTINUOUS
 10
0.0
 20
0.0
 30
0.0
 66
1
 70
     1
  0
VERTEX
  8
画層9
 10
452.501153208997
  20
489.999999999999
  0
VERTEX
  8
画層9
 10
451.052264469563
  20
489.611771432345
  0
VERTEX
  8
画層9
 10
451.052264469563
  20
490.388228567653
  0
SEQEND
100
AcDbEntity
  8
画層9
  0
TEXT
  8
画層9
 62
7
  6
CONTINUOUS
 62
7
 10
439.501217966034
 20
490.249999999999
 40
10
  1
15
  7
Font_0
 72
1
 11
445.001217966034
 21
500.249999999999
 73
3
  0
LINE
  8
画層9
  6
CONTINUOUS
 10
452.501153208997
 20
473.496209866806
 11
452.501153208997
 21
492.999999999999
  0
LINE
  8
画層9
  6
CONTINUOUS
 10
452.501153208997
 20
473.496209866806
 11
452.501153208997
 21
493
  0
LINE
  8
画層9
  6
CONTINUOUS
 10
452.501153208997
 20
490
 11
467.499206640811
 21
490
  0
POLYLINE
  8
画層9
  6
CONTINUOUS
 10
0.0
 20
0.0
 30
0.0
 66
1
 70
     1
  0
VERTEX
  8
画層9
 10
452.501153208997
  20
490
  0
VERTEX
  8
画層9
 10
453.95004194843
  20
490.388228567654
  0
VERTEX
  8
画層9
 10
453.95004194843
  20
489.611771432346
  0
SEQEND
100
AcDbEntity
  8
画層9
  0
POLYLINE
  8
画層9
  6
CONTINUOUS
 10
0.0
 20
0.0
 30
0.0
 66
1
 70
     1
  0
VERTEX
  8
画層9
 10
467.499206640811
  20
490
  0
VERTEX
  8
画層9
 10
466.050317901378
  20
489.611771432346
  0
VERTEX
  8
画層9
 10
466.050317901378
  20
490.388228567654
  0
SEQEND
100
AcDbEntity
  8
画層9
  0
TEXT
  8
画層9
 62
7
  6
CONTINUOUS
 62
7
 10
454.500179924904
 20
490.25
 40
10
  1
15
  7
Font_0
 72
1
 11
460.000179924904
 21
500.25
 73
3
  0
LINE
  8
画層9
  6
CONTINUOUS
 10
467.499206640811
 20
473.496209866806
 11
467.499206640811
 21
493
  0
LINE
  8
画層9
  6
CONTINUOUS
 10
467.499206640811
 20
473.496209866806
 11
467.499206640811
 21
492.999999999999
  0
LINE
  8
画層9
  6
CONTINUOUS
 10
467.499206640811
 20
489.999999999999
 11
482.501238775324
 21
489.999999999999
  0
POLYLINE
  8
画層9
  6
CONTINUOUS
 10
0.0
 20
0.0
 30
0.0
 66
1
 70
     1
  0
VERTEX
  8
画層9
 10
467.499206640811
  20
489.999999999999
  0
VERTEX
  8
画層9
 10
468.948095380245
  20
490.388228567653
  0
VERTEX
  8
画層9
 10
468.948095380245
  20
489.611771432346
  0
SEQEND
100
AcDbEntity
  8
画層9
  0
POLYLINE
  8
画層9
  6
CONTINUOUS
 10
0.0
 20
0.0
 30
0.0
 66
1
 70
     1
  0
VERTEX
  8
画層9
 10
482.501238775324
  20
489.999999999999
  0
VERTEX
  8
画層9
 10
481.052350035891
  20
489.611771432346
  0
VERTEX
  8
画層9
 10
481.052350035891
  20
490.388228567653
  0
SEQEND
100
AcDbEntity
  8
画層9
  0
TEXT
  8
画層9
 62
7
  6
CONTINUOUS
 62
7
 10
469.500222708068
 20
490.249999999999
 40
10
  1
15
  7
Font_0
 72
1
 11
475.000222708068
 21
500.249999999999
 73
3
  0
LINE
  8
画層9
  6
CONTINUOUS
 10
482.501238775324
 20
473.496209866806
 11
482.501238775324
 21
492.999999999999
  0
LINE
  8
画層9
  6
CONTINUOUS
 10
497.496281728967
 20
428.491868655547
 11
497.496281728967
 21
493.000000000001
  0
LINE
  8
画層9
  6
CONTINUOUS
 10
497.496281728967
 20
490.000000000001
 11
482.501238775324
 21
490.000000000001
  0
POLYLINE
  8
画層9
  6
CONTINUOUS
 10
0.0
 20
0.0
 30
0.0
 66
1
 70
     1
  0
VERTEX
  8
画層9
 10
497.496281728967
  20
490.000000000001
  0
VERTEX
  8
画層9
 10
496.047392989533
  20
489.611771432347
  0
VERTEX
  8
画層9
 10
496.047392989533
  20
490.388228567655
  0
SEQEND
100
AcDbEntity
  8
画層9
  0
POLYLINE
  8
画層9
  6
CONTINUOUS
 10
0.0
 20
0.0
 30
0.0
 66
1
 70
     1
  0
VERTEX
  8
画層9
 10
482.501238775324
  20
490.000000000001
  0
VERTEX
  8
画層9
 10
483.950127514758
  20
490.388228567655
  0
VERTEX
  8
画層9
 10
483.950127514758
  20
489.611771432347
  0
SEQEND
100
AcDbEntity
  8
画層9
  0
TEXT
  8
画層9
 62
7
  6
CONTINUOUS
 62
7
 10
484.498760252146
 20
490.250000000001
 40
10
  1
15
  7
Font_0
 72
1
 11
489.998760252146
 21
500.250000000001
 73
3
  0
LINE
  8
画層9
  6
CONTINUOUS
 10
497.496281728967
 20
428.491868655547
 11
497.496281728967
 21
493
  0
LINE
  8
画層9
  6
CONTINUOUS
 10
497.496281728967
 20
490
 11
512.497857063588
 21
490
  0
POLYLINE
  8
画層9
  6
CONTINUOUS
 10
0.0
 20
0.0
 30
0.0
 66
1
 70
     1
  0
VERTEX
  8
画層9
 10
497.496281728967
  20
490
  0
VERTEX
  8
画層9
 10
498.9451704684
  20
490.388228567654
  0
VERTEX
  8
画層9
 10
498.9451704684
  20
489.611771432346
  0
SEQEND
100
AcDbEntity
  8
画層9
  0
POLYLINE
  8
画層9
  6
CONTINUOUS
 10
0.0
 20
0.0
 30
0.0
 66
1
 70
     1
  0
VERTEX
  8
画層9
 10
512.497857063588
  20
490
  0
VERTEX
  8
画層9
 10
511.048968324154
  20
489.611771432346
  0
VERTEX
  8
画層9
 10
511.048968324154
  20
490.388228567654
  0
SEQEND
100
AcDbEntity
  8
画層9
  0
TEXT
  8
画層9
 62
7
  6
CONTINUOUS
 62
7
 10
499.497069396277
 20
490.25
 40
10
  1
15
  7
Font_0
 50
360
 72
1
 11
504.997069396277
 21
500.25
 73
3
  0
LINE
  8
画層9
  6
CONTINUOUS
 10
512.497857063587
 20
428.491868655547
 11
512.497857063588
 21
493
  0
LINE
  8
画層9
  6
CONTINUOUS
 10
527.499432398208
 20
413.49105880654
 11
527.499432398208
 21
493.000000000001
  0
LINE
  8
画層9
  6
CONTINUOUS
 10
527.499432398208
 20
490.000000000001
 11
512.497857063587
 21
490.000000000001
  0
POLYLINE
  8
画層9
  6
CONTINUOUS
 10
0.0
 20
0.0
 30
0.0
 66
1
 70
     1
  0
VERTEX
  8
画層9
 10
527.499432398208
  20
490.000000000001
  0
VERTEX
  8
画層9
 10
526.050543658774
  20
489.611771432347
  0
VERTEX
  8
画層9
 10
526.050543658774
  20
490.388228567654
  0
SEQEND
100
AcDbEntity
  8
画層9
  0
POLYLINE
  8
画層9
  6
CONTINUOUS
 10
0.0
 20
0.0
 30
0.0
 66
1
 70
     1
  0
VERTEX
  8
画層9
 10
512.497857063587
  20
490.000000000001
  0
VERTEX
  8
画層9
 10
513.946745803021
  20
490.388228567654
  0
VERTEX
  8
画層9
 10
513.946745803021
  20
489.611771432347
  0
SEQEND
100
AcDbEntity
  8
画層9
  0
TEXT
  8
画層9
 62
7
  6
CONTINUOUS
 62
7
 10
514.498644730898
 20
490.250000000001
 40
10
  1
15
  7
Font_0
 72
1
 11
519.998644730898
 21
500.250000000001
 73
3
  0
LINE
  8
画層9
  6
CONTINUOUS
 10
542.497431694068
 20
398.491728140777
 11
542.497431694068
 21
493.000000000001
  0
LINE
  8
画層9
  6
CONTINUOUS
 10
542.497431694068
 20
490.000000000001
 11
527.499432398208
 21
490.000000000001
  0
POLYLINE
  8
画層9
  6
CONTINUOUS
 10
0.0
 20
0.0
 30
0.0
 66
1
 70
     1
  0
VERTEX
  8
画層9
 10
542.497431694068
  20
490.000000000001
  0
VERTEX
  8
画層9
 10
541.048542954634
  20
489.611771432347
  0
VERTEX
  8
画層9
 10
541.048542954634
  20
490.388228567655
  0
SEQEND
100
AcDbEntity
  8
画層9
  0
POLYLINE
  8
画層9
  6
CONTINUOUS
 10
0.0
 20
0.0
 30
0.0
 66
1
 70
     1
  0
VERTEX
  8
画層9
 10
527.499432398208
  20
490.000000000001
  0
VERTEX
  8
画層9
 10
528.948321137642
  20
490.388228567655
  0
VERTEX
  8
画層9
 10
528.948321137642
  20
489.611771432347
  0
SEQEND
100
AcDbEntity
  8
画層9
  0
TEXT
  8
画層9
 62
7
  6
CONTINUOUS
 62
7
 10
529.498432046138
 20
490.250000000001
 40
10
  1
15
  7
Font_0
 72
1
 11
534.998432046138
 21
500.250000000001
 73
3
  0
LINE
  8
画層9
  6
CONTINUOUS
 10
543.497431694068
 20
212.500865990152
 11
603
 21
212.500865990152
  0
LINE
  8
画層9
  6
CONTINUOUS
 10
600
 20
212.500865990152
 11
600
 21
397.491728140777
  0
POLYLINE
  8
画層9
  6
CONTINUOUS
 10
0.0
 20
0.0
 30
0.0
 66
1
 70
     1
  0
VERTEX
  8
画層9
 10
600
  20
212.500865990152
  0
VERTEX
  8
画層9
 10
599.611771432346
  20
213.949754729586
  0
VERTEX
  8
画層9
 10
600.388228567654
  20
213.949754729586
  0
SEQEND
100
AcDbEntity
  8
画層9
  0
POLYLINE
  8
画層9
  6
CONTINUOUS
 10
0.0
 20
0.0
 30
0.0
 66
1
 70
     1
  0
VERTEX
  8
画層9
 10
600
  20
397.491728140777
  0
VERTEX
  8
画層9
 10
600.388228567654
  20
396.042839401343
  0
VERTEX
  8
画層9
 10
599.611771432346
  20
396.042839401343
  0
SEQEND
100
AcDbEntity
  8
画層9
  0
TEXT
  8
画層9
 62
7
  6
CONTINUOUS
 62
7
 10
599.75
 20
296.496297065464
 40
10
  1
185
  7
Font_0
 50
90
 72
1
 11
589.75
 21
304.996297065464
 73
3
  0
LINE
  8
画層9
  6
CONTINUOUS
 10
543.497431694068
 20
397.491728140777
 11
603
 21
397.491728140777
  0
LINE
  8
画層9
  6
CONTINUOUS
 10
542.497431694068
 20
398.491728140777
 11
542.497431694068
 21
513
  0
LINE
  8
画層9
  6
CONTINUOUS
 10
542.497431694068
 20
510
 11
287.506591982507
 21
510
  0
POLYLINE
  8
画層9
  6
CONTINUOUS
 10
0.0
 20
0.0
 30
0.0
 66
1
 70
     1
  0
VERTEX
  8
画層9
 10
542.497431694068
  20
510
  0
VERTEX
  8
画層9
 10
541.048542954634
  20
509.611771432346
  0
VERTEX
  8
画層9
 10
541.048542954634
  20
510.388228567654
  0
SEQEND
100
AcDbEntity
  8
画層9
  0
POLYLINE
  8
画層9
  6
CONTINUOUS
 10
0.0
 20
0.0
 30
0.0
 66
1
 70
     1
  0
VERTEX
  8
画層9
 10
287.506591982507
  20
510
  0
VERTEX
  8
画層9
 10
288.955480721941
  20
510.388228567654
  0
VERTEX
  8
画層9
 10
288.955480721941
  20
509.611771432346
  0
SEQEND
100
AcDbEntity
  8
画層9
  0
TEXT
  8
画層9
 62
7
  6
CONTINUOUS
 62
7
 10
406.502011838288
 20
510.25
 40
10
  1
255
  7
Font_0
 72
1
 11
415.002011838288
 21
520.25
 73
3
  0
LINE
  8
画層9
  6
CONTINUOUS
 10
287.506591982507
 20
398.491728140777
 11
287.506591982507
 21
513
  0
LINE
  8
画層9
  6
CONTINUOUS
 10
528.499432398208
 20
197.502646032957
 11
603
 21
197.502646032957
  0
LINE
  8
画層9
  6
CONTINUOUS
 10
600
 20
197.502646032957
 11
600
 21
212.500865990152
  0
POLYLINE
  8
画層9
  6
CONTINUOUS
 10
0.0
 20
0.0
 30
0.0
 66
1
 70
     1
  0
VERTEX
  8
画層9
 10
600
  20
197.502646032957
  0
VERTEX
  8
画層9
 10
599.611771432346
  20
198.951534772391
  0
VERTEX
  8
画層9
 10
600.388228567654
  20
198.951534772391
  0
SEQEND
100
AcDbEntity
  8
画層9
  0
POLYLINE
  8
画層9
  6
CONTINUOUS
 10
0.0
 20
0.0
 30
0.0
 66
1
 70
     1
  0
VERTEX
  8
画層9
 10
600
  20
212.500865990152
  0
VERTEX
  8
画層9
 10
600.388228567654
  20
211.051977250719
  0
VERTEX
  8
画層9
 10
599.611771432346
  20
211.051977250719
  0
SEQEND
100
AcDbEntity
  8
画層9
  0
TEXT
  8
画層9
 62
7
  6
CONTINUOUS
 62
7
 10
599.75
 20
199.501756011555
 40
10
  1
15
  7
Font_0
 50
90
 72
1
 11
589.75
 21
205.001756011555
 73
3
  0
LINE
  8
画層9
  6
CONTINUOUS
 10
513.497857063587
 20
182.50041514902
 11
603
 21
182.50041514902
  0
LINE
  8
画層9
  6
CONTINUOUS
 10
600
 20
182.50041514902
 11
600
 21
197.502646032957
  0
POLYLINE
  8
画層9
  6
CONTINUOUS
 10
0.0
 20
0.0
 30
0.0
 66
1
 70
     1
  0
VERTEX
  8
画層9
 10
600
  20
182.50041514902
  0
VERTEX
  8
画層9
 10
599.611771432346
  20
183.949303888453
  0
VERTEX
  8
画層9
 10
600.388228567654
  20
183.949303888453
  0
SEQEND
100
AcDbEntity
  8
画層9
  0
POLYLINE
  8
画層9
  6
CONTINUOUS
 10
0.0
 20
0.0
 30
0.0
 66
1
 70
     1
  0
VERTEX
  8
画層9
 10
600
  20
197.502646032957
  0
VERTEX
  8
画層9
 10
600.388228567654
  20
196.053757293524
  0
VERTEX
  8
画層9
 10
599.611771432346
  20
196.053757293524
  0
SEQEND
100
AcDbEntity
  8
画層9
  0
TEXT
  8
画層9
 62
7
  6
CONTINUOUS
 62
7
 10
599.75
 20
184.501530590988
 40
10
  1
15
  7
Font_0
 50
90
 72
1
 11
589.75
 21
190.001530590988
 73
3
  0
LINE
  8
画層9
  6
CONTINUOUS
 10
483.501238775324
 20
167.498184265082
 11
603
 21
167.498184265082
  0
LINE
  8
画層9
  6
CONTINUOUS
 10
600
 20
167.498184265082
 11
600
 21
182.50041514902
  0
POLYLINE
  8
画層9
  6
CONTINUOUS
 10
0.0
 20
0.0
 30
0.0
 66
1
 70
     1
  0
VERTEX
  8
画層9
 10
600
  20
167.498184265082
  0
VERTEX
  8
画層9
 10
599.611771432346
  20
168.947073004515
  0
VERTEX
  8
画層9
 10
600.388228567654
  20
168.947073004515
  0
SEQEND
100
AcDbEntity
  8
画層9
  0
POLYLINE
  8
画層9
  6
CONTINUOUS
 10
0.0
 20
0.0
 30
0.0
 66
1
 70
     1
  0
VERTEX
  8
画層9
 10
600
  20
182.50041514902
  0
VERTEX
  8
画層9
 10
600.388228567654
  20
181.051526409586
  0
VERTEX
  8
画層9
 10
599.611771432346
  20
181.051526409586
  0
SEQEND
100
AcDbEntity
  8
画層9
  0
TEXT
  8
画層9
 62
7
  6
CONTINUOUS
 62
7
 10
599.75
 20
169.499299707051
 40
10
  1
15
  7
Font_0
 50
90
 72
1
 11
589.75
 21
174.999299707051
 73
3
  0
LINE
  8
画層9
  6
CONTINUOUS
 10
483.501238775324
 20
152.498321072159
 11
603
 21
152.498321072159
  0
LINE
  8
画層9
  6
CONTINUOUS
 10
600
 20
152.498321072159
 11
600
 21
167.498184265082
  0
POLYLINE
  8
画層9
  6
CONTINUOUS
 10
0.0
 20
0.0
 30
0.0
 66
1
 70
     1
  0
VERTEX
  8
画層9
 10
600
  20
152.498321072159
  0
VERTEX
  8
画層9
 10
599.611771432346
  20
153.947209811592
  0
VERTEX
  8
画層9
 10
600.388228567654
  20
153.947209811592
  0
SEQEND
100
AcDbEntity
  8
画層9
  0
POLYLINE
  8
画層9
  6
CONTINUOUS
 10
0.0
 20
0.0
 30
0.0
 66
1
 70
     1
  0
VERTEX
  8
画層9
 10
600
  20
167.498184265082
  0
VERTEX
  8
画層9
 10
600.388228567654
  20
166.049295525648
  0
VERTEX
  8
画層9
 10
599.611771432346
  20
166.049295525648
  0
SEQEND
100
AcDbEntity
  8
画層9
  0
TEXT
  8
画層9
 62
7
  6
CONTINUOUS
 62
7
 10
599.75
 20
154.49825266862
 40
10
  1
15
  7
Font_0
 50
90
 72
1
 11
589.75
 21
159.99825266862
 73
3
  0
LINE
  8
画層9
  6
CONTINUOUS
 10
483.501238775324
 20
167.498184265082
 11
603
 21
167.498184265082
  0
LINE
  8
画層9
  6
CONTINUOUS
 10
483.501238775324
 20
137.498457879236
 11
603
 21
137.498457879236
  0
LINE
  8
画層9
  6
CONTINUOUS
 10
600
 20
137.498457879236
 11
600
 21
152.498321072159
  0
POLYLINE
  8
画層9
  6
CONTINUOUS
 10
0.0
 20
0.0
 30
0.0
 66
1
 70
     1
  0
VERTEX
  8
画層9
 10
600
  20
137.498457879236
  0
VERTEX
  8
画層9
 10
599.611771432346
  20
138.947346618669
  0
VERTEX
  8
画層9
 10
600.388228567654
  20
138.947346618669
  0
SEQEND
100
AcDbEntity
  8
画層9
  0
POLYLINE
  8
画層9
  6
CONTINUOUS
 10
0.0
 20
0.0
 30
0.0
 66
1
 70
     1
  0
VERTEX
  8
画層9
 10
600
  20
152.498321072159
  0
VERTEX
  8
画層9
 10
600.388228567654
  20
151.049432332725
  0
VERTEX
  8
画層9
 10
599.611771432346
  20
151.049432332725
  0
SEQEND
100
AcDbEntity
  8
画層9
  0
TEXT
  8
画層9
 62
7
  6
CONTINUOUS
 62
7
 10
599.75
 20
139.498389475697
 40
10
  1
15
  7
Font_0
 50
90
 72
1
 11
589.75
 21
144.998389475697
 73
3
  0
LINE
  8
画層9
  6
CONTINUOUS
 10
483.501238775324
 20
152.498321072159
 11
603
 21
152.498321072159
  0
LINE
  8
画層9
  6
CONTINUOUS
 10
483.501238775324
 20
137.498457879236
 11
623
 21
137.498457879236
  0
LINE
  8
画層9
  6
CONTINUOUS
 10
620
 20
137.498457879236
 11
620
 21
472.496209866806
  0
POLYLINE
  8
画層9
  6
CONTINUOUS
 10
0.0
 20
0.0
 30
0.0
 66
1
 70
     1
  0
VERTEX
  8
画層9
 10
620
  20
137.498457879236
  0
VERTEX
  8
画層9
 10
619.611771432346
  20
138.947346618669
  0
VERTEX
  8
画層9
 10
620.388228567654
  20
138.947346618669
  0
SEQEND
100
AcDbEntity
  8
画層9
  0
POLYLINE
  8
画層9
  6
CONTINUOUS
 10
0.0
 20
0.0
 30
0.0
 66
1
 70
     1
  0
VERTEX
  8
画層9
 10
620
  20
472.496209866806
  0
VERTEX
  8
画層9
 10
620.388228567654
  20
471.047321127372
  0
VERTEX
  8
画層9
 10
619.611771432346
  20
471.047321127372
  0
SEQEND
100
AcDbEntity
  8
画層9
  0
TEXT
  8
画層9
 62
7
  6
CONTINUOUS
 62
7
 10
619.75
 20
296.497333873021
 40
10
  1
335
  7
Font_0
 50
90
 72
1
 11
609.75
 21
304.997333873021
 73
3
  0
LINE
  8
画層9
  6
CONTINUOUS
 10
483.501238775324
 20
472.496209866806
 11
623
 21
472.496209866806
  0
LINE
  8
画層9
  6
CONTINUOUS
 10
483.501238307789
 20
137.497490888773
 11
623.007120960215
 21
137.362589967685
  0
LINE
  8
画層9
  6
CONTINUOUS
 10
620.007122362821
 20
137.365490939073
 11
619.999871422177
 21
129.867033059838
  0
POLYLINE
  8
画層9
  6
CONTINUOUS
 10
0.0
 20
0.0
 30
0.0
 66
1
 70
     1
  0
VERTEX
  8
画層9
 10
620.007122362821
  20
137.365490939073
  0
VERTEX
  8
画層9
 10
620.393949687372
  20
135.916227463724
  0
VERTEX
  8
画層9
 10
619.617492915085
  20
135.916978290369
  0
SEQEND
100
AcDbEntity
  8
画層9
  0
POLYLINE
  8
画層9
  6
CONTINUOUS
 10
0.0
 20
0.0
 30
0.0
 66
1
 70
     1
  0
VERTEX
  8
画層9
 10
619.999871422177
  20
129.867033059838
  0
VERTEX
  8
画層9
 10
619.613044097626
  20
131.316296535187
  0
VERTEX
  8
画層9
 10
620.389500869913
  20
131.315545708542
  0
SEQEND
100
AcDbEntity
  8
画層9
  0
TEXT
  8
画層9
 62
7
  6
CONTINUOUS
 62
7
 10
619.74527759045
 20
125.116507721122
 40
10
  1
7.5
  7
Font_0
 50
89.9445955190228
 72
1
 11
609.753501684737
 21
133.626173651698
 73
3
  0
LINE
  8
画層9
  6
CONTINUOUS
 10
483.493987367145
 20
129.999033009537
 11
622.999870019571
 21
129.864132088449
  0
LINE
  8
画層9
  6
CONTINUOUS
 10
246.499791051015
 20
312.495974783109
 11
227
 21
312.495974783109
  0
LINE
  8
画層9
  6
CONTINUOUS
 10
230
 20
312.495974783109
 11
230
 21
297.500196471095
  0
POLYLINE
  8
画層9
  6
CONTINUOUS
 10
0.0
 20
0.0
 30
0.0
 66
1
 70
     1
  0
VERTEX
  8
画層9
 10
230
  20
312.495974783109
  0
VERTEX
  8
画層9
 10
230.388228567654
  20
311.047086043676
  0
VERTEX
  8
画層9
 10
229.611771432346
  20
311.047086043676
  0
SEQEND
100
AcDbEntity
  8
画層9
  0
POLYLINE
  8
画層9
  6
CONTINUOUS
 10
0.0
 20
0.0
 30
0.0
 66
1
 70
     1
  0
VERTEX
  8
画層9
 10
230
  20
297.500196471095
  0
VERTEX
  8
画層9
 10
229.611771432346
  20
298.949085210528
  0
VERTEX
  8
画層9
 10
230.388228567654
  20
298.949085210528
  0
SEQEND
100
AcDbEntity
  8
画層9
  0
TEXT
  8
画層9
 62
7
  6
CONTINUOUS
 62
7
 10
229.75
 20
299.498085627102
 40
10
  1
15
  7
Font_0
 50
90
 72
1
 11
219.75
 21
304.998085627102
 73
3
  0
LINE
  8
画層9
  6
CONTINUOUS
 10
246.499791051015
 20
297.500196471095
 11
227
 21
297.500196471095
  0
LINE
  8
画層9
  6
CONTINUOUS
 10
246.499791051015
 20
312.495974783109
 11
227
 21
312.495974783109
  0
LINE
  8
画層9
  6
CONTINUOUS
 10
230
 20
312.495974783109
 11
230
 21
327.500027005632
  0
POLYLINE
  8
画層9
  6
CONTINUOUS
 10
0.0
 20
0.0
 30
0.0
 66
1
 70
     1
  0
VERTEX
  8
画層9
 10
230
  20
312.495974783109
  0
VERTEX
  8
画層9
 10
229.611771432346
  20
313.944863522543
  0
VERTEX
  8
画層9
 10
230.388228567654
  20
313.944863522543
  0
SEQEND
100
AcDbEntity
  8
画層9
  0
POLYLINE
  8
画層9
  6
CONTINUOUS
 10
0.0
 20
0.0
 30
0.0
 66
1
 70
     1
  0
VERTEX
  8
画層9
 10
230
  20
327.500027005632
  0
VERTEX
  8
画層9
 10
230.388228567654
  20
326.051138266198
  0
VERTEX
  8
画層9
 10
229.611771432346
  20
326.051138266198
  0
SEQEND
100
AcDbEntity
  8
画層9
  0
TEXT
  8
画層9
 62
7
  6
CONTINUOUS
 62
7
 10
229.75
 20
314.49800089437
 40
10
  1
15
  7
Font_0
 50
90
 72
1
 11
219.75
 21
319.99800089437
 73
3
  0
LINE
  8
画層9
  6
CONTINUOUS
 10
246.499791051015
 20
327.500027005632
 11
227
 21
327.500027005632
  0
LINE
  8
画層9
  6
CONTINUOUS
 10
246.499791051015
 20
327.500027005632
 11
227
 21
327.500027005632
  0
LINE
  8
画層9
  6
CONTINUOUS
 10
230
 20
327.500027005632
 11
230
 21
342.497269827564
  0
POLYLINE
  8
画層9
  6
CONTINUOUS
 10
0.0
 20
0.0
 30
0.0
 66
1
 70
     1
  0
VERTEX
  8
画層9
 10
230
  20
327.500027005632
  0
VERTEX
  8
画層9
 10
229.611771432346
  20
328.948915745065
  0
VERTEX
  8
画層9
 10
230.388228567654
  20
328.948915745065
  0
SEQEND
100
AcDbEntity
  8
画層9
  0
POLYLINE
  8
画層9
  6
CONTINUOUS
 10
0.0
 20
0.0
 30
0.0
 66
1
 70
     1
  0
VERTEX
  8
画層9
 10
230
  20
342.497269827564
  0
VERTEX
  8
画層9
 10
230.388228567654
  20
341.04838108813
  0
VERTEX
  8
画層9
 10
229.611771432346
  20
341.04838108813
  0
SEQEND
100
AcDbEntity
  8
画層9
  0
TEXT
  8
画層9
 62
7
  6
CONTINUOUS
 62
7
 10
229.75
 20
329.498648416598
 40
10
  1
15
  7
Font_0
 50
90
 72
1
 11
219.75
 21
334.998648416598
 73
3
  0
LINE
  8
画層9
  6
CONTINUOUS
 10
246.499791051015
 20
342.497269827564
 11
227
 21
342.497269827564
  0
LINE
  8
画層9
  6
CONTINUOUS
 10
246.499791051015
 20
342.497269827564
 11
227
 21
342.497269827564
  0
LINE
  8
画層9
  6
CONTINUOUS
 10
230
 20
342.497269827564
 11
230
 21
357.493648419899
  0
POLYLINE
  8
画層9
  6
CONTINUOUS
 10
0.0
 20
0.0
 30
0.0
 66
1
 70
     1
  0
VERTEX
  8
画層9
 10
230
  20
342.497269827564
  0
VERTEX
  8
画層9
 10
229.611771432346
  20
343.946158566998
  0
VERTEX
  8
画層9
 10
230.388228567654
  20
343.946158566998
  0
SEQEND
100
AcDbEntity
  8
画層9
  0
POLYLINE
  8
画層9
  6
CONTINUOUS
 10
0.0
 20
0.0
 30
0.0
 66
1
 70
     1
  0
VERTEX
  8
画層9
 10
230
  20
357.493648419899
  0
VERTEX
  8
画層9
 10
230.388228567654
  20
356.044759680466
  0
VERTEX
  8
画層9
 10
229.611771432346
  20
356.044759680466
  0
SEQEND
100
AcDbEntity
  8
画層9
  0
TEXT
  8
画層9
 62
7
  6
CONTINUOUS
 62
7
 10
229.75
 20
344.495459123732
 40
10
  1
15
  7
Font_0
 50
90
 72
1
 11
219.75
 21
349.995459123732
 73
3
  0
LINE
  8
画層9
  6
CONTINUOUS
 10
246.499791051015
 20
357.493648419899
 11
227
 21
357.493648419899
  0
LINE
  8
画層9
  6
CONTINUOUS
 10
246.499791051015
 20
357.493648419899
 11
227
 21
357.493648419899
  0
LINE
  8
画層9
  6
CONTINUOUS
 10
230
 20
357.493648419899
 11
230
 21
372.496602370964
  0
POLYLINE
  8
画層9
  6
CONTINUOUS
 10
0.0
 20
0.0
 30
0.0
 66
1
 70
     1
  0
VERTEX
  8
画層9
 10
230
  20
357.493648419899
  0
VERTEX
  8
画層9
 10
229.611771432346
  20
358.942537159333
  0
VERTEX
  8
画層9
 10
230.388228567654
  20
358.942537159333
  0
SEQEND
100
AcDbEntity
  8
画層9
  0
POLYLINE
  8
画層9
  6
CONTINUOUS
 10
0.0
 20
0.0
 30
0.0
 66
1
 70
     1
  0
VERTEX
  8
画層9
 10
230
  20
372.496602370964
  0
VERTEX
  8
画層9
 10
230.388228567654
  20
371.04771363153
  0
VERTEX
  8
画層9
 10
229.611771432346
  20
371.04771363153
  0
SEQEND
100
AcDbEntity
  8
画層9
  0
TEXT
  8
画層9
 62
7
  6
CONTINUOUS
 62
7
 10
229.75
 20
359.495125395432
 40
10
  1
15
  7
Font_0
 50
90
 72
1
 11
219.75
 21
364.995125395432
 73
3
  0
LINE
  8
画層9
  6
CONTINUOUS
 10
246.499791051015
 20
372.496602370964
 11
227
 21
372.496602370964
  0
LINE
  8
画層9
  6
CONTINUOUS
 10
246.499791051015
 20
372.496602370964
 11
207
 21
372.496602370964
  0
LINE
  8
画層9
  6
CONTINUOUS
 10
210
 20
372.496602370964
 11
210
 21
237.502161824606
  0
POLYLINE
  8
画層9
  6
CONTINUOUS
 10
0.0
 20
0.0
 30
0.0
 66
1
 70
     1
  0
VERTEX
  8
画層9
 10
210
  20
372.496602370964
  0
VERTEX
  8
画層9
 10
210.388228567654
  20
371.04771363153
  0
VERTEX
  8
画層9
 10
209.611771432346
  20
371.04771363153
  0
SEQEND
100
AcDbEntity
  8
画層9
  0
POLYLINE
  8
画層9
  6
CONTINUOUS
 10
0.0
 20
0.0
 30
0.0
 66
1
 70
     1
  0
VERTEX
  8
画層9
 10
210
  20
237.502161824606
  0
VERTEX
  8
画層9
 10
209.611771432346
  20
238.95105056404
  0
VERTEX
  8
画層9
 10
210.388228567654
  20
238.95105056404
  0
SEQEND
100
AcDbEntity
  8
画層9
  0
TEXT
  8
画層9
 62
7
  6
CONTINUOUS
 62
7
 10
209.75
 20
296.499382097785
 40
10
  1
135
  7
Font_0
 50
90
 72
1
 11
199.75
 21
304.999382097785
 73
3
  0
LINE
  8
画層9
  6
CONTINUOUS
 10
246.499791051015
 20
237.502161824606
 11
207
 21
237.502161824606
  0
LINE
  8
画層9
  6
CONTINUOUS
 10
367.499549120604
 20
266.506580451589
 11
367.499549120604
 21
117
  0
LINE
  8
画層9
  6
CONTINUOUS
 10
367.499549120604
 20
120
 11
462.509404855665
 21
120
  0
POLYLINE
  8
画層9
  6
CONTINUOUS
 10
0.0
 20
0.0
 30
0.0
 66
1
 70
     1
  0
VERTEX
  8
画層9
 10
367.499549120604
  20
120
  0
VERTEX
  8
画層9
 10
368.948437860037
  20
120.388228567654
  0
VERTEX
  8
画層9
 10
368.948437860037
  20
119.611771432346
  0
SEQEND
100
AcDbEntity
  8
画層9
  0
POLYLINE
  8
画層9
  6
CONTINUOUS
 10
0.0
 20
0.0
 30
0.0
 66
1
 70
     1
  0
VERTEX
  8
画層9
 10
462.509404855665
  20
120
  0
VERTEX
  8
画層9
 10
461.060516116231
  20
119.611771432346
  0
VERTEX
  8
画層9
 10
461.060516116231
  20
120.388228567654
  0
SEQEND
100
AcDbEntity
  8
画層9
  0
TEXT
  8
画層9
 62
7
  6
CONTINUOUS
 62
7
 10
409.504476988134
 20
120.25
 40
10
  1
95
  7
Font_0
 50
360
 72
1
 11
415.004476988134
 21
130.25
 73
3
  0
LINE
  8
画層9
  6
CONTINUOUS
 10
462.509404855665
 20
266.506580451589
 11
462.509404855665
 21
117
  0
LINE
  8
画層9
  6
CONTINUOUS
 10
367.499549120604
 20
266.506580451589
 11
367.499549120604
 21
117
  0
LINE
  8
画層9
  6
CONTINUOUS
 10
277.498043669659
 20
236.502161824606
 11
277.498043669659
 21
117
  0
LINE
  8
画層9
  6
CONTINUOUS
 10
277.498043669659
 20
120
 11
292.50237801207
 21
120
  0
POLYLINE
  8
画層9
  6
CONTINUOUS
 10
0.0
 20
0.0
 30
0.0
 66
1
 70
     1
  0
VERTEX
  8
画層9
 10
277.498043669659
  20
120
  0
VERTEX
  8
画層9
 10
278.946932409093
  20
120.388228567654
  0
VERTEX
  8
画層9
 10
278.946932409093
  20
119.611771432346
  0
SEQEND
100
AcDbEntity
  8
画層9
  0
POLYLINE
  8
画層9
  6
CONTINUOUS
 10
0.0
 20
0.0
 30
0.0
 66
1
 70
     1
  0
VERTEX
  8
画層9
 10
292.50237801207
  20
120
  0
VERTEX
  8
画層9
 10
291.053489272636
  20
119.611771432346
  0
VERTEX
  8
画層9
 10
291.053489272636
  20
120.388228567654
  0
SEQEND
100
AcDbEntity
  8
画層9
  0
TEXT
  8
画層9
 62
7
  6
CONTINUOUS
 62
7
 10
279.500210840865
 20
120.25
 40
10
  1
15
  7
Font_0
 72
1
 11
285.000210840865
 21
130.25
 73
3
  0
LINE
  8
画層9
  6
CONTINUOUS
 10
292.50237801207
 20
236.502161824606
 11
292.50237801207
 21
117
  0
LINE
  8
画層9
  6
CONTINUOUS
 10
277.498043669659
 20
236.502161824606
 11
277.498043669659
 21
117
  0
LINE
  8
画層9
  6
CONTINUOUS
 10
277.498043669659
 20
120
 11
262.503994665819
 21
120
  0
POLYLINE
  8
画層9
  6
CONTINUOUS
 10
0.0
 20
0.0
 30
0.0
 66
1
 70
     1
  0
VERTEX
  8
画層9
 10
277.498043669659
  20
120
  0
VERTEX
  8
画層9
 10
276.049154930226
  20
119.611771432346
  0
VERTEX
  8
画層9
 10
276.049154930226
  20
120.388228567654
  0
SEQEND
100
AcDbEntity
  8
画層9
  0
POLYLINE
  8
画層9
  6
CONTINUOUS
 10
0.0
 20
0.0
 30
0.0
 66
1
 70
     1
  0
VERTEX
  8
画層9
 10
262.503994665819
  20
120
  0
VERTEX
  8
画層9
 10
263.952883405253
  20
120.388228567654
  0
VERTEX
  8
画層9
 10
263.952883405253
  20
119.611771432346
  0
SEQEND
100
AcDbEntity
  8
画層9
  0
TEXT
  8
画層9
 62
7
  6
CONTINUOUS
 62
7
 10
264.501019167739
 20
120.25
 40
10
  1
15
  7
Font_0
 72
1
 11
270.001019167739
 21
130.25
 73
3
  0
LINE
  8
画層9
  6
CONTINUOUS
 10
262.503994665819
 20
236.502161824606
 11
262.503994665819
 21
117
  0
LINE
  8
画層9
  6
CONTINUOUS
 10
262.503994665819
 20
236.502161824606
 11
262.503994665819
 21
117
  0
LINE
  8
画層9
  6
CONTINUOUS
 10
262.503994665819
 20
120
 11
247.499791051014
 21
120
  0
POLYLINE
  8
画層9
  6
CONTINUOUS
 10
0.0
 20
0.0
 30
0.0
 66
1
 70
     1
  0
VERTEX
  8
画層9
 10
262.503994665819
  20
120
  0
VERTEX
  8
画層9
 10
261.055105926386
  20
119.611771432346
  0
VERTEX
  8
画層9
 10
261.055105926386
  20
120.388228567654
  0
SEQEND
100
AcDbEntity
  8
画層9
  0
POLYLINE
  8
画層9
  6
CONTINUOUS
 10
0.0
 20
0.0
 30
0.0
 66
1
 70
     1
  0
VERTEX
  8
画層9
 10
247.499791051014
  20
120
  0
VERTEX
  8
画層9
 10
248.948679790448
  20
120.388228567654
  0
VERTEX
  8
画層9
 10
248.948679790448
  20
119.611771432346
  0
SEQEND
100
AcDbEntity
  8
画層9
  0
TEXT
  8
画層9
 62
7
  6
CONTINUOUS
 62
7
 10
249.501892858417
 20
120.25
 40
10
  1
15
  7
Font_0
 72
1
 11
255.001892858417
 21
130.25
 73
3
  0
LINE
  8
画層9
  6
CONTINUOUS
 10
247.499791051015
 20
236.502161824606
 11
247.499791051014
 21
117
  0
LINE
  8
画層9
  6
CONTINUOUS
 10
247.499791051015
 20
236.502161824606
 11
247.499791051014
 21
96.8137539524353
  0
LINE
  8
画層9
  6
CONTINUOUS
 10
247.499791051014
 20
99.8137539524353
 11
582.499809579889
 21
99.8137539524352
  0
POLYLINE
  8
画層9
  6
CONTINUOUS
 10
0.0
 20
0.0
 30
0.0
 66
1
 70
     1
  0
VERTEX
  8
画層9
 10
247.499791051014
  20
99.8137539524353
  0
VERTEX
  8
画層9
 10
248.948679790448
  20
100.201982520089
  0
VERTEX
  8
画層9
 10
248.948679790448
  20
99.4255253847815
  0
SEQEND
100
AcDbEntity
  8
画層9
  0
POLYLINE
  8
画層9
  6
CONTINUOUS
 10
0.0
 20
0.0
 30
0.0
 66
1
 70
     1
  0
VERTEX
  8
画層9
 10
582.499809579889
  20
99.8137539524352
  0
VERTEX
  8
画層9
 10
581.050920840455
  20
99.4255253847814
  0
VERTEX
  8
画層9
 10
581.050920840455
  20
100.201982520089
  0
SEQEND
100
AcDbEntity
  8
画層9
  0
TEXT
  8
画層9
 62
7
  6
CONTINUOUS
 62
7
 10
406.499800315452
 20
100.063753952435
 40
10
  1
335
  7
Font_0
 50
360
 72
1
 11
414.999800315452
 21
110.063753952435
 73
3
  0
LINE
  8
画層9
  6
CONTINUOUS
 10
582.499809579889
 20
236.502161824606
 11
582.499809579889
 21
96.8137539524352
  0
LINE
  8
画層9
  6
CONTINUOUS
 10
247.499791051015
 20
236.502161824606
 11
247.499791051014
 21
96.8137539524353
  0
LINE
  8
画層9
  6
CONTINUOUS
 10
247.499791051014
 20
99.8137539524353
 11
240
 21
99.8137539524353
  0
POLYLINE
  8
画層9
  6
CONTINUOUS
 10
0.0
 20
0.0
 30
0.0
 66
1
 70
     1
  0
VERTEX
  8
画層9
 10
247.499791051014
  20
99.8137539524353
  0
VERTEX
  8
画層9
 10
246.050902311581
  20
99.4255253847815
  0
VERTEX
  8
画層9
 10
246.050902311581
  20
100.201982520089
  0
SEQEND
100
AcDbEntity
  8
画層9
  0
POLYLINE
  8
画層9
  6
CONTINUOUS
 10
0.0
 20
0.0
 30
0.0
 66
1
 70
     1
  0
VERTEX
  8
画層9
 10
240
  20
99.8137539524353
  0
VERTEX
  8
画層9
 10
241.448888739434
  20
100.201982520089
  0
VERTEX
  8
画層9
 10
241.448888739434
  20
99.4255253847815
  0
SEQEND
100
AcDbEntity
  8
画層9
  0
TEXT
  8
画層9
 62
7
  6
CONTINUOUS
 62
7
 10
235.249895525507
 20
100.063753952435
 40
10
  1
7.5
  7
Font_0
 72
1
 11
243.749895525507
 21
110.063753952435
 73
3
  0
LINE
  8
画層9
  6
CONTINUOUS
 10
240
 20
236.502161824606
 11
240
 21
96.8137539524353
  0
CIRCLE
  8
画層5
  6
CONTINUOUS
 10
454.978324002463
 20
244.946572539367
 40
1.50114585100812
  0
CIRCLE
  8
画層5
  6
CONTINUOUS
 10
375.0180039475
 20
244.945440906194
 40
1.50114585100812
  0
CIRCLE
  8
画層5
  6
CONTINUOUS
 10
378.831254537398
 20
330.768472884546
 40
1.50114585100812
  0
CIRCLE
  8
画層5
  6
CONTINUOUS
 10
452.442550427219
 20
330.779261410827
 40
1.50114585100812
  0
CIRCLE
  8
画層4
  6
CONTINUOUS
 10
317.507283966985
 20
212.500865990152
 40
5.50260529429863
  0
CIRCLE
  8
画層4
  6
CONTINUOUS
 10
512.497857063587
 20
397.491728140777
 40
5.50260529429863
  0
CIRCLE
  8
画層4
  6
CONTINUOUS
 10
512.497857063587
 20
212.500865990152
 40
5.50260529429863
  0
CIRCLE
  8
画層4
  6
CONTINUOUS
 10
317.507283966985
 20
212.500865990152
 40
2.7518839092354
  0
CIRCLE
  8
画層4
  6
CONTINUOUS
 10
512.497857063587
 20
397.491728140777
 40
2.7518839092354
  0
CIRCLE
  8
画層4
  6
CONTINUOUS
 10
512.497857063587
 20
212.500865990152
 40
2.7518839092354
  0
LINE
  8
画層9
  6
CONTINUOUS
 10
537.504301347393
 20
373.997748221972
 11
570
 21
420
  0
POLYLINE
  8
画層9
  6
CONTINUOUS
 10
0.0
 20
0.0
 30
0.0
 66
1
 70
     1
  0
VERTEX
  8
画層9
 10
537.504301347393
  20
373.997748221972
  0
VERTEX
  8
画層9
 10
538.542020812902
  20
376.812555197753
  0
VERTEX
  8
画層9
 10
539.810396254416
  20
375.916582836994
  0
SEQEND
100
AcDbEntity
  8
画層9
  0
TEXT
  8
画層9
 62
7
  6
CONTINUOUS
 62
7
 10
580
 20
420
 40
10
  1
M3
  7
Font_0
 11
580
 21
430
 73
3
  0
LINE
  8
画層9
  6
CONTINUOUS
 10
570
 20
420
 11
590
 21
420
  0
LINE
  8
画層9
  6
CONTINUOUS
 10
292.50237801207
 20
236.502161824606
 11
292.50237801207
 21
117
  0
LINE
  8
画層9
  6
CONTINUOUS
 10
292.50237801207
 20
120
 11
322.500616481085
 21
120
  0
POLYLINE
  8
画層9
  6
CONTINUOUS
 10
0.0
 20
0.0
 30
0.0
 66
1
 70
     1
  0
VERTEX
  8
画層9
 10
292.50237801207
  20
120
  0
VERTEX
  8
画層9
 10
293.951266751503
  20
120.388228567654
  0
VERTEX
  8
画層9
 10
293.951266751503
  20
119.611771432346
  0
SEQEND
100
AcDbEntity
  8
画層9
  0
POLYLINE
  8
画層9
  6
CONTINUOUS
 10
0.0
 20
0.0
 30
0.0
 66
1
 70
     1
  0
VERTEX
  8
画層9
 10
322.500616481085
  20
120
  0
VERTEX
  8
画層9
 10
321.051727741651
  20
119.611771432346
  0
VERTEX
  8
画層9
 10
321.051727741651
  20
120.388228567654
  0
SEQEND
100
AcDbEntity
  8
画層9
  0
TEXT
  8
画層9
 62
7
  6
CONTINUOUS
 62
7
 10
302.001497246577
 20
120.25
 40
10
  1
30
  7
Font_0
 50
360
 72
1
 11
307.501497246577
 21
130.25
 73
3
  0
LINE
  8
画層9
  6
CONTINUOUS
 10
322.500616481085
 20
236.502161824606
 11
322.500616481085
 21
117
  0
LINE
  8
画層9
  6
CONTINUOUS
 10
322.502520044176
 20
236.502163636384
 11
322.730135424454
 21
116.929048897507
  0
LINE
  8
画層9
  6
CONTINUOUS
 10
322.724424735181
 20
119.929043462174
 11
367.7233573747
 21
120.014701924673
  0
POLYLINE
  8
画層9
  6
CONTINUOUS
 10
0.0
 20
0.0
 30
0.0
 66
1
 70
     1
  0
VERTEX
  8
画層9
 10
322.724424735181
  20
119.929043462174
  0
VERTEX
  8
画層9
 10
324.172571831978
  20
120.320029377571
  0
VERTEX
  8
画層9
 10
324.174049867122
  20
119.543573649031
  0
SEQEND
100
AcDbEntity
  8
画層9
  0
POLYLINE
  8
画層9
  6
CONTINUOUS
 10
0.0
 20
0.0
 30
0.0
 66
1
 70
     1
  0
VERTEX
  8
画層9
 10
367.7233573747
  20
120.014701924673
  0
VERTEX
  8
画層9
 10
366.275210277903
  20
119.623716009276
  0
VERTEX
  8
画層9
 10
366.273732242758
  20
120.400171737816
  0
SEQEND
100
AcDbEntity
  8
画層9
  0
TEXT
  8
画層9
 62
7
  6
CONTINUOUS
 62
7
 10
339.723425128946
 20
120.211402643479
 40
10
  1
45
  7
Font_0
 50
0.109066197017443
 72
1
 11
345.204379533258
 21
130.2218541227
 73
3
  0
LINE
  8
画層9
  6
CONTINUOUS
 10
367.501452683695
 20
236.587822098884
 11
367.729068063973
 21
117.014707360007
  0
CIRCLE
  8
画層5
  6
CONTINUOUS
 10
317.507283966985
 20
427.491868655547
 40
1.50114585100812
  0
CIRCLE
  8
画層5
  6
CONTINUOUS
 10
317.507283966985
 20
412.49105880654
 40
1.50114585100812
  0
CIRCLE
  8
画層4
  6
CONTINUOUS
 10
317.507283966985
 20
397.491728140777
 40
5.50260529429863
  0
CIRCLE
  8
画層4
  6
CONTINUOUS
 10
317.507283966985
 20
397.491728140777
 40
2.7518839092354
  0
ENDSEC
  0
EOF
