999
Outputted By AR_CAD Ver.1.4.1
  0
SECTION
  2
HEADER
  9
$ACADVER
  1
AC1009
  9
$DWGCODEPAGE
  3
DOS932
  9
$EXTMIN
 10
0
 20
0
  9
$EXTMAX
 10
297
 20
210
  9
$INSBASE
 10
0.0
 20
0.0
 30
0.0
  9
$HANDLING
 70
     1
  9
$LTSCALE
 40
1
  0
ENDSEC
  0
SECTION
  2
TABLES
  0
TABLE
  2
LTYPE
 70
     7
  0
LTYPE
  2
BYBLOCK
 70
    64
 3

 72
    65
 73
    0
 40
    0
  0
LTYPE
  2
BYLAYER
 70
    64
 3

 72
    65
 73
    0
 40
    0
  0
LTYPE
  2
CONTINUOUS
 70
    64
 3
CONTINUOUS
 72
    65
 73
    0
 40
    0
  0
LTYPE
  2
DASHED
 70
    64
 3

 72
    65
 73
    2
 40
    3.5
 49
    2.91666666666667
 49
    -0.583333333333333
  0
LTYPE
  2
DOT
 70
    64
 3

 72
    65
 73
    2
 40
    0.5
 49
    0.25
 49
    -0.25
  0
LTYPE
  2
DASHDOT
 70
    64
 3

 72
    65
 73
    4
 40
    3.5
 49
    1.84210526315789
 49
    -0.552631578947368
 49
    0.552631578947368
 49
    -0.552631578947368
  0
LTYPE
  2
DIVIDE
 70
    64
 3

 72
    65
 73
    6
 40
    3.5
 49
    1.4
 49
    -0.42
 49
    0.42
 49
    -0.42
 49
    0.42
 49
    -0.42
  0
LTYPE
  2
HIDDEN
 70
    64
 3

 72
    65
 73
    2
 40
    4
 49
    2
 49
    -2
  0
ENDTAB
  0
TABLE
  2
LAYER
 70
   257
  0
LAYER
  2
画層0
 70
    0
 62
-7
  6
CONTINUOUS
  0
LAYER
  2
画層1
 70
    0
 62
-3
  6
CONTINUOUS
  0
LAYER
  2
画層2
 70
    0
 62
-9
  6
CONTINUOUS
  0
LAYER
  2
画層3
 70
    0
 62
7
  6
CONTINUOUS
  0
LAYER
  2
画層4
 70
    0
 62
7
  6
CONTINUOUS
  0
LAYER
  2
画層5
 70
    0
 62
7
  6
CONTINUOUS
  0
LAYER
  2
画層6
 70
    0
 62
-253
  6
CONTINUOUS
  0
LAYER
  2
画層7
 70
    0
 62
-192
  6
CONTINUOUS
  0
LAYER
  2
画層8
 70
    0
 62
-74
  6
CONTINUOUS
  0
LAYER
  2
画層9
 70
    0
 62
7
  6
CONTINUOUS
  0
LAYER
  2
画層10
 70
    0
 62
-190
  6
CONTINUOUS
  0
LAYER
  2
画層11
 70
    0
 62
-132
  6
CONTINUOUS
  0
LAYER
  2
画層12
 70
    0
 62
-161
  6
CONTINUOUS
  0
LAYER
  2
画層13
 70
    0
 62
-5
  6
CONTINUOUS
  0
LAYER
  2
画層14
 70
    0
 62
-150
  6
CONTINUOUS
  0
LAYER
  2
画層15
 70
    0
 62
7
  6
CONTINUOUS
  0
LAYER
  2
画層16
 70
    0
 62
7
  6
CONTINUOUS
  0
LAYER
  2
画層17
 70
    0
 62
70
  6
CONTINUOUS
  0
LAYER
  2
画層18
 70
    0
 62
211
  6
CONTINUOUS
  0
LAYER
  2
画層19
 70
    0
 62
137
  6
CONTINUOUS
  0
LAYER
  2
画層20
 70
    0
 62
4
  6
CONTINUOUS
  0
LAYER
  2
画層21
 70
    0
 62
131
  6
CONTINUOUS
  0
LAYER
  2
画層22
 70
    0
 62
4
  6
CONTINUOUS
  0
LAYER
  2
画層23
 70
    0
 62
4
  6
CONTINUOUS
  0
LAYER
  2
画層24
 70
    0
 62
7
  6
CONTINUOUS
  0
LAYER
  2
画層25
 70
    0
 62
7
  6
CONTINUOUS
  0
LAYER
  2
画層26
 70
    0
 62
7
  6
CONTINUOUS
  0
LAYER
  2
画層27
 70
    0
 62
7
  6
CONTINUOUS
  0
LAYER
  2
画層28
 70
    0
 62
7
  6
CONTINUOUS
  0
LAYER
  2
画層29
 70
    0
 62
7
  6
CONTINUOUS
  0
LAYER
  2
画層30
 70
    0
 62
7
  6
CONTINUOUS
  0
LAYER
  2
画層31
 70
    0
 62
7
  6
CONTINUOUS
  0
LAYER
  2
画層32
 70
    0
 62
7
  6
CONTINUOUS
  0
LAYER
  2
画層33
 70
    0
 62
7
  6
CONTINUOUS
  0
LAYER
  2
画層34
 70
    0
 62
7
  6
CONTINUOUS
  0
LAYER
  2
画層35
 70
    0
 62
7
  6
CONTINUOUS
  0
LAYER
  2
画層36
 70
    0
 62
7
  6
CONTINUOUS
  0
LAYER
  2
画層37
 70
    0
 62
7
  6
CONTINUOUS
  0
LAYER
  2
画層38
 70
    0
 62
7
  6
CONTINUOUS
  0
LAYER
  2
画層39
 70
    0
 62
7
  6
CONTINUOUS
  0
LAYER
  2
画層40
 70
    0
 62
7
  6
CONTINUOUS
  0
LAYER
  2
画層41
 70
    0
 62
7
  6
CONTINUOUS
  0
LAYER
  2
画層42
 70
    0
 62
7
  6
CONTINUOUS
  0
LAYER
  2
画層43
 70
    0
 62
7
  6
CONTINUOUS
  0
LAYER
  2
画層44
 70
    0
 62
7
  6
CONTINUOUS
  0
LAYER
  2
画層45
 70
    0
 62
7
  6
CONTINUOUS
  0
LAYER
  2
画層46
 70
    0
 62
7
  6
CONTINUOUS
  0
LAYER
  2
画層47
 70
    0
 62
7
  6
CONTINUOUS
  0
LAYER
  2
画層48
 70
    0
 62
7
  6
CONTINUOUS
  0
LAYER
  2
画層49
 70
    0
 62
7
  6
CONTINUOUS
  0
LAYER
  2
画層50
 70
    0
 62
7
  6
CONTINUOUS
  0
LAYER
  2
画層51
 70
    0
 62
7
  6
CONTINUOUS
  0
LAYER
  2
画層52
 70
    0
 62
7
  6
CONTINUOUS
  0
LAYER
  2
画層53
 70
    0
 62
7
  6
CONTINUOUS
  0
LAYER
  2
画層54
 70
    0
 62
7
  6
CONTINUOUS
  0
LAYER
  2
画層55
 70
    0
 62
7
  6
CONTINUOUS
  0
LAYER
  2
画層56
 70
    0
 62
7
  6
CONTINUOUS
  0
LAYER
  2
画層57
 70
    0
 62
7
  6
CONTINUOUS
  0
LAYER
  2
画層58
 70
    0
 62
7
  6
CONTINUOUS
  0
LAYER
  2
画層59
 70
    0
 62
7
  6
CONTINUOUS
  0
LAYER
  2
画層60
 70
    0
 62
7
  6
CONTINUOUS
  0
LAYER
  2
画層61
 70
    0
 62
7
  6
CONTINUOUS
  0
LAYER
  2
画層62
 70
    0
 62
7
  6
CONTINUOUS
  0
LAYER
  2
画層63
 70
    0
 62
7
  6
CONTINUOUS
  0
LAYER
  2
画層64
 70
    0
 62
7
  6
CONTINUOUS
  0
LAYER
  2
画層65
 70
    0
 62
7
  6
CONTINUOUS
  0
LAYER
  2
画層66
 70
    0
 62
7
  6
CONTINUOUS
  0
LAYER
  2
画層67
 70
    0
 62
7
  6
CONTINUOUS
  0
LAYER
  2
画層68
 70
    0
 62
7
  6
CONTINUOUS
  0
LAYER
  2
画層69
 70
    0
 62
7
  6
CONTINUOUS
  0
LAYER
  2
画層70
 70
    0
 62
7
  6
CONTINUOUS
  0
LAYER
  2
画層71
 70
    0
 62
7
  6
CONTINUOUS
  0
LAYER
  2
画層72
 70
    0
 62
7
  6
CONTINUOUS
  0
LAYER
  2
画層73
 70
    0
 62
7
  6
CONTINUOUS
  0
LAYER
  2
画層74
 70
    0
 62
7
  6
CONTINUOUS
  0
LAYER
  2
画層75
 70
    0
 62
7
  6
CONTINUOUS
  0
LAYER
  2
画層76
 70
    0
 62
7
  6
CONTINUOUS
  0
LAYER
  2
画層77
 70
    0
 62
7
  6
CONTINUOUS
  0
LAYER
  2
画層78
 70
    0
 62
7
  6
CONTINUOUS
  0
LAYER
  2
画層79
 70
    0
 62
7
  6
CONTINUOUS
  0
LAYER
  2
画層80
 70
    0
 62
7
  6
CONTINUOUS
  0
LAYER
  2
画層81
 70
    0
 62
7
  6
CONTINUOUS
  0
LAYER
  2
画層82
 70
    0
 62
7
  6
CONTINUOUS
  0
LAYER
  2
画層83
 70
    0
 62
7
  6
CONTINUOUS
  0
LAYER
  2
画層84
 70
    0
 62
7
  6
CONTINUOUS
  0
LAYER
  2
画層85
 70
    0
 62
7
  6
CONTINUOUS
  0
LAYER
  2
画層86
 70
    0
 62
7
  6
CONTINUOUS
  0
LAYER
  2
画層87
 70
    0
 62
7
  6
CONTINUOUS
  0
LAYER
  2
画層88
 70
    0
 62
7
  6
CONTINUOUS
  0
LAYER
  2
画層89
 70
    0
 62
7
  6
CONTINUOUS
  0
LAYER
  2
画層90
 70
    0
 62
7
  6
CONTINUOUS
  0
LAYER
  2
画層91
 70
    0
 62
7
  6
CONTINUOUS
  0
LAYER
  2
画層92
 70
    0
 62
7
  6
CONTINUOUS
  0
LAYER
  2
画層93
 70
    0
 62
7
  6
CONTINUOUS
  0
LAYER
  2
画層94
 70
    0
 62
7
  6
CONTINUOUS
  0
LAYER
  2
画層95
 70
    0
 62
7
  6
CONTINUOUS
  0
LAYER
  2
画層96
 70
    0
 62
7
  6
CONTINUOUS
  0
LAYER
  2
画層97
 70
    0
 62
7
  6
CONTINUOUS
  0
LAYER
  2
画層98
 70
    0
 62
7
  6
CONTINUOUS
  0
LAYER
  2
画層99
 70
    0
 62
7
  6
CONTINUOUS
  0
LAYER
  2
画層100
 70
    0
 62
7
  6
CONTINUOUS
  0
LAYER
  2
画層101
 70
    0
 62
7
  6
CONTINUOUS
  0
LAYER
  2
画層102
 70
    0
 62
7
  6
CONTINUOUS
  0
LAYER
  2
画層103
 70
    0
 62
7
  6
CONTINUOUS
  0
LAYER
  2
画層104
 70
    0
 62
7
  6
CONTINUOUS
  0
LAYER
  2
画層105
 70
    0
 62
7
  6
CONTINUOUS
  0
LAYER
  2
画層106
 70
    0
 62
7
  6
CONTINUOUS
  0
LAYER
  2
画層107
 70
    0
 62
7
  6
CONTINUOUS
  0
LAYER
  2
画層108
 70
    0
 62
7
  6
CONTINUOUS
  0
LAYER
  2
画層109
 70
    0
 62
7
  6
CONTINUOUS
  0
LAYER
  2
画層110
 70
    0
 62
7
  6
CONTINUOUS
  0
LAYER
  2
画層111
 70
    0
 62
7
  6
CONTINUOUS
  0
LAYER
  2
画層112
 70
    0
 62
7
  6
CONTINUOUS
  0
LAYER
  2
画層113
 70
    0
 62
7
  6
CONTINUOUS
  0
LAYER
  2
画層114
 70
    0
 62
7
  6
CONTINUOUS
  0
LAYER
  2
画層115
 70
    0
 62
7
  6
CONTINUOUS
  0
LAYER
  2
画層116
 70
    0
 62
7
  6
CONTINUOUS
  0
LAYER
  2
画層117
 70
    0
 62
7
  6
CONTINUOUS
  0
LAYER
  2
画層118
 70
    0
 62
7
  6
CONTINUOUS
  0
LAYER
  2
画層119
 70
    0
 62
7
  6
CONTINUOUS
  0
LAYER
  2
画層120
 70
    0
 62
7
  6
CONTINUOUS
  0
LAYER
  2
画層121
 70
    0
 62
7
  6
CONTINUOUS
  0
LAYER
  2
画層122
 70
    0
 62
7
  6
CONTINUOUS
  0
LAYER
  2
画層123
 70
    0
 62
7
  6
CONTINUOUS
  0
LAYER
  2
画層124
 70
    0
 62
7
  6
CONTINUOUS
  0
LAYER
  2
画層125
 70
    0
 62
7
  6
CONTINUOUS
  0
LAYER
  2
画層126
 70
    0
 62
7
  6
CONTINUOUS
  0
LAYER
  2
画層127
 70
    0
 62
7
  6
CONTINUOUS
  0
LAYER
  2
画層128
 70
    0
 62
7
  6
CONTINUOUS
  0
LAYER
  2
画層129
 70
    0
 62
7
  6
CONTINUOUS
  0
LAYER
  2
画層130
 70
    0
 62
7
  6
CONTINUOUS
  0
LAYER
  2
画層131
 70
    0
 62
7
  6
CONTINUOUS
  0
LAYER
  2
画層132
 70
    0
 62
7
  6
CONTINUOUS
  0
LAYER
  2
画層133
 70
    0
 62
7
  6
CONTINUOUS
  0
LAYER
  2
画層134
 70
    0
 62
7
  6
CONTINUOUS
  0
LAYER
  2
画層135
 70
    0
 62
7
  6
CONTINUOUS
  0
LAYER
  2
画層136
 70
    0
 62
7
  6
CONTINUOUS
  0
LAYER
  2
画層137
 70
    0
 62
7
  6
CONTINUOUS
  0
LAYER
  2
画層138
 70
    0
 62
7
  6
CONTINUOUS
  0
LAYER
  2
画層139
 70
    0
 62
7
  6
CONTINUOUS
  0
LAYER
  2
画層140
 70
    0
 62
7
  6
CONTINUOUS
  0
LAYER
  2
画層141
 70
    0
 62
7
  6
CONTINUOUS
  0
LAYER
  2
画層142
 70
    0
 62
7
  6
CONTINUOUS
  0
LAYER
  2
画層143
 70
    0
 62
7
  6
CONTINUOUS
  0
LAYER
  2
画層144
 70
    0
 62
7
  6
CONTINUOUS
  0
LAYER
  2
画層145
 70
    0
 62
7
  6
CONTINUOUS
  0
LAYER
  2
画層146
 70
    0
 62
7
  6
CONTINUOUS
  0
LAYER
  2
画層147
 70
    0
 62
7
  6
CONTINUOUS
  0
LAYER
  2
画層148
 70
    0
 62
7
  6
CONTINUOUS
  0
LAYER
  2
画層149
 70
    0
 62
7
  6
CONTINUOUS
  0
LAYER
  2
画層150
 70
    0
 62
7
  6
CONTINUOUS
  0
LAYER
  2
画層151
 70
    0
 62
7
  6
CONTINUOUS
  0
LAYER
  2
画層152
 70
    0
 62
7
  6
CONTINUOUS
  0
LAYER
  2
画層153
 70
    0
 62
7
  6
CONTINUOUS
  0
LAYER
  2
画層154
 70
    0
 62
7
  6
CONTINUOUS
  0
LAYER
  2
画層155
 70
    0
 62
7
  6
CONTINUOUS
  0
LAYER
  2
画層156
 70
    0
 62
7
  6
CONTINUOUS
  0
LAYER
  2
画層157
 70
    0
 62
7
  6
CONTINUOUS
  0
LAYER
  2
画層158
 70
    0
 62
7
  6
CONTINUOUS
  0
LAYER
  2
画層159
 70
    0
 62
7
  6
CONTINUOUS
  0
LAYER
  2
画層160
 70
    0
 62
7
  6
CONTINUOUS
  0
LAYER
  2
画層161
 70
    0
 62
7
  6
CONTINUOUS
  0
LAYER
  2
画層162
 70
    0
 62
7
  6
CONTINUOUS
  0
LAYER
  2
画層163
 70
    0
 62
7
  6
CONTINUOUS
  0
LAYER
  2
画層164
 70
    0
 62
7
  6
CONTINUOUS
  0
LAYER
  2
画層165
 70
    0
 62
7
  6
CONTINUOUS
  0
LAYER
  2
画層166
 70
    0
 62
7
  6
CONTINUOUS
  0
LAYER
  2
画層167
 70
    0
 62
7
  6
CONTINUOUS
  0
LAYER
  2
画層168
 70
    0
 62
7
  6
CONTINUOUS
  0
LAYER
  2
画層169
 70
    0
 62
7
  6
CONTINUOUS
  0
LAYER
  2
画層170
 70
    0
 62
7
  6
CONTINUOUS
  0
LAYER
  2
画層171
 70
    0
 62
7
  6
CONTINUOUS
  0
LAYER
  2
画層172
 70
    0
 62
7
  6
CONTINUOUS
  0
LAYER
  2
画層173
 70
    0
 62
7
  6
CONTINUOUS
  0
LAYER
  2
画層174
 70
    0
 62
7
  6
CONTINUOUS
  0
LAYER
  2
画層175
 70
    0
 62
7
  6
CONTINUOUS
  0
LAYER
  2
画層176
 70
    0
 62
7
  6
CONTINUOUS
  0
LAYER
  2
画層177
 70
    0
 62
7
  6
CONTINUOUS
  0
LAYER
  2
画層178
 70
    0
 62
7
  6
CONTINUOUS
  0
LAYER
  2
画層179
 70
    0
 62
7
  6
CONTINUOUS
  0
LAYER
  2
画層180
 70
    0
 62
7
  6
CONTINUOUS
  0
LAYER
  2
画層181
 70
    0
 62
7
  6
CONTINUOUS
  0
LAYER
  2
画層182
 70
    0
 62
7
  6
CONTINUOUS
  0
LAYER
  2
画層183
 70
    0
 62
7
  6
CONTINUOUS
  0
LAYER
  2
画層184
 70
    0
 62
7
  6
CONTINUOUS
  0
LAYER
  2
画層185
 70
    0
 62
7
  6
CONTINUOUS
  0
LAYER
  2
画層186
 70
    0
 62
7
  6
CONTINUOUS
  0
LAYER
  2
画層187
 70
    0
 62
7
  6
CONTINUOUS
  0
LAYER
  2
画層188
 70
    0
 62
7
  6
CONTINUOUS
  0
LAYER
  2
画層189
 70
    0
 62
7
  6
CONTINUOUS
  0
LAYER
  2
画層190
 70
    0
 62
7
  6
CONTINUOUS
  0
LAYER
  2
画層191
 70
    0
 62
7
  6
CONTINUOUS
  0
LAYER
  2
画層192
 70
    0
 62
7
  6
CONTINUOUS
  0
LAYER
  2
画層193
 70
    0
 62
7
  6
CONTINUOUS
  0
LAYER
  2
画層194
 70
    0
 62
7
  6
CONTINUOUS
  0
LAYER
  2
画層195
 70
    0
 62
7
  6
CONTINUOUS
  0
LAYER
  2
画層196
 70
    0
 62
7
  6
CONTINUOUS
  0
LAYER
  2
画層197
 70
    0
 62
7
  6
CONTINUOUS
  0
LAYER
  2
画層198
 70
    0
 62
7
  6
CONTINUOUS
  0
LAYER
  2
画層199
 70
    0
 62
7
  6
CONTINUOUS
  0
LAYER
  2
画層200
 70
    0
 62
7
  6
CONTINUOUS
  0
LAYER
  2
画層201
 70
    0
 62
7
  6
CONTINUOUS
  0
LAYER
  2
画層202
 70
    0
 62
7
  6
CONTINUOUS
  0
LAYER
  2
画層203
 70
    0
 62
7
  6
CONTINUOUS
  0
LAYER
  2
画層204
 70
    0
 62
7
  6
CONTINUOUS
  0
LAYER
  2
画層205
 70
    0
 62
7
  6
CONTINUOUS
  0
LAYER
  2
画層206
 70
    0
 62
7
  6
CONTINUOUS
  0
LAYER
  2
画層207
 70
    0
 62
7
  6
CONTINUOUS
  0
LAYER
  2
画層208
 70
    0
 62
7
  6
CONTINUOUS
  0
LAYER
  2
画層209
 70
    0
 62
7
  6
CONTINUOUS
  0
LAYER
  2
画層210
 70
    0
 62
7
  6
CONTINUOUS
  0
LAYER
  2
画層211
 70
    0
 62
7
  6
CONTINUOUS
  0
LAYER
  2
画層212
 70
    0
 62
7
  6
CONTINUOUS
  0
LAYER
  2
画層213
 70
    0
 62
7
  6
CONTINUOUS
  0
LAYER
  2
画層214
 70
    0
 62
7
  6
CONTINUOUS
  0
LAYER
  2
画層215
 70
    0
 62
7
  6
CONTINUOUS
  0
LAYER
  2
画層216
 70
    0
 62
7
  6
CONTINUOUS
  0
LAYER
  2
画層217
 70
    0
 62
7
  6
CONTINUOUS
  0
LAYER
  2
画層218
 70
    0
 62
7
  6
CONTINUOUS
  0
LAYER
  2
画層219
 70
    0
 62
7
  6
CONTINUOUS
  0
LAYER
  2
画層220
 70
    0
 62
7
  6
CONTINUOUS
  0
LAYER
  2
画層221
 70
    0
 62
7
  6
CONTINUOUS
  0
LAYER
  2
画層222
 70
    0
 62
7
  6
CONTINUOUS
  0
LAYER
  2
画層223
 70
    0
 62
7
  6
CONTINUOUS
  0
LAYER
  2
画層224
 70
    0
 62
7
  6
CONTINUOUS
  0
LAYER
  2
画層225
 70
    0
 62
7
  6
CONTINUOUS
  0
LAYER
  2
画層226
 70
    0
 62
7
  6
CONTINUOUS
  0
LAYER
  2
画層227
 70
    0
 62
7
  6
CONTINUOUS
  0
LAYER
  2
画層228
 70
    0
 62
7
  6
CONTINUOUS
  0
LAYER
  2
画層229
 70
    0
 62
7
  6
CONTINUOUS
  0
LAYER
  2
画層230
 70
    0
 62
7
  6
CONTINUOUS
  0
LAYER
  2
画層231
 70
    0
 62
7
  6
CONTINUOUS
  0
LAYER
  2
画層232
 70
    0
 62
7
  6
CONTINUOUS
  0
LAYER
  2
画層233
 70
    0
 62
7
  6
CONTINUOUS
  0
LAYER
  2
画層234
 70
    0
 62
7
  6
CONTINUOUS
  0
LAYER
  2
画層235
 70
    0
 62
7
  6
CONTINUOUS
  0
LAYER
  2
画層236
 70
    0
 62
7
  6
CONTINUOUS
  0
LAYER
  2
画層237
 70
    0
 62
7
  6
CONTINUOUS
  0
LAYER
  2
画層238
 70
    0
 62
7
  6
CONTINUOUS
  0
LAYER
  2
画層239
 70
    0
 62
7
  6
CONTINUOUS
  0
LAYER
  2
画層240
 70
    0
 62
7
  6
CONTINUOUS
  0
LAYER
  2
画層241
 70
    0
 62
7
  6
CONTINUOUS
  0
LAYER
  2
画層242
 70
    0
 62
7
  6
CONTINUOUS
  0
LAYER
  2
画層243
 70
    0
 62
7
  6
CONTINUOUS
  0
LAYER
  2
画層244
 70
    0
 62
7
  6
CONTINUOUS
  0
LAYER
  2
画層245
 70
    0
 62
7
  6
CONTINUOUS
  0
LAYER
  2
画層246
 70
    0
 62
7
  6
CONTINUOUS
  0
LAYER
  2
画層247
 70
    0
 62
7
  6
CONTINUOUS
  0
LAYER
  2
画層248
 70
    0
 62
7
  6
CONTINUOUS
  0
LAYER
  2
画層249
 70
    0
 62
7
  6
CONTINUOUS
  0
LAYER
  2
画層250
 70
    0
 62
7
  6
CONTINUOUS
  0
LAYER
  2
画層251
 70
    0
 62
7
  6
CONTINUOUS
  0
LAYER
  2
画層252
 70
    0
 62
7
  6
CONTINUOUS
  0
LAYER
  2
画層253
 70
    0
 62
7
  6
CONTINUOUS
  0
LAYER
  2
画層254
 70
    0
 62
7
  6
CONTINUOUS
  0
LAYER
  2
画層255
 70
    0
 62
7
  6
CONTINUOUS
  0
LAYER
  2
0
 70
   64
 62
    7
  6
CONTINUOUS
  0
ENDTAB
  0
TABLE
  2
STYLE
 70
     1
  0
STYLE
  2
Standard
 70
     0
 40
0.0
 41
1.0
 50
0.0
 71
     0
 42
3.2
  3
TXT
  4
BIGFONT
  0
STYLE
  2
Font_0
 70
     0
 40
0.0
 41
1.0
 50
0.0
 71
     0
 42
3.2
  3
txt
  4
BIGFONT
  0
ENDTAB
  0
ENDSEC
  0
SECTION
  2
ENTITIES
  0
LINE
  8
画層1
  6
DASHDOT
 10
425
 20
491.610859299805
 11
425
 21
89.8137539524353
  0
LINE
  8
画層1
  6
DASHDOT
 10
153.419050193253
 20
295
 11
681.142873533161
 21
295
  0
LINE
  8
画層2
  6
CONTINUOUS
 10
360
 20
230
 11
490
 21
230
  0
LINE
  8
画層2
  6
CONTINUOUS
 10
360
 20
230
 11
360
 21
360
  0
LINE
  8
画層2
  6
CONTINUOUS
 10
490
 20
230
 11
490
 21
360
  0
LINE
  8
画層2
  6
CONTINUOUS
 10
490
 20
360
 11
360
 21
360
  0
LINE
  8
画層6
  6
CONTINUOUS
 10
360
 20
475
 11
360
 21
480.5
  0
LINE
  8
画層6
  6
CONTINUOUS
 10
360
 20
480
 11
490
 21
480
  0
CIRCLE
  8
画層6
  6
CONTINUOUS
 10
360
 20
480
 40
0.25
  0
CIRCLE
  8
画層6
  6
CONTINUOUS
 10
490
 20
480
 40
0.25
  0
TEXT
  8
画層6
 62
253
  6
CONTINUOUS
 62
253
 10
421.5
 20
480.25
 40
4
  1
130
  7
Font_0
 72
1
 11
425
 21
484.25
 73
3
  0
LINE
  8
画層6
  6
CONTINUOUS
 10
490
 20
475
 11
490
 21
480.5
  0
LINE
  8
画層6
  6
CONTINUOUS
 10
350
 20
485
 11
350
 21
490.5
  0
LINE
  8
画層6
  6
CONTINUOUS
 10
350
 20
490
 11
500
 21
490
  0
CIRCLE
  8
画層6
  6
CONTINUOUS
 10
350
 20
490
 40
0.25
  0
CIRCLE
  8
画層6
  6
CONTINUOUS
 10
500
 20
490
 40
0.25
  0
TEXT
  8
画層6
 62
253
  6
CONTINUOUS
 62
253
 10
421.5
 20
490.25
 40
4
  1
150
  7
Font_0
 72
1
 11
425
 21
494.25
 73
3
  0
LINE
  8
画層6
  6
CONTINUOUS
 10
500
 20
485
 11
500
 21
490.5
  0
LINE
  8
画層6
  6
CONTINUOUS
 10
250
 20
495
 11
250
 21
500.5
  0
LINE
  8
画層6
  6
CONTINUOUS
 10
250
 20
500
 11
600
 21
500
  0
CIRCLE
  8
画層6
  6
CONTINUOUS
 10
250
 20
500
 40
0.25
  0
CIRCLE
  8
画層6
  6
CONTINUOUS
 10
600
 20
500
 40
0.25
  0
TEXT
  8
画層6
 62
253
  6
CONTINUOUS
 62
253
 10
421.5
 20
500.25
 40
4
  1
350
  7
Font_0
 72
1
 11
425
 21
504.25
 73
3
  0
LINE
  8
画層6
  6
CONTINUOUS
 10
600
 20
495
 11
600
 21
500.5
  0
LINE
  8
画層6
  6
CONTINUOUS
 10
360
 20
475
 11
360
 21
361.770243473423
  0
LINE
  8
画層6
  6
CONTINUOUS
 10
490
 20
475
 11
490
 21
362.397945612247
  0
LINE
  8
画層6
  6
CONTINUOUS
 10
490
 20
362.397945612247
 11
490
 21
361.377446637236
  0
LINE
  8
画層6
  6
CONTINUOUS
 10
500
 20
485
 11
500
 21
471.400015670118
  0
LINE
  8
画層6
  6
CONTINUOUS
 10
350
 20
485
 11
350
 21
471.255220646072
  0
LINE
  8
画層6
  6
CONTINUOUS
 10
250
 20
495
 11
250
 21
371.44625737209
  0
LINE
  8
画層6
  6
CONTINUOUS
 10
600
 20
495
 11
600
 21
371.655015277702
  0
LINE
  8
画層15
  6
CONTINUOUS
 10
250
 20
370
 11
250
 21
365
  0
LINE
  8
画層15
  6
CONTINUOUS
 10
350
 20
120
 11
500
 21
120
  0
LINE
  8
画層15
  6
CONTINUOUS
 10
600
 20
220
 11
600
 21
225
  0
LINE
  8
画層15
  6
CONTINUOUS
 10
600
 20
365
 11
600
 21
370
  0
LINE
  8
画層15
  6
CONTINUOUS
 10
350
 20
470
 11
500
 21
470
  0
LINE
  8
画層15
  6
CONTINUOUS
 10
504.998356104543
 20
120
 11
600
 21
214.996771034067
  0
LINE
  8
画層15
  6
CONTINUOUS
 10
600
 20
374.996334906118
 11
504.997549275172
 21
470
  0
LINE
  8
画層15
  6
CONTINUOUS
 10
250
 20
214.998807336096
 11
345.002885458578
 21
120
  0
LINE
  8
画層15
  6
CONTINUOUS
 10
600
 20
214.996771034067
 11
600
 21
220
  0
LINE
  8
画層15
  6
CONTINUOUS
 10
504.998356104543
 20
120
 11
500
 21
120
  0
LINE
  8
画層15
  6
CONTINUOUS
 10
345.002885458578
 20
120
 11
350
 21
120
  0
LINE
  8
画層15
  6
CONTINUOUS
 10
250
 20
214.998807336096
 11
250
 21
220
  0
LINE
  8
画層15
  6
CONTINUOUS
 10
250
 20
220
 11
250
 21
225
  0
LINE
  8
画層15
  6
CONTINUOUS
 10
250
 20
370
 11
250
 21
375.002455342156
  0
LINE
  8
画層15
  6
CONTINUOUS
 10
350
 20
470
 11
345.000495294151
 21
470
  0
LINE
  8
画層15
  6
CONTINUOUS
 10
345.000495294151
 20
470
 11
250
 21
375.002455342156
  0
LINE
  8
画層15
  6
CONTINUOUS
 10
504.997549275172
 20
470
 11
500
 21
470
  0
LINE
  8
画層15
  6
CONTINUOUS
 10
600
 20
374.996334906118
 11
600
 21
370
  0
LINE
  8
画層10
  6
CONTINUOUS
 10
326.997631351887
 20
295
 11
326.997631351887
 21
274.998701403635
  0
CIRCLE
  8
画層11
  6
CONTINUOUS
 10
425
 20
170
 40
19.9900361888918
  0
CIRCLE
  8
画層11
  6
CONTINUOUS
 10
425
 20
420
 40
20.0069714023873
  0
CIRCLE
  8
画層11
  6
CONTINUOUS
 10
447.497261584057
 20
170
 40
1.12189110267366
  0
CIRCLE
  8
画層11
  6
CONTINUOUS
 10
425
 20
147.504352551468
 40
1.14426110711109
  0
CIRCLE
  8
画層11
  6
CONTINUOUS
 10
425
 20
192.50348810324
 40
1.0307808190317
  0
CIRCLE
  8
画層11
  6
CONTINUOUS
 10
402.497496720507
 20
170
 40
1.00975875615289
  0
CIRCLE
  8
画層11
  6
CONTINUOUS
 10
447.503351815342
 20
420
 40
1.00536966061232
  0
CIRCLE
  8
画層11
  6
CONTINUOUS
 10
425
 20
442.50254799069
 40
1.02895170237224
  0
CIRCLE
  8
画層11
  6
CONTINUOUS
 10
425
 20
397.49937590743
 40
0.997245654820119
  0
CIRCLE
  8
画層11
  6
CONTINUOUS
 10
402.497874396903
 20
420
 40
0.998281558776185
  0
LINE
  8
画層10
  6
CONTINUOUS
 10
326.997631351887
 20
295
 11
326.997631351887
 21
315.00092222911
  0
LINE
  8
画層10
  6
CONTINUOUS
 10
326.997631351887
 20
315.00092222911
 11
309.994402910409
 21
315.00092222911
  0
LINE
  8
画層10
  6
CONTINUOUS
 10
309.994402910409
 20
315.00092222911
 11
309.994402910409
 21
374.997891332028
  0
LINE
  8
画層10
  6
CONTINUOUS
 10
309.994402910409
 20
374.997891332028
 11
409.998034495715
 21
374.997891332028
  0
LINE
  8
画層10
  6
CONTINUOUS
 10
409.998034495715
 20
274.998701403635
 11
409.998034495715
 21
374.997891332028
  0
LINE
  8
画層10
  6
CONTINUOUS
 10
409.998034495715
 20
274.998701403635
 11
326.997631351887
 21
274.998701403635
  0
LINE
  8
画層10
  6
CONTINUOUS
 10
540
 20
313.496546843716
 11
540
 21
374.998219228737
  0
LINE
  8
画層10
  6
CONTINUOUS
 10
540
 20
374.997891332028
 11
440.001372828495
 21
374.997891332028
  0
LINE
  8
画層10
  6
CONTINUOUS
 10
440.001372828495
 20
274.998701403635
 11
440.001372828495
 21
374.997891332028
  0
LINE
  8
画層10
  6
CONTINUOUS
 10
540
 20
315.00092222911
 11
522.997302073622
 21
315.00092222911
  0
LINE
  8
画層10
  6
CONTINUOUS
 10
522.997302073622
 20
274.998701403635
 11
440.001372828495
 21
274.998701403635
  0
LINE
  8
画層10
  6
CONTINUOUS
 10
522.997302073622
 20
274.998701403635
 11
522.997302073622
 21
315.00092222911
  0
LINE
  8
画層12
  6
CONTINUOUS
 10
385.004158263561
 20
374.997891332028
 11
285.001950054527
 21
375.002192590396
  0
LINE
  8
画層12
  6
CONTINUOUS
 10
285.001950054527
 20
375.002192590396
 11
285.001950051844
 21
315.00092222911
  0
LINE
  8
画層12
  6
CONTINUOUS
 10
285.001950054527
 20
315.002056360245
 11
301.998608760611
 21
315.00092222911
  0
LINE
  8
画層12
  6
CONTINUOUS
 10
301.998608760675
 20
315.00092222911
 11
301.998608760611
 21
274.998701403635
  0
LINE
  8
画層12
  6
CONTINUOUS
 10
301.998608760611
 20
274.998701403635
 11
385.004158263561
 21
274.998701403635
  0
LINE
  8
画層12
  6
CONTINUOUS
 10
385.004158263561
 20
274.998701403635
 11
385.004158263561
 21
374.997891332028
  0
LINE
  8
画層12
  6
CONTINUOUS
 10
565.004286338251
 20
374.997433959698
 11
465.00175314894
 21
374.997433959698
  0
LINE
  8
画層12
  6
CONTINUOUS
 10
465.00175314894
 20
274.998701403635
 11
465.00175314894
 21
374.997433959698
  0
LINE
  8
画層12
  6
CONTINUOUS
 10
465.00175314894
 20
274.998701403635
 11
547.998815091615
 21
274.998701403635
  0
LINE
  8
画層12
  6
CONTINUOUS
 10
565.002418034467
 20
315.00092222911
 11
565.004286338251
 21
374.997433959698
  0
LINE
  8
画層12
  6
CONTINUOUS
 10
547.998815091615
 20
315.00092222911
 11
547.998815091615
 21
274.998701403635
  0
LINE
  8
画層12
  6
CONTINUOUS
 10
547.998815091615
 20
315.00092222911
 11
565.002418034467
 21
315.00092222911
  0
LINE
  8
画層13
  6
CONTINUOUS
 10
310
 20
295
 11
317.502906825184
 21
295
  0
LINE
  8
画層13
  6
CONTINUOUS
 10
317.502906825184
 20
295
 11
317.502906825184
 21
287.500196471095
  0
LINE
  8
画層13
  6
CONTINUOUS
 10
317.502906825184
 20
295
 11
317.502906825184
 21
302.495974783109
  0
LINE
  8
画層13
  6
CONTINUOUS
 10
317.502906825184
 20
287.500196471095
 11
317.502906825184
 21
272.504673890789
  0
LINE
  8
画層13
  6
CONTINUOUS
 10
317.502906825184
 20
272.504673890789
 11
317.502906825184
 21
257.506580451589
  0
LINE
  8
画層13
  6
CONTINUOUS
 10
317.502906825184
 20
295
 11
332.500616481085
 21
295
  0
LINE
  8
画層13
  6
CONTINUOUS
 10
317.502906825184
 20
302.495974783109
 11
317.502906825184
 21
317.500027005632
  0
LINE
  8
画層13
  6
CONTINUOUS
 10
317.502906825184
 20
317.500027005632
 11
317.502906825184
 21
332.497269827564
  0
LINE
  8
画層13
  6
CONTINUOUS
 10
317.502906825184
 20
332.497269827564
 11
317.502906825184
 21
347.493648419899
  0
LINE
  8
画層13
  6
CONTINUOUS
 10
317.502906825184
 20
347.493648419899
 11
317.502906825184
 21
362.496602370964
  0
LINE
  8
画層13
  6
CONTINUOUS
 10
317.502906825184
 20
362.496602370964
 11
317.502906825184
 21
377.492573171853
  0
LINE
  8
画層13
  6
CONTINUOUS
 10
317.502906825184
 20
257.506580451589
 11
317.502906825184
 21
242.504939425672
  0
LINE
  8
画層13
  6
CONTINUOUS
 10
317.502906825184
 20
242.504939425672
 11
317.502906825184
 21
227.502161824606
  0
LINE
  8
画層13
  6
CONTINUOUS
 10
317.502906825184
 20
227.502161824606
 11
317.502906825184
 21
212.504153449584
  0
LINE
  8
画層13
  6
CONTINUOUS
 10
317.502906825184
 20
212.504153449584
 11
317.502906825184
 21
197.502710553427
  0
LINE
  8
画層13
  6
CONTINUOUS
 10
317.502906825184
 20
197.502710553427
 11
293.505474071052
 21
197.502710553427
  0
LINE
  8
画層13
  6
CONTINUOUS
 10
317.502906825184
 20
212.504153449584
 11
315.520486801282
 21
212.504153449584
  0
LINE
  8
画層13
  6
CONTINUOUS
 10
317.502906825184
 20
227.502161824606
 11
315.241083033766
 21
227.502161824606
  0
LINE
  8
画層13
  6
CONTINUOUS
 10
317.502906825184
 20
242.504939425672
 11
315.177509781325
 21
242.504939425672
  0
LINE
  8
画層13
  6
CONTINUOUS
 10
317.502906825184
 20
257.506580451589
 11
315.652550477382
 21
257.506580451589
  0
LINE
  8
画層13
  6
CONTINUOUS
 10
317.502906825184
 20
272.504673890789
 11
314.228198411524
 21
272.504673890789
  0
LINE
  8
画層13
  6
CONTINUOUS
 10
317.502906825184
 20
287.500196471095
 11
315.225242240557
 21
287.500196471095
  0
LINE
  8
画層13
  6
CONTINUOUS
 10
317.502906825184
 20
302.495974783109
 11
315.123106790213
 21
302.495974783109
  0
LINE
  8
画層13
  6
CONTINUOUS
 10
317.502906825184
 20
317.500027005632
 11
314.454367122884
 21
317.500027005632
  0
LINE
  8
画層13
  6
CONTINUOUS
 10
317.502906825184
 20
332.497269827564
 11
313.882372175574
 21
332.497269827564
  0
LINE
  8
画層13
  6
CONTINUOUS
 10
317.502906825184
 20
347.493648419899
 11
314.578670470009
 21
347.493648419899
  0
LINE
  8
画層13
  6
CONTINUOUS
 10
317.502906825184
 20
362.496602370964
 11
315.09221713848
 21
362.496602370964
  0
LINE
  8
画層13
  6
CONTINUOUS
 10
332.500616481085
 20
295
 11
347.504564856581
 21
295
  0
LINE
  8
画層13
  6
CONTINUOUS
 10
347.504564856581
 20
295
 11
362.499970264713
 21
295
  0
LINE
  8
画層13
  6
CONTINUOUS
 10
362.499970264713
 20
295
 11
377.499549120604
 21
295
  0
LINE
  8
画層13
  6
CONTINUOUS
 10
347.504564856581
 20
295
 11
347.504564856581
 21
287.499013237275
  0
LINE
  8
画層13
  6
CONTINUOUS
 10
347.504564856581
 20
287.499013237275
 11
347.504564856581
 21
272.49851120561
  0
LINE
  8
画層13
  6
CONTINUOUS
 10
347.504564856581
 20
272.49851120561
 11
347.504564856581
 21
257.502844370954
  0
LINE
  8
画層13
  6
CONTINUOUS
 10
347.504564856581
 20
257.502844370954
 11
347.504564856581
 21
242.503167650971
  0
LINE
  8
画層13
  6
CONTINUOUS
 10
347.504564856581
 20
242.503167650971
 11
347.504564856581
 21
227.507070991893
  0
LINE
  8
画層13
  6
CONTINUOUS
 10
347.504564856581
 20
227.507070991893
 11
347.504564856581
 21
212.502524714349
  0
LINE
  8
画層13
  6
CONTINUOUS
 10
347.504564856581
 20
212.502524714349
 11
347.504564856581
 21
197.507198087603
  0
LINE
  8
画層13
  6
CONTINUOUS
 10
347.504564856581
 20
197.507198087603
 11
347.504564856581
 21
182.509531729572
  0
LINE
  8
画層13
  6
CONTINUOUS
 10
347.504564856581
 20
182.509531729572
 11
347.504564856581
 21
167.505776301552
  0
LINE
  8
画層13
  6
CONTINUOUS
 10
347.504564856581
 20
167.505776301552
 11
347.504564856581
 21
143.501570293506
  0
LINE
  8
画層13
  6
CONTINUOUS
 10
347.504564856581
 20
167.505776301552
 11
344.570345495373
 21
167.505776301552
  0
LINE
  8
画層13
  6
CONTINUOUS
 10
347.504564856581
 20
182.509531729572
 11
344.231159789563
 21
182.509531729572
  0
LINE
  8
画層13
  6
CONTINUOUS
 10
347.504564856581
 20
197.507198087603
 11
345.531219450593
 21
197.507198087603
  0
LINE
  8
画層13
  6
CONTINUOUS
 10
347.504564856581
 20
212.502524714349
 11
345.537942718214
 21
212.502524714349
  0
LINE
  8
画層13
  6
CONTINUOUS
 10
347.504564856581
 20
227.507070991893
 11
344.440787108927
 21
227.507070991893
  0
LINE
  8
画層13
  6
CONTINUOUS
 10
347.504564856581
 20
242.503167650971
 11
345.502002483923
 21
242.503167650971
  0
LINE
  8
画層13
  6
CONTINUOUS
 10
347.504564856581
 20
257.502844370954
 11
345.149975393525
 21
257.502844370954
  0
LINE
  8
画層13
  6
CONTINUOUS
 10
347.504564856581
 20
272.49851120561
 11
345.546560366229
 21
272.49851120561
  0
LINE
  8
画層13
  6
CONTINUOUS
 10
347.504564856581
 20
287.499013237275
 11
345.210494627612
 21
287.499013237275
  0
LINE
  8
画層13
  6
CONTINUOUS
 10
362.499970264713
 20
295
 11
362.499970264713
 21
287.496575403198
  0
LINE
  8
画層13
  6
CONTINUOUS
 10
362.499970264713
 20
287.496575403198
 11
362.499970264713
 21
272.501337829154
  0
LINE
  8
画層13
  6
CONTINUOUS
 10
362.499970264713
 20
272.501337829154
 11
362.499970264713
 21
257.501768346647
  0
LINE
  8
画層13
  6
CONTINUOUS
 10
362.499970264713
 20
257.501768346647
 11
362.499970264713
 21
242.502207894557
  0
LINE
  8
画層13
  6
CONTINUOUS
 10
362.499970264713
 20
242.502207894557
 11
362.499970264713
 21
227.504140694436
  0
LINE
  8
画層13
  6
CONTINUOUS
 10
362.499970264713
 20
227.504140694436
 11
362.499970264713
 21
212.505794931652
  0
LINE
  8
画層13
  6
CONTINUOUS
 10
362.499970264713
 20
212.505794931652
 11
362.499970264713
 21
197.507098239335
  0
LINE
  8
画層13
  6
CONTINUOUS
 10
362.499970264713
 20
197.507098239335
 11
362.499970264713
 21
182.506615135177
  0
LINE
  8
画層13
  6
CONTINUOUS
 10
362.499970264713
 20
182.506615135177
 11
362.499970264713
 21
167.510544443038
  0
LINE
  8
画層13
  6
CONTINUOUS
 10
362.499970264713
 20
167.510544443038
 11
362.499970264713
 21
143.513471521527
  0
LINE
  8
画層13
  6
CONTINUOUS
 10
540
 20
295
 11
532.504631667311
 21
295
  0
LINE
  8
画層13
  6
CONTINUOUS
 10
532.504631667311
 20
295
 11
532.504631667311
 21
287.501490722309
  0
LINE
  8
画層13
  6
CONTINUOUS
 10
532.504631667311
 20
287.501490722309
 11
532.504631667311
 21
272.497057288204
  0
LINE
  8
画層13
  6
CONTINUOUS
 10
532.504631667311
 20
272.497057288204
 11
532.504631667311
 21
257.492668275911
  0
LINE
  8
画層13
  6
CONTINUOUS
 10
532.504631667311
 20
257.492668275911
 11
532.504631667311
 21
242.497438869351
  0
LINE
  8
画層13
  6
CONTINUOUS
 10
532.504631667311
 20
242.497438869351
 11
532.504631667311
 21
227.498554623069
  0
LINE
  8
画層13
  6
CONTINUOUS
 10
532.504631667311
 20
227.498554623069
 11
532.504631667311
 21
212.499968445471
  0
LINE
  8
画層13
  6
CONTINUOUS
 10
532.504631667311
 20
212.499968445471
 11
532.504631667311
 21
197.498319576921
  0
LINE
  8
画層13
  6
CONTINUOUS
 10
532.504631667311
 20
197.498319576921
 11
556.50193304369
 21
197.498319576921
  0
LINE
  8
画層13
  6
CONTINUOUS
 10
532.504631667311
 20
295
 11
517.506871614843
 21
295
  0
LINE
  8
画層13
  6
CONTINUOUS
 10
517.506871614843
 20
295
 11
502.505248864922
 21
295
  0
LINE
  8
画層13
  6
CONTINUOUS
 10
502.505248864922
 20
295
 11
487.508650283423
 21
295
  0
LINE
  8
画層13
  6
CONTINUOUS
 10
487.508650283423
 20
295
 11
472.509404855665
 21
295
  0
LINE
  8
画層13
  6
CONTINUOUS
 10
377.499549120604
 20
295
 11
392.504453997318
 21
295
  0
LINE
  8
画層13
  6
CONTINUOUS
 10
392.504453997318
 20
295
 11
407.507311058499
 21
295
  0
LINE
  8
画層13
  6
CONTINUOUS
 10
472.509404855665
 20
295
 11
457.513261345705
 21
295
  0
LINE
  8
画層13
  6
CONTINUOUS
 10
457.513261345705
 20
295
 11
442.51679451265
 21
295
  0
LINE
  8
画層13
  6
CONTINUOUS
 10
442.51679451265
 20
295
 11
427.514247572604
 21
295
  0
LINE
  8
画層13
  6
CONTINUOUS
 10
407.507311058499
 20
295
 11
422.504544776959
 21
295
  0
LINE
  8
画層13
  6
CONTINUOUS
 10
332.500616481085
 20
295
 11
332.500616481085
 21
119.234021849442
  0
LINE
  8
画層13
  6
CONTINUOUS
 10
377.499549120604
 20
295
 11
377.499549120604
 21
115.686469706066
  0
LINE
  8
画層13
  6
CONTINUOUS
 10
392.504453997318
 20
295
 11
392.504453997318
 21
117.981289925143
  0
LINE
  8
画層13
  6
CONTINUOUS
 10
407.507311058499
 20
295
 11
407.507311058499
 21
116.435620738004
  0
LINE
  8
画層13
  6
CONTINUOUS
 10
422.504544776959
 20
295
 11
422.504544776959
 21
114.20448118982
  0
LINE
  8
画層13
  6
CONTINUOUS
 10
427.514247572604
 20
295
 11
427.514247572604
 21
115.618093982981
  0
LINE
  8
画層13
  6
CONTINUOUS
 10
442.51679451265
 20
295
 11
442.51679451265
 21
113.577811940072
  0
LINE
  8
画層13
  6
CONTINUOUS
 10
457.513261345705
 20
295
 11
457.513261345705
 21
114.90407969271
  0
LINE
  8
画層13
  6
CONTINUOUS
 10
472.509404855665
 20
295
 11
472.509404855665
 21
117.524966891994
  0
LINE
  8
画層13
  6
CONTINUOUS
 10
487.508650283423
 20
295
 11
487.508650283423
 21
118.413810878508
  0
LINE
  8
画層13
  6
CONTINUOUS
 10
502.505248864922
 20
295
 11
502.505248864922
 21
117.637416171808
  0
LINE
  8
画層13
  6
CONTINUOUS
 10
517.506871614843
 20
295
 11
517.506871614843
 21
114.127219332551
  0
LINE
  8
画層13
  6
CONTINUOUS
 10
532.504631667311
 20
295
 11
532.504631667311
 21
480.95034099793
  0
LINE
  8
画層13
  6
CONTINUOUS
 10
517.506871614843
 20
295
 11
517.506871614843
 21
480.89145068957
  0
LINE
  8
画層13
  6
CONTINUOUS
 10
502.505248864922
 20
295
 11
502.505248864922
 21
479.043472028925
  0
LINE
  8
画層13
  6
CONTINUOUS
 10
487.508650283423
 20
295
 11
487.508650283423
 21
476.973890343211
  0
LINE
  8
画層13
  6
CONTINUOUS
 10
472.509404855665
 20
295
 11
472.509404855665
 21
479.768189892882
  0
LINE
  8
画層13
  6
CONTINUOUS
 10
457.513261345705
 20
295
 11
457.513261345705
 21
476.883839662873
  0
LINE
  8
画層13
  6
CONTINUOUS
 10
442.51679451265
 20
295
 11
442.51679451265
 21
487.796996138915
  0
LINE
  8
画層13
  6
CONTINUOUS
 10
427.514247572604
 20
295
 11
427.514247572604
 21
474.635095484234
  0
LINE
  8
画層13
  6
CONTINUOUS
 10
422.504544776959
 20
295
 11
422.504544776959
 21
475.818042470805
  0
LINE
  8
画層13
  6
CONTINUOUS
 10
407.507311058499
 20
295
 11
407.507311058499
 21
483.751491404382
  0
LINE
  8
画層13
  6
CONTINUOUS
 10
392.504453997318
 20
295
 11
392.504453997318
 21
471.759988829307
  0
LINE
  8
画層13
  6
CONTINUOUS
 10
377.499549120604
 20
295
 11
377.499549120604
 21
474.063782949027
  0
LINE
  8
画層13
  6
CONTINUOUS
 10
362.499970264713
 20
295
 11
362.499970264713
 21
473.100672736771
  0
LINE
  8
画層13
  6
CONTINUOUS
 10
347.504564856581
 20
295
 11
347.504564856581
 21
477.10230652261
  0
LINE
  8
画層13
  6
CONTINUOUS
 10
332.500616481085
 20
295
 11
332.500616481085
 21
468.926422547649
  0
LINE
  8
画層13
  6
CONTINUOUS
 10
317.502906825184
 20
287.500196471095
 11
571.184650273828
 21
287.500196471095
  0
LINE
  8
画層13
  6
CONTINUOUS
 10
317.502906825184
 20
272.504673890789
 11
569.337564287593
 21
272.504673890789
  0
LINE
  8
画層13
  6
CONTINUOUS
 10
317.502906825184
 20
257.506580451589
 11
620.490726681634
 21
257.506580451589
  0
LINE
  8
画層13
  6
CONTINUOUS
 10
317.502906825184
 20
242.504939425672
 11
624.376056820402
 21
242.504939425672
  0
LINE
  8
画層13
  6
CONTINUOUS
 10
317.502906825184
 20
227.502161824606
 11
617.794925167147
 21
227.502161824606
  0
LINE
  8
画層13
  6
CONTINUOUS
 10
317.502906825184
 20
212.504153449584
 11
611.797235051989
 21
212.504153449584
  0
LINE
  8
画層13
  6
CONTINUOUS
 10
317.502906825184
 20
197.502710553427
 11
609.901743958483
 21
197.502710553427
  0
LINE
  8
画層13
  6
CONTINUOUS
 10
332.500616481085
 20
182.509531729572
 11
330.980251968249
 21
182.509531729572
  0
LINE
  8
画層13
  6
CONTINUOUS
 10
317.502906825184
 20
197.502710553427
 11
317.502906825184
 21
137.286922519128
  0
LINE
  8
画層13
  6
CONTINUOUS
 10
532.504631667311
 20
197.498319576921
 11
532.504631667311
 21
140.171093326296
  0
LINE
  8
画層13
  6
CONTINUOUS
 10
540
 20
295
 11
555.004580514641
 21
295
  0
LINE
  8
画層13
  6
CONTINUOUS
 10
555.004580514641
 20
295
 11
555.004580514641
 21
144.732246759286
  0
LINE
  8
画層13
  6
CONTINUOUS
 10
555.004580514641
 20
295
 11
555.004580514641
 21
455.09401964334
  0
LINE
  8
画層13
  6
CONTINUOUS
 10
310
 20
295
 11
295.00475602414
 21
295
  0
LINE
  8
画層13
  6
CONTINUOUS
 10
295.00475602414
 20
295
 11
295.00475602414
 21
145.510168775913
  0
LINE
  8
画層13
  6
CONTINUOUS
 10
317.502906825184
 20
287.500196471095
 11
275.858895261276
 21
287.500196471095
  0
LINE
  8
画層13
  6
CONTINUOUS
 10
317.502906825184
 20
272.504673890789
 11
268.667719568939
 21
272.504673890789
  0
LINE
  8
画層13
  6
CONTINUOUS
 10
317.502906825184
 20
257.506580451589
 11
244.897504089521
 21
257.506580451589
  0
LINE
  8
画層13
  6
CONTINUOUS
 10
317.502906825184
 20
242.504939425672
 11
247.798597260822
 21
242.504939425672
  0
LINE
  8
画層13
  6
CONTINUOUS
 10
317.502906825184
 20
227.502161824606
 11
246.184685533318
 21
227.502161824606
  0
LINE
  8
画層13
  6
CONTINUOUS
 10
317.502906825184
 20
212.504153449584
 11
241.018827319636
 21
212.504153449584
  0
LINE
  8
画層13
  6
CONTINUOUS
 10
362.499970264713
 20
182.506615135177
 11
360.684448004561
 21
182.506615135177
  0
LINE
  8
画層13
  6
CONTINUOUS
 10
362.499970264713
 20
182.506615135177
 11
362.499970264713
 21
167.510544443038
  0
LINE
  8
画層13
  6
CONTINUOUS
 10
362.499970264713
 20
167.510544443038
 11
360.269715912978
 21
167.510544443038
  0
LINE
  8
画層13
  6
CONTINUOUS
 10
362.499970264713
 20
182.506615135177
 11
276.916811681765
 21
182.506615135177
  0
LINE
  8
画層13
  6
CONTINUOUS
 10
362.499970264713
 20
167.510544443038
 11
281.741563670178
 21
167.510544443038
  0
LINE
  8
画層13
  6
CONTINUOUS
 10
362.499970264713
 20
182.506615135177
 11
589.666137204202
 21
182.506615135177
  0
LINE
  8
画層13
  6
CONTINUOUS
 10
362.499970264713
 20
167.510544443038
 11
574.465885854675
 21
167.510544443038
  0
LINE
  8
画層13
  6
CONTINUOUS
 10
362.499970264713
 20
167.510544443038
 11
362.499970264713
 21
152.513697081599
  0
LINE
  8
画層13
  6
CONTINUOUS
 10
362.499970264713
 20
152.513697081599
 11
288.078116113237
 21
152.513697081599
  0
LINE
  8
画層13
  6
CONTINUOUS
 10
362.499970264713
 20
152.513697081599
 11
561.937931569372
 21
152.513697081599
  0
LINE
  8
画層13
  6
CONTINUOUS
 10
377.499549120604
 20
152.513697081599
 11
377.499549120604
 21
137.510051111804
  0
LINE
  8
画層13
  6
CONTINUOUS
 10
377.499549120604
 20
137.510051111804
 11
289.024008629742
 21
137.510051111804
  0
LINE
  8
画層13
  6
CONTINUOUS
 10
377.499549120604
 20
137.510051111804
 11
539.428220680003
 21
137.510051111804
  0
LINE
  8
画層13
  6
CONTINUOUS
 10
555.004580514641
 20
295
 11
570.006187599878
 21
295
  0
LINE
  8
画層13
  6
CONTINUOUS
 10
570.006187599878
 20
295
 11
570.006187599878
 21
161.000889006767
  0
LINE
  8
画層13
  6
CONTINUOUS
 10
570.006187599878
 20
295
 11
570.006187599878
 21
423.028715903701
  0
LINE
  8
画層13
  6
CONTINUOUS
 10
570.006187599878
 20
295
 11
585.002806035034
 21
295
  0
LINE
  8
画層13
  6
CONTINUOUS
 10
585.002806035034
 20
295
 11
585.002806035034
 21
403.726990132095
  0
LINE
  8
画層13
  6
CONTINUOUS
 10
585.002806035034
 20
295
 11
585.002806035034
 21
158.623023255521
  0
LINE
  8
画層13
  6
CONTINUOUS
 10
317.502906825184
 20
302.495974783109
 11
278.193086501173
 21
302.495974783109
  0
LINE
  8
画層13
  6
CONTINUOUS
 10
317.502906825184
 20
302.495974783109
 11
611.922106836068
 21
302.495974783109
  0
LINE
  8
画層13
  6
CONTINUOUS
 10
317.502906825184
 20
317.500027005632
 11
274.390762102855
 21
317.500027005632
  0
LINE
  8
画層13
  6
CONTINUOUS
 10
317.502906825184
 20
317.500027005632
 11
599.56276923587
 21
317.500027005632
  0
LINE
  8
画層13
  6
CONTINUOUS
 10
317.502906825184
 20
332.497269827564
 11
241.935432580073
 21
332.497269827564
  0
LINE
  8
画層13
  6
CONTINUOUS
 10
317.502906825184
 20
332.497269827564
 11
604.95202952839
 21
332.497269827564
  0
LINE
  8
画層13
  6
CONTINUOUS
 10
317.502906825184
 20
347.493648419899
 11
613.110481336957
 21
347.493648419899
  0
LINE
  8
画層13
  6
CONTINUOUS
 10
317.502906825184
 20
347.493648419899
 11
247.126192798313
 21
347.493648419899
  0
LINE
  8
画層13
  6
CONTINUOUS
 10
317.502906825184
 20
362.496602370964
 11
234.269639688665
 21
362.496602370964
  0
LINE
  8
画層13
  6
CONTINUOUS
 10
317.502906825184
 20
362.496602370964
 11
613.657386461345
 21
362.496602370964
  0
LINE
  8
画層13
  6
CONTINUOUS
 10
317.502906825184
 20
377.492573171853
 11
612.495400669781
 21
377.492573171853
  0
LINE
  8
画層13
  6
CONTINUOUS
 10
317.502906825184
 20
377.492573171853
 11
231.18906665093
 21
377.492573171853
  0
LINE
  8
画層13
  6
CONTINUOUS
 10
317.502906825184
 20
392.493868191948
 11
239.793778911807
 21
392.493868191948
  0
LINE
  8
画層13
  6
CONTINUOUS
 10
317.502906825184
 20
392.493868191948
 11
597.486842308017
 21
392.493868191947
  0
LINE
  8
画層13
  6
CONTINUOUS
 10
317.502906825184
 20
407.491917277167
 11
574.925250779992
 21
407.491917277167
  0
LINE
  8
画層13
  6
CONTINUOUS
 10
317.502906825184
 20
422.488378088728
 11
566.773975173806
 21
422.488378088728
  0
LINE
  8
画層13
  6
CONTINUOUS
 10
317.502906825184
 20
437.483819474835
 11
561.392942825192
 21
437.483819474834
  0
LINE
  8
画層13
  6
CONTINUOUS
 10
317.502906825184
 20
452.478932782639
 11
542.62959850984
 21
452.478932782639
  0
LINE
  8
画層13
  6
CONTINUOUS
 10
295.00475602414
 20
295
 11
295.00475602414
 21
440.748098491015
  0
LINE
  8
画層13
  6
CONTINUOUS
 10
295.00475602414
 20
295
 11
280.002267056787
 21
295
  0
LINE
  8
画層13
  6
CONTINUOUS
 10
280.002267056787
 20
295
 11
280.002267056787
 21
175.563804042352
  0
LINE
  8
画層13
  6
CONTINUOUS
 10
280.002267056787
 20
295
 11
280.002267056787
 21
412.972295257656
  0
LINE
  8
画層13
  6
CONTINUOUS
 10
280.002267056787
 20
295
 11
265.005722274852
 21
295
  0
LINE
  8
画層13
  6
CONTINUOUS
 10
265.005722274852
 20
295
 11
265.005722274852
 21
407.015071371828
  0
LINE
  8
画層13
  6
CONTINUOUS
 10
265.005722274852
 20
295
 11
265.005722274852
 21
185.850532964079
  0
LINE
  8
画層13
  6
CONTINUOUS
 10
347.504564856581
 20
143.501570293506
 11
347.504564856581
 21
112.641360334381
  0
LINE
  8
画層13
  6
CONTINUOUS
 10
362.499970264713
 20
143.513471521527
 11
362.499970264713
 21
113.456680470709
  0
LINE
  8
画層13
  6
CONTINUOUS
 10
532.504631667311
 20
242.504939425672
 11
547.504301347393
 21
242.504939425672
  0
LINE
  8
画層13
  6
CONTINUOUS
 10
547.504301347393
 20
242.504939425672
 11
547.504301347393
 21
146.384263305498
  0
LINE
  8
画層13
  6
CONTINUOUS
 10
547.504301347393
 20
242.504939425672
 11
547.504301347393
 21
450.536989910203
  0
LINE
  8
画層13
  6
CONTINUOUS
 10
562.50538405726
 20
295
 11
562.50538405726
 21
161.475626462637
  0
LINE
  8
画層13
  6
CONTINUOUS
 10
562.50538405726
 20
295
 11
562.50538405726
 21
429.095286391462
  0
LINE
  8
画層13
  6
CONTINUOUS
 10
577.504496817456
 20
295
 11
577.504496817456
 21
171.008888791675
  0
LINE
  8
画層13
  6
CONTINUOUS
 10
577.504496817456
 20
295
 11
577.504496817456
 21
411.340268811293
  0
LINE
  8
画層13
  6
CONTINUOUS
 10
577.504496817456
 20
295
 11
592.499809579889
 21
295
  0
LINE
  8
画層13
  6
CONTINUOUS
 10
592.499809579889
 20
295
 11
592.499809579889
 21
194.948757517234
  0
LINE
  8
画層13
  6
CONTINUOUS
 10
592.499809579889
 20
295
 11
592.499809579889
 21
386.097713076221
  0
LINE
  8
画層13
  6
CONTINUOUS
 10
302.50237801207
 20
295
 11
302.50237801207
 21
443.668671516638
  0
LINE
  8
画層13
  6
CONTINUOUS
 10
302.50237801207
 20
295
 11
302.50237801207
 21
145.945780553865
  0
LINE
  8
画層13
  6
CONTINUOUS
 10
302.50237801207
 20
302.495974783109
 11
287.498043669659
 21
302.495974783109
  0
LINE
  8
画層13
  6
CONTINUOUS
 10
287.498043669659
 20
302.495974783109
 11
287.498043669659
 21
166.565123666969
  0
LINE
  8
画層13
  6
CONTINUOUS
 10
287.503511540463
 20
295
 11
287.503511540463
 21
418.312119514277
  0
LINE
  8
画層13
  6
CONTINUOUS
 10
272.503994665819
 20
295
 11
272.503994665819
 21
181.755371986495
  0
LINE
  8
画層13
  6
CONTINUOUS
 10
272.503994665819
 20
295
 11
272.503994665819
 21
408.722059274456
  0
LINE
  8
画層13
  6
CONTINUOUS
 10
272.503994665819
 20
295
 11
257.499791051015
 21
295
  0
LINE
  8
画層13
  6
CONTINUOUS
 10
257.499791051015
 20
295
 11
257.499791051015
 21
198.521459283763
  0
LINE
  8
画層13
  6
CONTINUOUS
 10
257.499791051015
 20
295
 11
257.499791051015
 21
401.938969881284
  0
LINE
  8
画層13
  6
CONTINUOUS
 10
571.503802127256
 20
242.504939425672
 11
571.503802127256
 21
262.702616813113
  0
LINE
  8
画層13
  6
CONTINUOUS
 10
571.504984957298
 20
347.493648419899
 11
571.504984957298
 21
329.134228306193
  0
LINE
  8
画層13
  6
CONTINUOUS
 10
278.499829876738
 20
347.493648419899
 11
278.499829876738
 21
328.51001694914
  0
LINE
  8
画層13
  6
CONTINUOUS
 10
278.503486338326
 20
242.504939425672
 11
278.503486338326
 21
261.468997056537
  0
LINE
  8
画層13
  6
CONTINUOUS
 10
425
 20
120
 11
425
 21
125.004456063269
  0
LINE
  8
画層13
  6
CONTINUOUS
 10
425
 20
125.004456063269
 11
334.262519562156
 21
125.004456063269
  0
LINE
  8
画層13
  6
CONTINUOUS
 10
425
 20
125.004456063269
 11
511.462295568271
 21
125.004456063269
  0
LINE
  8
画層13
  6
CONTINUOUS
 10
425
 20
125.004456063269
 11
420.001278987124
 21
125.004456063269
  0
LINE
  8
画層13
  6
CONTINUOUS
 10
425
 20
125.004456063269
 11
429.999278373289
 21
125.004456063269
  0
LINE
  8
画層13
  6
CONTINUOUS
 10
400
 20
130
 11
400
 21
117.031627789409
  0
LINE
  8
画層13
  6
CONTINUOUS
 10
450
 20
130
 11
450
 21
116.973650960074
  0
LINE
  8
画層13
  6
CONTINUOUS
 10
460
 20
130
 11
460
 21
116.352208094787
  0
LINE
  8
画層13
  6
CONTINUOUS
 10
390
 20
130
 11
390
 21
117.244480309703
  0
LINE
  8
画層13
  6
CONTINUOUS
 10
480
 20
130
 11
480
 21
117.410575545331
  0
LINE
  8
画層13
  6
CONTINUOUS
 10
490
 20
130
 11
490
 21
117.547646369337
  0
LINE
  8
画層13
  6
CONTINUOUS
 10
370
 20
130
 11
370
 21
117.559711846229
  0
LINE
  8
画層13
  6
CONTINUOUS
 10
360
 20
130
 11
360
 21
117.718059421187
  0
LINE
  8
画層13
  6
CONTINUOUS
 10
552.499178052271
 20
167.498385517034
 11
297.500247647076
 21
422.501227671078
  0
LINE
  8
画層13
  6
CONTINUOUS
 10
552.498774637586
 20
422.498167453059
 11
297.501442729289
 21
167.499403668048
  0
LINE
  8
画層13
  6
CONTINUOUS
 10
297.512583441721
 20
167.510544443038
 11
301.044780342856
 21
171.042761178382
  0
LINE
  8
画層13
  6
CONTINUOUS
 10
345.002885458578
 20
120
 11
600
 21
374.996334906118
  0
LINE
  8
画層13
  6
CONTINUOUS
 10
504.997549275172
 20
470
 11
250
 21
214.998807336096
  0
LINE
  8
画層13
  6
CONTINUOUS
 10
504.998356104543
 20
120
 11
250
 21
375.002455342156
  0
LINE
  8
画層13
  6
CONTINUOUS
 10
345.000495294151
 20
470
 11
600
 21
214.996771034067
  0
LINE
  8
画層13
  6
CONTINUOUS
 10
345.002885458578
 20
120
 11
348.540452556701
 21
123.537556282266
  0
LINE
  8
画層13
  6
CONTINUOUS
 10
250
 20
214.998807336096
 11
253.53493495267
 21
218.533792795692
  0
LINE
  8
画層13
  6
CONTINUOUS
 10
301.044780342856
 20
171.042761178382
 11
253.53493495267
 21
218.533792795692
  0
LINE
  8
画層13
  6
CONTINUOUS
 10
301.044780342856
 20
171.042761178382
 11
348.540452556701
 21
123.537556282266
  0
LINE
  8
画層13
  6
CONTINUOUS
 10
504.998356104543
 20
120
 11
501.459634757845
 21
123.538778233573
  0
LINE
  8
画層13
  6
CONTINUOUS
 10
600
 20
214.996771034068
 11
596.467653920259
 21
218.529168703617
  0
LINE
  8
画層13
  6
CONTINUOUS
 10
552.499178052271
 20
167.498385517034
 11
548.966912895365
 21
171.030704859792
  0
LINE
  8
画層13
  6
CONTINUOUS
 10
548.966912895365
 20
171.030704859792
 11
596.467653920259
 21
218.529168703617
  0
LINE
  8
画層13
  6
CONTINUOUS
 10
548.966912895365
 20
171.030704859792
 11
501.459634757845
 21
123.538778233573
  0
LINE
  8
画層13
  6
CONTINUOUS
 10
552.488985328225
 20
422.488378088728
 11
548.95152146494
 21
418.950894361658
  0
LINE
  8
画層13
  6
CONTINUOUS
 10
600
 20
374.996334906118
 11
596.464511920193
 21
371.46085763581
  0
LINE
  8
画層13
  6
CONTINUOUS
 10
504.997549275172
 20
470
 11
501.46080796562
 21
466.463208157713
  0
LINE
  8
画層13
  6
CONTINUOUS
 10
548.95152146494
 20
418.950894361658
 11
596.464511920193
 21
371.46085763581
  0
LINE
  8
画層13
  6
CONTINUOUS
 10
548.951521464939
 20
418.950894361658
 11
501.46080796562
 21
466.463208157713
  0
LINE
  8
画層13
  6
CONTINUOUS
 10
301.044780342856
 20
171.042761178382
 11
304.581705223187
 21
167.505126414823
  0
LINE
  8
画層13
  6
CONTINUOUS
 10
301.04478034282
 20
171.042761178447
 11
297.509936452097
 21
174.576205280328
  0
LINE
  8
画層13
  6
CONTINUOUS
 10
297.509936452097
 20
174.576205280328
 11
283.363413776784
 21
188.717125970149
  0
LINE
  8
画層13
  6
CONTINUOUS
 10
283.363413776784
 20
188.717125970149
 11
276.287761065556
 21
195.789976741653
  0
LINE
  8
画層13
  6
CONTINUOUS
 10
304.581705223187
 20
167.505126414823
 11
318.723096940342
 21
153.360896430773
  0
LINE
  8
画層13
  6
CONTINUOUS
 10
318.723096940342
 20
153.360896430773
 11
325.794942273564
 21
146.287631733397
  0
LINE
  8
画層13
  6
CONTINUOUS
 10
325.794942273564
 20
146.287631733397
 11
538.265586124556
 21
146.287631733397
  0
LINE
  8
画層13
  6
CONTINUOUS
 10
318.723096940342
 20
153.360896430773
 11
551.66850819547
 21
153.360896430773
  0
LINE
  8
画層13
  6
CONTINUOUS
 10
304.581705223187
 20
167.505126414823
 11
575.881567037798
 21
167.505126414823
  0
LINE
  8
画層13
  6
CONTINUOUS
 10
297.509936452097
 20
174.576205280328
 11
592.05634503464
 21
174.576205280328
  0
LINE
  8
画層13
  6
CONTINUOUS
 10
283.363413776784
 20
188.717125970149
 11
602.626786312548
 21
188.717125970149
  0
LINE
  8
画層13
  6
CONTINUOUS
 10
276.287761065556
 20
195.789976741653
 11
610.687711258119
 21
195.789976741653
  0
LINE
  8
画層13
  6
CONTINUOUS
 10
566.65418193174
 20
188.717125970149
 11
566.65418193174
 21
425.2157360837
  0
LINE
  8
画層13
  6
CONTINUOUS
 10
552.512583295007
 20
174.576205280328
 11
552.512583295007
 21
444.347189771642
  0
LINE
  8
画層13
  6
CONTINUOUS
 10
545.440194826018
 20
167.505126414823
 11
545.440194826018
 21
453.075584872271
  0
LINE
  8
画層13
  6
CONTINUOUS
 10
531.291392795267
 20
153.360896430773
 11
531.291392795267
 21
467.626410135119
  0
LINE
  8
画層13
  6
CONTINUOUS
 10
524.215841702904
 20
146.287631733397
 11
524.215841702904
 21
473.772235323206
  0
LINE
  8
画層13
  6
CONTINUOUS
 10
276.287761065556
 20
195.789976741653
 11
276.287761065556
 21
417.989689103143
  0
LINE
  8
画層13
  6
CONTINUOUS
 10
283.363413776783
 20
188.717125970149
 11
283.363413776783
 21
428.428803586002
  0
LINE
  8
画層13
  6
CONTINUOUS
 10
297.509936452097
 20
174.576205280328
 11
297.509936452097
 21
446.181727437023
  0
LINE
  8
画層13
  6
CONTINUOUS
 10
304.581705223187
 20
167.505126414823
 11
304.581705223187
 21
451.465258902611
  0
LINE
  8
画層13
  6
CONTINUOUS
 10
318.723096940342
 20
153.360896430773
 11
318.723096940342
 21
463.340084878691
  0
LINE
  8
画層13
  6
CONTINUOUS
 10
325.794942273564
 20
146.287631733397
 11
325.794942273564
 21
469.18868215183
  0
LINE
  8
画層13
  6
CONTINUOUS
 10
425
 20
465.00228415045
 11
319.289620662197
 21
465.00228415045
  0
LINE
  8
画層13
  6
CONTINUOUS
 10
425
 20
465.00228415045
 11
525.575283199574
 21
465.00228415045
  0
LINE
  8
画層13
  6
CONTINUOUS
 10
595.000053168051
 20
332.497269827564
 11
595.000053168051
 21
385.72401566488
  0
LINE
  8
画層13
  6
CONTINUOUS
 10
595.000053168051
 20
332.497269827564
 11
595.000053168051
 21
187.913492460107
  0
LINE
  8
画層13
  6
CONTINUOUS
 10
595.000053168051
 20
347.493648419899
 11
595.000053168051
 21
342.493745736859
  0
LINE
  8
画層13
  6
CONTINUOUS
 10
595.000053168051
 20
347.493648419899
 11
595.000053168051
 21
352.490476783408
  0
LINE
  8
画層13
  6
CONTINUOUS
 10
595.000053168051
 20
242.504939425672
 11
595.000053168051
 21
247.508318556815
  0
LINE
  8
画層13
  6
CONTINUOUS
 10
595.000053168051
 20
242.504939425672
 11
595.000053168051
 21
237.505166099227
  0
LINE
  8
画層13
  6
CONTINUOUS
 10
595.000053168051
 20
237.505166099227
 11
241.012106700021
 21
237.505166099227
  0
LINE
  8
画層13
  6
CONTINUOUS
 10
595.000053168051
 20
247.508318556815
 11
242.139619564194
 21
247.508318556815
  0
LINE
  8
画層13
  6
CONTINUOUS
 10
255.001170427496
 20
257.506580451589
 11
255.001170427496
 21
205.868612882426
  0
LINE
  8
画層13
  6
CONTINUOUS
 10
255.001170427496
 20
257.506580451589
 11
255.001170427496
 21
398.595072617262
  0
LINE
  8
画層13
  6
CONTINUOUS
 10
595.000053168051
 20
342.493745736859
 11
237.434971455597
 21
342.493745736859
  0
LINE
  8
画層13
  6
CONTINUOUS
 10
595.000053168051
 20
352.490476783408
 11
240.399314174054
 21
352.490476783408
  0
LINE
  8
画層13
  6
CONTINUOUS
 10
487.508650283423
 20
143.514155513873
 11
535.626853140678
 21
143.514155513873
  0
LINE
  8
画層13
  6
CONTINUOUS
 10
487.508650283423
 20
143.514155513873
 11
310.00948515041
 21
143.514155513873
  0
LINE
  8
画層13
  6
CONTINUOUS
 10
332.500616481085
 20
197.502710553427
 11
308.505531598406
 21
197.502710553427
  0
LINE
  8
画層13
  6
CONTINUOUS
 10
308.505531598406
 20
197.502710553427
 11
308.505531598406
 21
130.742605229352
  0
LINE
  8
画層13
  6
CONTINUOUS
 10
308.505531598406
 20
197.502710553427
 11
308.505531598406
 21
456.857528220423
  0
LINE
  8
画層13
  6
CONTINUOUS
 10
517.506871614843
 20
197.502710553427
 11
541.503984358515
 21
197.502710553427
  0
LINE
  8
画層13
  6
CONTINUOUS
 10
541.503984358515
 20
197.502710553427
 11
541.503984358515
 21
143.640714077337
  0
LINE
  8
画層13
  6
CONTINUOUS
 10
541.503984358515
 20
197.502710553427
 11
541.503984358515
 21
456.686270675198
  0
LINE
  8
画層13
  6
CONTINUOUS
 10
487.508650283423
 20
446.488751343376
 11
557.357665878578
 21
446.488751343376
  0
LINE
  8
画層13
  6
CONTINUOUS
 10
487.508650283423
 20
446.488751343376
 11
298.723732119529
 21
446.488751343376
  0
LINE
  8
画層13
  6
CONTINUOUS
 10
227.505573936779
 20
212.505790138865
 11
151.021494431231
 21
212.505790138865
  0
LINE
  8
画層10
  6
CONTINUOUS
 10
220.009988538517
 20
315.000290889983
 11
220.009988538517
 21
374.997259992902
  0
LINE
  8
画層13
  6
CONTINUOUS
 10
318.723096940342
 20
407.491917277167
 11
254.72399034391
 21
407.491917277167
  0
LINE
  8
画層13
  6
CONTINUOUS
 10
317.502906825184
 20
377.492573171853
 11
317.502906825184
 21
459.749242541647
  0
LINE
  8
画層13
  6
CONTINUOUS
 10
310
 20
374.997891332028
 11
310
 21
455.954375084676
  0
LINE
  8
画層13
  6
CONTINUOUS
 10
317.502906825184
 20
437.483819474835
 11
280.638517639015
 21
437.483819474835
  0
LINE
  8
画層13
  6
CONTINUOUS
 10
317.502906825184
 20
422.488378088728
 11
273.249954145923
 21
422.488378088728
  0
LINE
  8
画層15
  6
CONTINUOUS
 10
250
 20
365
 11
250
 21
225
  0
LINE
  8
画層15
  6
CONTINUOUS
 10
600
 20
225
 11
600
 21
365
  0
LINE
  8
画層13
  6
CONTINUOUS
 10
571.184650273828
 20
287.500196471095
 11
608.686228160959
 21
287.500196471095
  0
LINE
  8
画層13
  6
CONTINUOUS
 10
569.337564287593
 20
272.504673890789
 11
611.167039603053
 21
272.504673890789
  0
LINE
  8
画層13
  6
CONTINUOUS
 10
293.505474071052
 20
197.502710553427
 11
236.948962137109
 21
197.502710553427
  0
LINE
  8
画層13
  6
CONTINUOUS
 10
268.667719568939
 20
272.504673890789
 11
238.158000938248
 21
272.504673890789
  0
LINE
  8
画層13
  6
CONTINUOUS
 10
276.287761065556
 20
287.500196471095
 11
241.28407766277
 21
287.500196471095
  0
LINE
  8
画層13
  6
CONTINUOUS
 10
278.193086501173
 20
302.495974783109
 11
237.41487777612
 21
302.495974783109
  0
LINE
  8
画層13
  6
CONTINUOUS
 10
274.390762102855
 20
317.500027005632
 11
244.698082334491
 21
317.500027005632
  0
LINE
  8
画層13
  6
CONTINUOUS
 10
533.057438305667
 20
155.126371260876
 11
522.447670299811
 21
144.520031697562
  0
LINE
  8
画層13
  6
CONTINUOUS
 10
511.836435597844
 20
133.912225912087
 11
314.918744217433
 21
133.912225912087
  0
LINE
  8
画層13
  6
CONTINUOUS
 10
552.499178052271
 20
167.498385517034
 11
547.19367924023
 21
172.803965716785
  0
LINE
  8
画層13
  6
CONTINUOUS
 10
547.19367924023
 20
172.803965716785
 11
489.932060282658
 21
115.542346639654
  0
LINE
  8
画層13
  6
CONTINUOUS
 10
600
 20
214.996771034067
 11
594.693482308474
 21
220.303366227125
  0
LINE
  8
画層13
  6
CONTINUOUS
 10
594.693482308474
 20
220.303366227125
 11
547.19367924023
 21
172.803965716785
  0
LINE
  8
画層13
  6
CONTINUOUS
 10
547.19367924023
 20
172.803965716785
 11
541.88758601929
 21
167.497872484766
  0
LINE
  8
画層13
  6
CONTINUOUS
 10
541.88758601929
 20
167.497872484766
 11
531.279551387384
 21
156.889837830711
  0
LINE
  8
画層13
  6
CONTINUOUS
 10
531.279551387384
 20
156.889837830711
 11
520.669766172916
 21
146.28005259409
  0
LINE
  8
画層13
  6
CONTINUOUS
 10
520.669766172916
 20
146.28005259409
 11
510.065149646762
 21
135.675436045795
  0
LINE
  8
画層13
  6
CONTINUOUS
 10
547.19367924023
 20
172.803965716785
 11
552.495965790706
 21
178.10620733071
  0
LINE
  8
画層13
  6
CONTINUOUS
 10
552.495965790706
 20
178.10620733071
 11
563.099553455008
 21
188.70970513026
  0
LINE
  8
画層13
  6
CONTINUOUS
 10
563.099553455008
 20
188.70970513026
 11
573.703939936945
 21
199.314001740674
  0
LINE
  8
画層13
  6
CONTINUOUS
 10
573.703939936945
 20
199.314001740674
 11
584.313834328348
 21
209.923806213876
  0
LINE
  8
画層2
  6
CONTINUOUS
 10
500
 20
370
 11
500
 21
220
  0
LINE
  8
画層2
  6
CONTINUOUS
 10
500
 20
220
 11
350
 21
220
  0
LINE
  8
画層2
  6
CONTINUOUS
 10
350
 20
220
 11
350
 21
370
  0
LINE
  8
画層2
  6
CONTINUOUS
 10
350
 20
370
 11
500
 21
370
  0
LINE
  8
画層2
  6
CONTINUOUS
 10
490
 20
360
 11
490
 21
370
  0
LINE
  8
画層2
  6
CONTINUOUS
 10
360
 20
360
 11
360
 21
370
  0
LINE
  8
画層2
  6
CONTINUOUS
 10
490
 20
230
 11
490
 21
220
  0
LINE
  8
画層2
  6
CONTINUOUS
 10
360
 20
230
 11
360
 21
220
  0
LINE
  8
画層2
  6
CONTINUOUS
 10
490
 20
360
 11
500
 21
360
  0
LINE
  8
画層2
  6
CONTINUOUS
 10
360
 20
360
 11
350
 21
360
  0
LINE
  8
画層2
  6
CONTINUOUS
 10
360
 20
230
 11
350
 21
230
  0
LINE
  8
画層2
  6
CONTINUOUS
 10
490
 20
230
 11
500
 21
230
  0
LINE
  8
画層7
  6
CONTINUOUS
 10
379.956837289073
 20
229.99536015945
 11
470.061243569423
 21
229.99536015945
  0
LINE
  8
画層7
  6
CONTINUOUS
 10
470.061243569423
 20
229.99536015945
 11
470.061243569423
 21
325.855089901563
  0
LINE
  8
画層7
  6
CONTINUOUS
 10
379.956837289073
 20
229.99536015945
 11
379.956837289073
 21
325.855089901563
  0
LINE
  8
画層7
  6
CONTINUOUS
 10
379.956837289073
 20
325.855089901563
 11
470.061243569423
 21
325.855089901563
  0
LINE
  8
画層8
  6
CONTINUOUS
 10
504.00222756657
 20
374.00477119489
 11
495.0049349441
 21
374.00477119489
  0
LINE
  8
画層8
  6
CONTINUOUS
 10
495.0049349441
 20
374.00477119489
 11
495.0049349441
 21
372.20474599194
  0
LINE
  8
画層8
  6
CONTINUOUS
 10
495.0049349441
 20
372.20474599194
 11
496.803075566459
 21
372.20474599194
  0
LINE
  8
画層8
  6
CONTINUOUS
 10
496.803075566459
 20
372.20474599194
 11
496.803075566459
 21
370.809545188685
  0
LINE
  8
画層8
  6
CONTINUOUS
 10
496.803075566459
 20
370.809545188685
 11
495.002462088757
 21
370.809545188685
  0
LINE
  8
画層8
  6
CONTINUOUS
 10
495.002462088757
 20
370.809545188685
 11
484.000013246525
 21
370.809545188685
  0
LINE
  8
画層8
  6
CONTINUOUS
 10
484.000013246525
 20
370.809545188685
 11
484.000013246525
 21
369.009759058493
  0
LINE
  8
画層8
  6
CONTINUOUS
 10
504.00222756657
 20
374.00477119489
 11
504.00222756657
 21
365.008571182192
  0
LINE
  8
画層8
  6
CONTINUOUS
 10
504.00222756657
 20
365.008571182192
 11
502.202844968266
 21
365.008571182192
  0
LINE
  8
画層8
  6
CONTINUOUS
 10
502.202844968266
 20
365.008571182192
 11
502.202844968266
 21
366.807922160105
  0
LINE
  8
画層8
  6
CONTINUOUS
 10
502.202844968266
 20
366.807922160105
 11
500.802357473025
 21
366.807922160105
  0
LINE
  8
画層8
  6
CONTINUOUS
 10
500.802357473025
 20
366.807922160105
 11
500.802357473025
 21
365.006213683378
  0
LINE
  8
画層8
  6
CONTINUOUS
 10
500.802357473025
 20
365.006213683378
 11
500.802357473025
 21
354.009180944271
  0
LINE
  8
画層8
  6
CONTINUOUS
 10
500.802357473025
 20
354.009180944271
 11
498.997543768762
 21
354.009180944271
  0
LINE
  8
画層8
  6
CONTINUOUS
 10
496.803075566459
 20
369.009759058493
 11
498.502521389199
 21
370
  0
LINE
  8
画層8
  6
CONTINUOUS
 10
498.997543768762
 20
366.807922160105
 11
500
 21
368.502521389199
  0
LINE
  8
画層8
  6
CONTINUOUS
 10
498.997543768762
 20
366.807922160105
 11
498.997543768762
 21
354.009180944271
  0
LINE
  8
画層8
  6
CONTINUOUS
 10
496.803075566459
 20
369.009759058493
 11
484.000013246525
 21
369.009759058493
  0
LINE
  8
画層8
  6
CONTINUOUS
 10
346.012840454965
 20
374.005006908532
 11
346.012840454965
 21
365.007714286062
  0
LINE
  8
画層8
  6
CONTINUOUS
 10
346.012840454965
 20
365.007714286062
 11
347.812865657915
 21
365.007714286062
  0
LINE
  8
画層8
  6
CONTINUOUS
 10
347.812865657915
 20
365.007714286062
 11
347.812865657915
 21
366.805854908421
  0
LINE
  8
画層8
  6
CONTINUOUS
 10
347.812865657915
 20
366.805854908421
 11
349.20806646117
 21
366.805854908421
  0
LINE
  8
画層8
  6
CONTINUOUS
 10
349.20806646117
 20
366.805854908421
 11
349.20806646117
 21
365.005241430719
  0
LINE
  8
画層8
  6
CONTINUOUS
 10
349.20806646117
 20
365.005241430719
 11
349.20806646117
 21
354.002792588487
  0
LINE
  8
画層8
  6
CONTINUOUS
 10
349.20806646117
 20
354.002792588487
 11
351.007852591361
 21
354.002792588487
  0
LINE
  8
画層8
  6
CONTINUOUS
 10
346.012840454965
 20
374.005006908532
 11
355.009040467663
 21
374.005006908532
  0
LINE
  8
画層8
  6
CONTINUOUS
 10
355.009040467663
 20
374.005006908532
 11
355.009040467663
 21
372.205624310228
  0
LINE
  8
画層8
  6
CONTINUOUS
 10
355.009040467663
 20
372.205624310228
 11
353.20968948975
 21
372.205624310228
  0
LINE
  8
画層8
  6
CONTINUOUS
 10
353.20968948975
 20
372.205624310228
 11
353.20968948975
 21
370.805136814986
  0
LINE
  8
画層8
  6
CONTINUOUS
 10
353.20968948975
 20
370.805136814986
 11
355.011397966477
 21
370.805136814986
  0
LINE
  8
画層8
  6
CONTINUOUS
 10
355.011397966477
 20
370.805136814986
 11
366.008430705584
 21
370.805136814986
  0
LINE
  8
画層8
  6
CONTINUOUS
 10
366.008430705584
 20
370.805136814986
 11
366.008430705584
 21
369.000323110724
  0
LINE
  8
画層8
  6
CONTINUOUS
 10
351.007852591361
 20
366.805854908421
 11
350.017611649855
 21
368.505300731161
  0
LINE
  8
画層8
  6
CONTINUOUS
 10
353.20968948975
 20
369.000323110724
 11
351.515090260655
 21
370.002779341962
  0
LINE
  8
画層8
  6
CONTINUOUS
 10
353.20968948975
 20
369.000323110724
 11
366.008430705584
 21
369.000323110724
  0
LINE
  8
画層8
  6
CONTINUOUS
 10
351.007852591361
 20
366.805854908421
 11
351.007852591361
 21
354.002792588487
  0
LINE
  8
画層8
  6
CONTINUOUS
 10
504.004610453686
 20
215.990343131144
 11
504.004610453686
 21
224.987635753614
  0
LINE
  8
画層8
  6
CONTINUOUS
 10
504.004610453686
 20
224.987635753614
 11
502.204585250736
 21
224.987635753614
  0
LINE
  8
画層8
  6
CONTINUOUS
 10
502.204585250736
 20
224.987635753614
 11
502.204585250736
 21
223.189495131255
  0
LINE
  8
画層8
  6
CONTINUOUS
 10
502.204585250736
 20
223.189495131255
 11
500.80938444748
 21
223.189495131255
  0
LINE
  8
画層8
  6
CONTINUOUS
 10
500.80938444748
 20
223.189495131255
 11
500.80938444748
 21
224.990108608957
  0
LINE
  8
画層8
  6
CONTINUOUS
 10
500.80938444748
 20
224.990108608957
 11
500.80938444748
 21
235.992557451189
  0
LINE
  8
画層8
  6
CONTINUOUS
 10
500.80938444748
 20
235.992557451189
 11
499.009598317289
 21
235.992557451189
  0
LINE
  8
画層8
  6
CONTINUOUS
 10
504.004610453686
 20
215.990343131144
 11
495.008410440988
 21
215.990343131144
  0
LINE
  8
画層8
  6
CONTINUOUS
 10
495.008410440988
 20
215.990343131144
 11
495.008410440988
 21
217.789725729448
  0
LINE
  8
画層8
  6
CONTINUOUS
 10
495.008410440988
 20
217.789725729448
 11
496.807761418901
 21
217.789725729448
  0
LINE
  8
画層8
  6
CONTINUOUS
 10
496.807761418901
 20
217.789725729448
 11
496.807761418901
 21
219.19021322469
  0
LINE
  8
画層8
  6
CONTINUOUS
 10
496.807761418901
 20
219.19021322469
 11
495.006052942174
 21
219.19021322469
  0
LINE
  8
画層8
  6
CONTINUOUS
 10
495.006052942174
 20
219.19021322469
 11
484.009020203067
 21
219.19021322469
  0
LINE
  8
画層8
  6
CONTINUOUS
 10
484.009020203067
 20
219.19021322469
 11
484.009020203067
 21
220.995026928952
  0
LINE
  8
画層8
  6
CONTINUOUS
 10
499.009598317289
 20
223.189495131255
 11
499.999839258796
 21
221.490049308515
  0
LINE
  8
画層8
  6
CONTINUOUS
 10
496.807761418901
 20
220.995026928952
 11
498.502360647995
 21
219.992570697714
  0
LINE
  8
画層8
  6
CONTINUOUS
 10
496.807761418901
 20
220.995026928952
 11
484.009020203067
 21
220.995026928952
  0
LINE
  8
画層8
  6
CONTINUOUS
 10
499.009598317289
 20
223.189495131255
 11
499.009598317289
 21
235.992557451189
  0
LINE
  8
画層8
  6
CONTINUOUS
 10
346.006127811095
 20
215.989306348866
 11
355.003420433565
 21
215.989306348866
  0
LINE
  8
画層8
  6
CONTINUOUS
 10
355.003420433565
 20
215.989306348866
 11
355.003420433565
 21
217.789331551816
  0
LINE
  8
画層8
  6
CONTINUOUS
 10
355.003420433565
 20
217.789331551816
 11
353.205279811206
 21
217.789331551816
  0
LINE
  8
画層8
  6
CONTINUOUS
 10
353.205279811206
 20
217.789331551816
 11
353.205279811206
 21
219.184532355071
  0
LINE
  8
画層8
  6
CONTINUOUS
 10
353.205279811206
 20
219.184532355071
 11
355.005893288908
 21
219.184532355071
  0
LINE
  8
画層8
  6
CONTINUOUS
 10
355.005893288908
 20
219.184532355071
 11
366.00834213114
 21
219.184532355071
  0
LINE
  8
画層8
  6
CONTINUOUS
 10
366.00834213114
 20
219.184532355071
 11
366.00834213114
 21
220.984318485262
  0
LINE
  8
画層8
  6
CONTINUOUS
 10
346.006127811095
 20
215.989306348866
 11
346.006127811095
 21
224.985506361564
  0
LINE
  8
画層8
  6
CONTINUOUS
 10
346.006127811095
 20
224.985506361564
 11
347.805510409399
 21
224.985506361564
  0
LINE
  8
画層8
  6
CONTINUOUS
 10
347.805510409399
 20
224.985506361564
 11
347.805510409399
 21
223.186155383651
  0
LINE
  8
画層8
  6
CONTINUOUS
 10
347.805510409399
 20
223.186155383651
 11
349.20599790464
 21
223.186155383651
  0
LINE
  8
画層8
  6
CONTINUOUS
 10
349.20599790464
 20
223.186155383651
 11
349.20599790464
 21
224.987863860378
  0
LINE
  8
画層8
  6
CONTINUOUS
 10
349.20599790464
 20
224.987863860378
 11
349.20599790464
 21
235.984896599485
  0
LINE
  8
画層8
  6
CONTINUOUS
 10
349.20599790464
 20
235.984896599485
 11
351.010811608903
 21
235.984896599485
  0
LINE
  8
画層8
  6
CONTINUOUS
 10
353.205279811206
 20
220.984318485262
 11
351.505833988466
 21
219.994077543756
  0
LINE
  8
画層8
  6
CONTINUOUS
 10
351.010811608903
 20
223.186155383651
 11
350.008355377665
 21
221.491556154557
  0
LINE
  8
画層8
  6
CONTINUOUS
 10
351.010811608903
 20
223.186155383651
 11
351.010811608903
 21
235.984896599485
  0
LINE
  8
画層8
  6
CONTINUOUS
 10
353.205279811206
 20
220.984318485262
 11
366.00834213114
 21
220.984318485262
  0
LINE
  8
画層7
  6
CONTINUOUS
 10
379.956837289073
 20
311.855748079155
 11
361.958925220648
 21
311.855748079155
  0
LINE
  8
画層7
  6
CONTINUOUS
 10
361.958925220648
 20
311.855748079155
 11
361.958925220648
 21
268.853742660334
  0
LINE
  8
画層7
  6
CONTINUOUS
 10
379.956837289073
 20
268.853742660334
 11
361.958925220648
 21
268.853742660334
  0
LINE
  8
画層13
  6
CONTINUOUS
 10
350
 20
340
 11
405.000260283222
 21
340
  0
LINE
  8
画層13
  6
CONTINUOUS
 10
445.002762080683
 20
340
 11
500
 21
340
  0
LINE
  8
画層13
  6
CONTINUOUS
 10
350
 20
250
 11
404.999923538269
 21
250
  0
LINE
  8
画層13
  6
CONTINUOUS
 10
444.99995263995
 20
250
 11
500
 21
250
  0
LINE
  8
画層13
  6
CONTINUOUS
 10
377.499961769134
 20
225
 11
472.499976319975
 21
225
  0
CIRCLE
  8
画層5
  6
CONTINUOUS
 10
350
 20
340
 40
1.50114585100812
  0
CIRCLE
  8
画層5
  6
CONTINUOUS
 10
405.000260283222
 20
340
 40
1.50114585100812
  0
CIRCLE
  8
画層5
  6
CONTINUOUS
 10
350
 20
250
 40
1.50114585100812
  0
CIRCLE
  8
画層5
  6
CONTINUOUS
 10
404.999923538269
 20
250
 40
1.50114585100812
  0
CIRCLE
  8
画層5
  6
CONTINUOUS
 10
444.99995263995
 20
250
 40
1.50114585100812
  0
CIRCLE
  8
画層5
  6
CONTINUOUS
 10
500
 20
250
 40
1.50114585100812
  0
CIRCLE
  8
画層5
  6
CONTINUOUS
 10
500
 20
340
 40
1.50114585100812
  0
CIRCLE
  8
画層5
  6
CONTINUOUS
 10
445.002762080683
 20
340
 40
1.50114585100812
  0
CIRCLE
  8
画層5
  6
CONTINUOUS
 10
350
 20
370
 40
1.50114585100812
  0
CIRCLE
  8
画層5
  6
CONTINUOUS
 10
500
 20
370
 40
1.50114585100812
  0
CIRCLE
  8
画層5
  6
CONTINUOUS
 10
500
 20
220
 40
1.50114585100812
  0
CIRCLE
  8
画層5
  6
CONTINUOUS
 10
350
 20
220
 40
1.50114585100812
  0
CIRCLE
  8
画層5
  6
CONTINUOUS
 10
377.499961769134
 20
225
 40
1.50114585100812
  0
CIRCLE
  8
画層5
  6
CONTINUOUS
 10
472.499976319975
 20
225
 40
1.50114585100812
  0
CIRCLE
  8
画層5
  6
CONTINUOUS
 10
517.506871614843
 20
362.496602370964
 40
1.50114585100812
  0
CIRCLE
  8
画層5
  6
CONTINUOUS
 10
547.504301347393
 20
362.496602370964
 40
1.50114585100812
  0
CIRCLE
  8
画層5
  6
CONTINUOUS
 10
562.50538405726
 20
362.496602370964
 40
1.50114585100812
  0
CIRCLE
  8
画層5
  6
CONTINUOUS
 10
592.499809579889
 20
362.496602370964
 40
1.50114585100812
  0
CIRCLE
  8
画層5
  6
CONTINUOUS
 10
517.506871614843
 20
347.493648419899
 40
1.50114585100812
  0
CIRCLE
  8
画層5
  6
CONTINUOUS
 10
547.504301347393
 20
347.493648419899
 40
1.50114585100812
  0
CIRCLE
  8
画層5
  6
CONTINUOUS
 10
562.50538405726
 20
347.493648419899
 40
1.50114585100812
  0
CIRCLE
  8
画層5
  6
CONTINUOUS
 10
592.499809579889
 20
347.493648419899
 40
1.50114585100812
  0
CIRCLE
  8
画層5
  6
CONTINUOUS
 10
547.504301347393
 20
332.497269827564
 40
1.50114585100812
  0
CIRCLE
  8
画層5
  6
CONTINUOUS
 10
592.499809579889
 20
332.497269827564
 40
1.50114585100812
  0
CIRCLE
  8
画層5
  6
CONTINUOUS
 10
592.499809579889
 20
317.500027005632
 40
1.50114585100812
  0
CIRCLE
  8
画層5
  6
CONTINUOUS
 10
547.504301347393
 20
317.500027005632
 40
1.50114585100812
  0
CIRCLE
  8
画層5
  6
CONTINUOUS
 10
592.499809579889
 20
302.495974783109
 40
1.50114585100812
  0
CIRCLE
  8
画層5
  6
CONTINUOUS
 10
562.50538405726
 20
302.495974783109
 40
1.50114585100812
  0
CIRCLE
  8
画層5
  6
CONTINUOUS
 10
547.504301347393
 20
302.495974783109
 40
1.50114585100812
  0
CIRCLE
  8
画層5
  6
CONTINUOUS
 10
592.499809579889
 20
287.500196471095
 40
1.50114585100812
  0
CIRCLE
  8
画層5
  6
CONTINUOUS
 10
562.50538405726
 20
287.500196471095
 40
1.50114585100812
  0
CIRCLE
  8
画層5
  6
CONTINUOUS
 10
547.504301347393
 20
287.500196471095
 40
1.50114585100812
  0
CIRCLE
  8
画層5
  6
CONTINUOUS
 10
592.499809579889
 20
272.504673890789
 40
1.50114585100812
  0
CIRCLE
  8
画層5
  6
CONTINUOUS
 10
547.504301347393
 20
272.504673890789
 40
1.50114585100812
  0
CIRCLE
  8
画層5
  6
CONTINUOUS
 10
592.499809579889
 20
257.506580451589
 40
1.50114585100812
  0
CIRCLE
  8
画層5
  6
CONTINUOUS
 10
547.504301347393
 20
257.506580451589
 40
1.50114585100812
  0
CIRCLE
  8
画層5
  6
CONTINUOUS
 10
592.499809579889
 20
242.504939425672
 40
1.50114585100812
  0
CIRCLE
  8
画層5
  6
CONTINUOUS
 10
562.50538405726
 20
242.504939425672
 40
1.50114585100812
  0
CIRCLE
  8
画層5
  6
CONTINUOUS
 10
547.504301347393
 20
242.504939425672
 40
1.50114585100812
  0
CIRCLE
  8
画層5
  6
CONTINUOUS
 10
517.506871614843
 20
242.504939425672
 40
1.50114585100812
  0
CIRCLE
  8
画層5
  6
CONTINUOUS
 10
592.499809579889
 20
227.502161824606
 40
1.50114585100812
  0
CIRCLE
  8
画層5
  6
CONTINUOUS
 10
562.50538405726
 20
227.502161824606
 40
1.50114585100812
  0
CIRCLE
  8
画層5
  6
CONTINUOUS
 10
547.504301347393
 20
227.502161824606
 40
1.50114585100812
  0
CIRCLE
  8
画層5
  6
CONTINUOUS
 10
517.506871614843
 20
227.502161824606
 40
1.50114585100812
  0
CIRCLE
  8
画層5
  6
CONTINUOUS
 10
573.703939936945
 20
199.314001740674
 40
1.50114585100812
  0
CIRCLE
  8
画層5
  6
CONTINUOUS
 10
563.099553455008
 20
188.70970513026
 40
1.50114585100812
  0
CIRCLE
  8
画層5
  6
CONTINUOUS
 10
531.279551387384
 20
156.889837830711
 40
1.50114585100812
  0
CIRCLE
  8
画層5
  6
CONTINUOUS
 10
520.669766172916
 20
146.28005259409
 40
1.50114585100812
  0
CIRCLE
  8
画層5
  6
CONTINUOUS
 10
257.499791051015
 20
227.502161824606
 40
1.50114585100812
  0
CIRCLE
  8
画層5
  6
CONTINUOUS
 10
287.498043669659
 20
227.502161824606
 40
1.50114585100812
  0
CIRCLE
  8
画層5
  6
CONTINUOUS
 10
302.50237801207
 20
227.502161824606
 40
1.50114585100812
  0
CIRCLE
  8
画層5
  6
CONTINUOUS
 10
332.500616481085
 20
227.502161824606
 40
1.50114585100812
  0
CIRCLE
  8
画層5
  6
CONTINUOUS
 10
257.499791051015
 20
242.504939425672
 40
1.50114585100812
  0
CIRCLE
  8
画層5
  6
CONTINUOUS
 10
287.498043669659
 20
242.504939425672
 40
1.50114585100812
  0
CIRCLE
  8
画層5
  6
CONTINUOUS
 10
302.50237801207
 20
242.504939425672
 40
1.50114585100812
  0
CIRCLE
  8
画層5
  6
CONTINUOUS
 10
332.500616481085
 20
242.504939425672
 40
1.50114585100812
  0
CIRCLE
  8
画層5
  6
CONTINUOUS
 10
257.499791051015
 20
257.506580451589
 40
1.50114585100812
  0
CIRCLE
  8
画層5
  6
CONTINUOUS
 10
302.50237801207
 20
257.506580451589
 40
1.50114585100812
  0
CIRCLE
  8
画層5
  6
CONTINUOUS
 10
257.499791051015
 20
272.504673890789
 40
1.50114585100812
  0
CIRCLE
  8
画層5
  6
CONTINUOUS
 10
302.50237801207
 20
272.504673890789
 40
1.50114585100812
  0
CIRCLE
  8
画層5
  6
CONTINUOUS
 10
257.499791051015
 20
287.500196471095
 40
1.50114585100812
  0
CIRCLE
  8
画層5
  6
CONTINUOUS
 10
287.498043669659
 20
287.500196471095
 40
1.50114585100812
  0
CIRCLE
  8
画層5
  6
CONTINUOUS
 10
302.50237801207
 20
287.500196471095
 40
1.50114585100812
  0
CIRCLE
  8
画層5
  6
CONTINUOUS
 10
257.499791051015
 20
302.495974783109
 40
1.50114585100812
  0
CIRCLE
  8
画層5
  6
CONTINUOUS
 10
287.503511540463
 20
302.495974783109
 40
1.50114585100812
  0
CIRCLE
  8
画層5
  6
CONTINUOUS
 10
302.50237801207
 20
302.495974783109
 40
1.50114585100812
  0
CIRCLE
  8
画層5
  6
CONTINUOUS
 10
257.499791051015
 20
317.500027005632
 40
1.50114585100812
  0
CIRCLE
  8
画層5
  6
CONTINUOUS
 10
302.50237801207
 20
317.500027005632
 40
1.50114585100812
  0
CIRCLE
  8
画層5
  6
CONTINUOUS
 10
257.499791051015
 20
332.497269827564
 40
1.50114585100812
  0
CIRCLE
  8
画層5
  6
CONTINUOUS
 10
302.50237801207
 20
332.497269827564
 40
1.50114585100812
  0
CIRCLE
  8
画層5
  6
CONTINUOUS
 10
257.499791051015
 20
347.493648419899
 40
1.50114585100812
  0
CIRCLE
  8
画層5
  6
CONTINUOUS
 10
287.503511540463
 20
347.493648419899
 40
1.50114585100812
  0
CIRCLE
  8
画層5
  6
CONTINUOUS
 10
302.50237801207
 20
347.493648419899
 40
1.50114585100812
  0
CIRCLE
  8
画層5
  6
CONTINUOUS
 10
332.500616481085
 20
347.493648419899
 40
1.50114585100812
  0
CIRCLE
  8
画層5
  6
CONTINUOUS
 10
257.499791051015
 20
362.496602370964
 40
1.50114585100812
  0
CIRCLE
  8
画層5
  6
CONTINUOUS
 10
287.503511540463
 20
362.496602370964
 40
1.50114585100812
  0
CIRCLE
  8
画層5
  6
CONTINUOUS
 10
302.50237801207
 20
362.496602370964
 40
1.50114585100812
  0
CIRCLE
  8
画層5
  6
CONTINUOUS
 10
332.500616481085
 20
362.496602370964
 40
1.50114585100812
  0
LINE
  8
画層14
  6
CONTINUOUS
 10
425
 20
120
 11
417.499779734828
 21
120
  0
LINE
  8
画層14
  6
CONTINUOUS
 10
417.499779734828
 20
120
 11
417.499779734828
 21
486.016682993222
  0
LINE
  8
画層14
  6
CONTINUOUS
 10
425
 20
120
 11
432.50223290383
 21
120
  0
LINE
  8
画層14
  6
CONTINUOUS
 10
432.50223290383
 20
120
 11
432.50223290383
 21
486.88116725696
  0
LINE
  8
画層14
  6
CONTINUOUS
 10
417.499779734828
 20
120
 11
402.4951479178
 21
120
  0
LINE
  8
画層14
  6
CONTINUOUS
 10
432.50223290383
 20
120
 11
447.501282723072
 21
120
  0
LINE
  8
画層14
  6
CONTINUOUS
 10
402.4951479178
 20
120
 11
402.4951479178
 21
489.4646520419
  0
LINE
  8
画層14
  6
CONTINUOUS
 10
447.501282723072
 20
120
 11
447.501282723072
 21
485.860989406403
  0
LINE
  8
画層14
  6
CONTINUOUS
 10
402.4951479178
 20
120
 11
387.498948478035
 21
120
  0
LINE
  8
画層14
  6
CONTINUOUS
 10
387.498948478035
 20
120
 11
372.501034135377
 21
120
  0
LINE
  8
画層14
  6
CONTINUOUS
 10
372.501034135377
 20
120
 11
357.504510110543
 21
120
  0
LINE
  8
画層14
  6
CONTINUOUS
 10
447.501282723072
 20
120
 11
462.501153208997
 21
120
  0
LINE
  8
画層14
  6
CONTINUOUS
 10
462.501153208997
 20
120
 11
477.499206640811
 21
120
  0
LINE
  8
画層14
  6
CONTINUOUS
 10
477.499206640811
 20
120
 11
492.501238775324
 21
120
  0
LINE
  8
画層14
  6
CONTINUOUS
 10
492.501238775324
 20
120
 11
492.501238775324
 21
484.531874801619
  0
LINE
  8
画層14
  6
CONTINUOUS
 10
477.499206640811
 20
120
 11
477.499206640811
 21
484.931806829729
  0
LINE
  8
画層14
  6
CONTINUOUS
 10
462.501153208997
 20
120
 11
462.501153208997
 21
483.232323038241
  0
LINE
  8
画層14
  6
CONTINUOUS
 10
387.498948478035
 20
120
 11
387.498948478035
 21
485.007205473046
  0
LINE
  8
画層14
  6
CONTINUOUS
 10
372.501034135377
 20
120
 11
372.501034135377
 21
481.8965379906
  0
LINE
  8
画層14
  6
CONTINUOUS
 10
357.504510110543
 20
120
 11
357.504510110543
 21
481.805528900166
  0
LINE
  8
画層14
  6
CONTINUOUS
 10
425
 20
120
 11
425
 21
127.498457879236
  0
LINE
  8
画層14
  6
CONTINUOUS
 10
425
 20
127.498457879236
 11
310.013835417914
 21
127.498457879236
  0
LINE
  8
画層14
  6
CONTINUOUS
 10
425
 20
127.498457879236
 11
540.675960132998
 21
127.498457879236
  0
LINE
  8
画層14
  6
CONTINUOUS
 10
425
 20
127.498457879236
 11
425
 21
157.498184265082
  0
LINE
  8
画層14
  6
CONTINUOUS
 10
425
 20
142.498321072159
 11
295.168938426047
 21
142.498321072159
  0
LINE
  8
画層14
  6
CONTINUOUS
 10
425
 20
142.498321072159
 11
559.694255167891
 21
142.498321072159
  0
LINE
  8
画層14
  6
CONTINUOUS
 10
425
 20
157.498184265082
 11
280.611038075553
 21
157.498184265082
  0
LINE
  8
画層14
  6
CONTINUOUS
 10
425
 20
157.498184265082
 11
570.475098128948
 21
157.498184265082
  0
LINE
  8
画層14
  6
CONTINUOUS
 10
425
 20
157.498184265082
 11
425
 21
187.502646032958
  0
LINE
  8
画層14
  6
CONTINUOUS
 10
425
 20
187.502646032958
 11
602.482036399842
 21
187.502646032957
  0
LINE
  8
画層14
  6
CONTINUOUS
 10
425
 20
187.502646032958
 11
245.864400343682
 21
187.502646032958
  0
LINE
  8
画層14
  6
CONTINUOUS
 10
425
 20
172.50041514902
 11
587.567796321393
 21
172.50041514902
  0
LINE
  8
画層14
  6
CONTINUOUS
 10
425
 20
172.50041514902
 11
264.075360981708
 21
172.50041514902
  0
LINE
  8
画層14
  6
CONTINUOUS
 10
492.501238775324
 20
120
 11
507.496281728967
 21
120
  0
LINE
  8
画層14
  6
CONTINUOUS
 10
507.496281728967
 20
120
 11
507.496281728967
 21
483.792873992552
  0
LINE
  8
画層14
  6
CONTINUOUS
 10
357.504510110543
 20
120
 11
342.507468137968
 21
120
  0
LINE
  8
画層14
  6
CONTINUOUS
 10
342.507468137968
 20
120
 11
342.507468137968
 21
485.778946770713
  0
LINE
  8
画層14
  6
CONTINUOUS
 10
425
 20
187.502646032958
 11
425
 21
217.499085947347
  0
LINE
  8
画層14
  6
CONTINUOUS
 10
425
 20
217.499085947347
 11
231.6715591356
 21
217.499085947347
  0
LINE
  8
画層14
  6
CONTINUOUS
 10
425
 20
217.499085947347
 11
622.345583167746
 21
217.499085947347
  0
LINE
  8
画層14
  6
CONTINUOUS
 10
425
 20
202.500865990152
 11
231.150795166353
 21
202.500865990152
  0
LINE
  8
画層14
  6
CONTINUOUS
 10
425
 20
202.500865990152
 11
622.33964225212
 21
202.500865990152
  0
CIRCLE
  8
画層5
  6
CONTINUOUS
 10
417.499779734828
 20
127.498457879236
 40
1.50114585100812
  0
CIRCLE
  8
画層5
  6
CONTINUOUS
 10
402.4951479178
 20
127.498457879236
 40
1.50114585100812
  0
CIRCLE
  8
画層5
  6
CONTINUOUS
 10
387.498948478035
 20
127.498457879236
 40
1.50114585100812
  0
CIRCLE
  8
画層5
  6
CONTINUOUS
 10
372.501034135377
 20
127.498457879236
 40
1.50114585100812
  0
CIRCLE
  8
画層5
  6
CONTINUOUS
 10
357.504510110543
 20
127.498457879236
 40
1.50114585100812
  0
CIRCLE
  8
画層5
  6
CONTINUOUS
 10
417.499779734828
 20
157.498184265082
 40
1.50114585100812
  0
CIRCLE
  8
画層5
  6
CONTINUOUS
 10
417.499779734828
 20
172.50041514902
 40
1.50114585100812
  0
CIRCLE
  8
画層5
  6
CONTINUOUS
 10
402.4951479178
 20
172.50041514902
 40
1.50114585100812
  0
CIRCLE
  8
画層5
  6
CONTINUOUS
 10
387.498948478035
 20
172.50041514902
 40
1.50114585100812
  0
CIRCLE
  8
画層5
  6
CONTINUOUS
 10
372.501034135377
 20
172.50041514902
 40
1.50114585100812
  0
CIRCLE
  8
画層5
  6
CONTINUOUS
 10
372.501034135377
 20
157.498184265082
 40
1.50114585100812
  0
CIRCLE
  8
画層5
  6
CONTINUOUS
 10
357.504510110543
 20
157.498184265082
 40
1.50114585100812
  0
CIRCLE
  8
画層5
  6
CONTINUOUS
 10
357.504510110543
 20
172.50041514902
 40
1.50114585100812
  0
CIRCLE
  8
画層5
  6
CONTINUOUS
 10
357.504510110543
 20
202.500865990152
 40
1.50114585100812
  0
CIRCLE
  8
画層5
  6
CONTINUOUS
 10
372.501034135377
 20
202.500865990152
 40
1.50114585100812
  0
LINE
  8
画層14
  6
CONTINUOUS
 10
507.496281728967
 20
120
 11
537.499432398208
 21
120
  0
LINE
  8
画層14
  6
CONTINUOUS
 10
522.497857063587
 20
120
 11
522.497857063587
 21
484.491631756526
  0
LINE
  8
画層14
  6
CONTINUOUS
 10
537.499432398208
 20
120
 11
537.499432398208
 21
485.627400396582
  0
LINE
  8
画層14
  6
CONTINUOUS
 10
537.499432398208
 20
120
 11
567.495430989928
 21
120
  0
LINE
  8
画層14
  6
CONTINUOUS
 10
567.495430989928
 20
120
 11
567.495430989928
 21
483.769495425175
  0
LINE
  8
画層14
  6
CONTINUOUS
 10
552.497431694068
 20
120
 11
552.497431694068
 21
484.36462495283
  0
LINE
  8
画層14
  6
CONTINUOUS
 10
567.495430989928
 20
120
 11
597.494346054057
 21
120
  0
LINE
  8
画層14
  6
CONTINUOUS
 10
597.494346054057
 20
120
 11
597.494346054057
 21
482.249453405755
  0
LINE
  8
画層14
  6
CONTINUOUS
 10
582.494888521992
 20
120
 11
582.494888521992
 21
482.032415826045
  0
CIRCLE
  8
画層5
  6
CONTINUOUS
 10
432.50223290383
 20
127.498457879236
 40
1.50114585100812
  0
CIRCLE
  8
画層5
  6
CONTINUOUS
 10
432.50223290383
 20
157.498184265082
 40
1.50114585100812
  0
CIRCLE
  8
画層5
  6
CONTINUOUS
 10
432.50223290383
 20
172.50041514902
 40
1.50114585100812
  0
CIRCLE
  8
画層5
  6
CONTINUOUS
 10
447.501282723072
 20
172.50041514902
 40
1.50114585100812
  0
CIRCLE
  8
画層5
  6
CONTINUOUS
 10
447.501282723072
 20
127.498457879236
 40
1.50114585100812
  0
CIRCLE
  8
画層5
  6
CONTINUOUS
 10
462.501153208997
 20
127.498457879236
 40
1.50114585100812
  0
CIRCLE
  8
画層5
  6
CONTINUOUS
 10
462.501153208997
 20
172.50041514902
 40
1.50114585100812
  0
CIRCLE
  8
画層5
  6
CONTINUOUS
 10
477.499206640811
 20
172.50041514902
 40
1.50114585100812
  0
CIRCLE
  8
画層5
  6
CONTINUOUS
 10
477.499206640811
 20
157.498184265082
 40
1.50114585100812
  0
CIRCLE
  8
画層5
  6
CONTINUOUS
 10
477.499206640811
 20
127.498457879236
 40
1.50114585100812
  0
CIRCLE
  8
画層5
  6
CONTINUOUS
 10
492.501238775324
 20
127.498457879236
 40
1.50114585100812
  0
CIRCLE
  8
画層5
  6
CONTINUOUS
 10
492.501238775324
 20
157.498184265082
 40
1.50114585100812
  0
CIRCLE
  8
画層5
  6
CONTINUOUS
 10
492.501238775324
 20
172.50041514902
 40
1.50114585100812
  0
CIRCLE
  8
画層5
  6
CONTINUOUS
 10
492.501238775324
 20
202.500865990152
 40
1.50114585100812
  0
CIRCLE
  8
画層5
  6
CONTINUOUS
 10
477.499206640811
 20
202.500865990152
 40
1.50114585100812
  0
LINE
  8
画層13
  6
CONTINUOUS
 10
345.002885458578
 20
120
 11
350.306743397922
 21
125.303841723181
  0
LINE
  8
画層13
  6
CONTINUOUS
 10
250
 20
214.998807336096
 11
255.301412367711
 21
220.300295450049
  0
LINE
  8
画層13
  6
CONTINUOUS
 10
255.301412367711
 20
220.300295450049
 11
350.306743397922
 21
125.303841723181
  0
LINE
  8
画層13
  6
CONTINUOUS
 10
531.279551387384
 20
156.889837830711
 11
283.129674018391
 21
156.889837830711
  0
LINE
  8
画層13
  6
CONTINUOUS
 10
552.495965790706
 20
178.10620733071
 11
276.817458629059
 21
178.10620733071
  0
LINE
  8
画層13
  6
CONTINUOUS
 10
573.703939936945
 20
199.314001740674
 11
248.396276481722
 21
199.314001740674
  0
CIRCLE
  8
画層5
  6
CONTINUOUS
 10
329.320992477989
 20
146.287631733397
 40
1.50114585100812
  0
CIRCLE
  8
画層5
  6
CONTINUOUS
 10
318.723096940342
 20
156.884537003104
 40
1.50114585100812
  0
CIRCLE
  8
画層5
  6
CONTINUOUS
 10
276.289667220771
 20
199.314001740674
 40
1.50114585100812
  0
CIRCLE
  8
画層5
  6
CONTINUOUS
 10
286.88753325648
 20
188.717125970149
 40
1.50114585100812
  0
LINE
  8
画層14
  6
CONTINUOUS
 10
425
 20
470
 11
425
 21
462.496209866806
  0
LINE
  8
画層14
  6
CONTINUOUS
 10
425
 20
462.496209866806
 11
532.022226482452
 21
462.496209866806
  0
LINE
  8
画層14
  6
CONTINUOUS
 10
425
 20
462.496209866806
 11
315.895508535609
 21
462.496209866806
  0
LINE
  8
画層14
  6
CONTINUOUS
 10
425
 20
462.496209866806
 11
425
 21
432.492678504554
  0
LINE
  8
画層14
  6
CONTINUOUS
 10
425
 20
432.492678504554
 11
564.377133503036
 21
432.492678504554
  0
LINE
  8
画層14
  6
CONTINUOUS
 10
425
 20
432.492678504554
 11
283.830287807526
 21
432.492678504554
  0
LINE
  8
画層14
  6
CONTINUOUS
 10
425
 20
447.49444418568
 11
549.557555829017
 21
447.49444418568
  0
LINE
  8
画層14
  6
CONTINUOUS
 10
425
 20
447.49444418568
 11
302.65000144779
 21
447.49444418568
  0
LINE
  8
画層14
  6
CONTINUOUS
 10
425
 20
432.492678504554
 11
425
 21
402.49105880654
  0
LINE
  8
画層14
  6
CONTINUOUS
 10
425
 20
402.49105880654
 11
594.379858847146
 21
402.49105880654
  0
LINE
  8
画層14
  6
CONTINUOUS
 10
425
 20
402.49105880654
 11
254.375370155178
 21
402.49105880654
  0
LINE
  8
画層14
  6
CONTINUOUS
 10
425
 20
417.491868655547
 11
579.380735309812
 21
417.491868655547
  0
LINE
  8
画層14
  6
CONTINUOUS
 10
425
 20
417.491868655547
 11
268.655338418106
 21
417.491868655547
  0
CIRCLE
  8
画層5
  6
CONTINUOUS
 10
432.50223290383
 20
462.496209866806
 40
1.50114585100812
  0
CIRCLE
  8
画層5
  6
CONTINUOUS
 10
447.501282723072
 20
462.496209866806
 40
1.50114585100812
  0
CIRCLE
  8
画層5
  6
CONTINUOUS
 10
462.501153208997
 20
462.496209866806
 40
1.50114585100812
  0
CIRCLE
  8
画層5
  6
CONTINUOUS
 10
477.499206640811
 20
462.496209866806
 40
1.50114585100812
  0
CIRCLE
  8
画層5
  6
CONTINUOUS
 10
492.501238775324
 20
462.496209866806
 40
1.50114585100812
  0
CIRCLE
  8
画層5
  6
CONTINUOUS
 10
432.50223290383
 20
432.492678504554
 40
1.50114585100812
  0
CIRCLE
  8
画層5
  6
CONTINUOUS
 10
477.499206640811
 20
432.492678504554
 40
1.50114585100812
  0
CIRCLE
  8
画層5
  6
CONTINUOUS
 10
492.501238775324
 20
432.492678504554
 40
1.50114585100812
  0
CIRCLE
  8
画層5
  6
CONTINUOUS
 10
432.50223290383
 20
417.491868655547
 40
1.50114585100812
  0
CIRCLE
  8
画層5
  6
CONTINUOUS
 10
447.501282723072
 20
417.491868655547
 40
1.50114585100812
  0
CIRCLE
  8
画層5
  6
CONTINUOUS
 10
462.501153208997
 20
417.491868655547
 40
1.50114585100812
  0
CIRCLE
  8
画層5
  6
CONTINUOUS
 10
477.499206640811
 20
417.491868655547
 40
1.50114585100812
  0
CIRCLE
  8
画層5
  6
CONTINUOUS
 10
492.501238775324
 20
417.491868655547
 40
1.50114585100812
  0
CIRCLE
  8
画層5
  6
CONTINUOUS
 10
417.499779734828
 20
462.496209866806
 40
1.50114585100812
  0
CIRCLE
  8
画層5
  6
CONTINUOUS
 10
402.4951479178
 20
462.496209866806
 40
1.50114585100812
  0
CIRCLE
  8
画層5
  6
CONTINUOUS
 10
387.498948478035
 20
462.496209866806
 40
1.50114585100812
  0
CIRCLE
  8
画層5
  6
CONTINUOUS
 10
372.501034135377
 20
462.496209866806
 40
1.50114585100812
  0
CIRCLE
  8
画層5
  6
CONTINUOUS
 10
357.504510110543
 20
462.496209866806
 40
1.50114585100812
  0
CIRCLE
  8
画層5
  6
CONTINUOUS
 10
417.499779734828
 20
432.492678504554
 40
1.50114585100812
  0
CIRCLE
  8
画層5
  6
CONTINUOUS
 10
372.501034135377
 20
432.492678504554
 40
1.50114585100812
  0
CIRCLE
  8
画層5
  6
CONTINUOUS
 10
357.504510110543
 20
432.492678504554
 40
1.50114585100812
  0
CIRCLE
  8
画層5
  6
CONTINUOUS
 10
357.504510110543
 20
417.491868655547
 40
1.50114585100812
  0
CIRCLE
  8
画層5
  6
CONTINUOUS
 10
372.501034135377
 20
417.491868655547
 40
1.50114585100812
  0
CIRCLE
  8
画層5
  6
CONTINUOUS
 10
387.498948478035
 20
417.491868655547
 40
1.50114585100812
  0
CIRCLE
  8
画層5
  6
CONTINUOUS
 10
402.4951479178
 20
417.491868655547
 40
1.50114585100812
  0
CIRCLE
  8
画層5
  6
CONTINUOUS
 10
417.499779734828
 20
417.491868655547
 40
1.50114585100812
  0
LINE
  8
画層14
  6
CONTINUOUS
 10
425
 20
402.49105880654
 11
425
 21
372.492397475013
  0
LINE
  8
画層14
  6
CONTINUOUS
 10
425
 20
372.492397475013
 11
621.744500853264
 21
372.492397475013
  0
LINE
  8
画層14
  6
CONTINUOUS
 10
425
 20
372.492397475013
 11
232.951229396004
 21
372.492397475013
  0
LINE
  8
画層14
  6
CONTINUOUS
 10
425
 20
387.491728140777
 11
620.205558226957
 21
387.491728140777
  0
LINE
  8
画層14
  6
CONTINUOUS
 10
425
 20
387.491728140777
 11
234.274241003598
 21
387.491728140777
  0
CIRCLE
  8
画層5
  6
CONTINUOUS
 10
477.499206640811
 20
387.491728140777
 40
1.50114585100812
  0
CIRCLE
  8
画層5
  6
CONTINUOUS
 10
492.501238775324
 20
387.491728140777
 40
1.50114585100812
  0
CIRCLE
  8
画層5
  6
CONTINUOUS
 10
357.504510110543
 20
387.491728140777
 40
1.50114585100812
  0
CIRCLE
  8
画層5
  6
CONTINUOUS
 10
372.501034135377
 20
387.491728140777
 40
1.50114585100812
  0
LINE
  8
画層14
  6
CONTINUOUS
 10
573.703939936945
 20
199.314001740674
 11
573.703939936945
 21
483.558061830378
  0
LINE
  8
画層14
  6
CONTINUOUS
 10
563.099553455008
 20
188.70970513026
 11
563.099553455008
 21
482.545694570013
  0
LINE
  8
画層14
  6
CONTINUOUS
 10
541.88758601929
 20
167.497872484766
 11
541.88758601929
 21
482.455799846032
  0
LINE
  8
画層14
  6
CONTINUOUS
 10
531.279551387384
 20
156.889837830711
 11
531.279551387384
 21
483.911413353857
  0
LINE
  8
画層14
  6
CONTINUOUS
 10
520.669766172916
 20
146.28005259409
 11
520.669766172916
 21
482.982861780688
  0
LINE
  8
画層14
  6
CONTINUOUS
 10
600
 20
374.996334906118
 11
594.699149920316
 21
369.695451832879
  0
LINE
  8
画層14
  6
CONTINUOUS
 10
504.997549275172
 20
470
 11
499.694287825217
 21
464.696806953027
  0
LINE
  8
画層14
  6
CONTINUOUS
 10
594.699149920316
 20
369.695451832879
 11
499.694287825217
 21
464.696806953027
  0
CIRCLE
  8
画層5
  6
CONTINUOUS
 10
573.703939936945
 20
390.6898868067
 40
1.50114585100812
  0
CIRCLE
  8
画層5
  6
CONTINUOUS
 10
563.099553455008
 20
401.293881842167
 40
1.50114585100812
  0
CIRCLE
  8
画層5
  6
CONTINUOUS
 10
531.279551387384
 20
433.1127093178
 40
1.50114585100812
  0
CIRCLE
  8
画層5
  6
CONTINUOUS
 10
520.669766172916
 20
443.722102886513
 40
1.50114585100812
  0
LINE
  8
画層14
  6
CONTINUOUS
 10
573.703939936945
 20
390.6898868067
 11
240.516045203202
 21
390.6898868067
  0
LINE
  8
画層14
  6
CONTINUOUS
 10
563.099553455008
 20
401.293881842167
 11
252.413575782641
 21
401.293881842167
  0
LINE
  8
画層14
  6
CONTINUOUS
 10
552.497431694068
 20
411.895612240238
 11
264.840672565429
 21
411.895612240239
  0
LINE
  8
画層14
  6
CONTINUOUS
 10
541.88758601929
 20
422.505066267029
 11
278.110422163505
 21
422.505066267029
  0
LINE
  8
画層14
  6
CONTINUOUS
 10
531.279551387384
 20
433.1127093178
 11
287.461087106933
 21
433.1127093178
  0
LINE
  8
画層14
  6
CONTINUOUS
 10
520.669766172916
 20
443.722102886513
 11
297.97213315131
 21
443.722102886513
  0
LINE
  8
画層14
  6
CONTINUOUS
 10
329.320992477989
 20
146.287631733397
 11
329.320992477989
 21
483.430854385222
  0
LINE
  8
画層14
  6
CONTINUOUS
 10
318.723096940342
 20
156.884537003104
 11
318.723096940342
 21
485.275548890125
  0
LINE
  8
画層14
  6
CONTINUOUS
 10
308.101515047428
 20
167.505126414823
 11
308.101515047428
 21
482.820148625318
  0
LINE
  8
画層14
  6
CONTINUOUS
 10
286.88753325648
 20
188.717125970149
 11
286.88753325648
 21
481.832438532983
  0
LINE
  8
画層14
  6
CONTINUOUS
 10
276.289667220771
 20
199.314001740674
 11
276.289667220771
 21
481.818667276192
  0
CIRCLE
  8
画層5
  6
CONTINUOUS
 10
329.320992477989
 20
443.722102886513
 40
1.50114585100812
  0
CIRCLE
  8
画層5
  6
CONTINUOUS
 10
318.723096940342
 20
433.1127093178
 40
1.50114585100812
  0
CIRCLE
  8
画層5
  6
CONTINUOUS
 10
286.88753325648
 20
401.293881842167
 40
1.50114585100812
  0
CIRCLE
  8
画層5
  6
CONTINUOUS
 10
276.289667220771
 20
390.6898868067
 40
1.50114585100812
  0
CIRCLE
  8
画層2
  6
CONTINUOUS
 10
522.497857063587
 20
202.500865990152
 40
5.99569417868685
  0
CIRCLE
  8
画層5
  6
CONTINUOUS
 10
507.496281728967
 20
172.50041514902
 40
1.50114585100812
  0
CIRCLE
  8
画層5
  6
CONTINUOUS
 10
522.497857063587
 20
172.50041514902
 40
1.50114585100812
  0
CIRCLE
  8
画層5
  6
CONTINUOUS
 10
537.499432398208
 20
202.500865990152
 40
1.50114585100812
  0
CIRCLE
  8
画層5
  6
CONTINUOUS
 10
552.497431694068
 20
202.500865990152
 40
1.50114585100812
  0
LINE
  8
画層15
  6
CONTINUOUS
 10
540
 20
250
 11
510
 21
250
  0
LINE
  8
画層15
  6
CONTINUOUS
 10
510
 20
250
 11
510
 21
340
  0
LINE
  8
画層15
  6
CONTINUOUS
 10
510
 20
340
 11
540
 21
340
  0
LINE
  8
画層15
  6
CONTINUOUS
 10
540
 20
340
 11
540
 21
250
  0
LINE
  8
画層15
  6
CONTINUOUS
 10
470
 20
380
 11
470
 21
410
  0
LINE
  8
画層15
  6
CONTINUOUS
 10
380
 20
410
 11
470
 21
410
  0
LINE
  8
画層15
  6
CONTINUOUS
 10
380
 20
410
 11
380
 21
380
  0
LINE
  8
画層15
  6
CONTINUOUS
 10
380
 20
380
 11
470
 21
380
  0
LINE
  8
画層15
  6
CONTINUOUS
 10
340
 20
340
 11
310
 21
340
  0
LINE
  8
画層15
  6
CONTINUOUS
 10
310
 20
340
 11
310
 21
250
  0
LINE
  8
画層15
  6
CONTINUOUS
 10
310
 20
250
 11
340
 21
250
  0
LINE
  8
画層15
  6
CONTINUOUS
 10
340
 20
250
 11
340
 21
340
  0
LINE
  8
画層15
  6
CONTINUOUS
 10
380
 20
210
 11
380
 21
180
  0
LINE
  8
画層15
  6
CONTINUOUS
 10
380
 20
180
 11
470
 21
180
  0
LINE
  8
画層15
  6
CONTINUOUS
 10
470
 20
180
 11
470
 21
210
  0
LINE
  8
画層15
  6
CONTINUOUS
 10
470
 20
210
 11
380
 21
210
  0
LINE
  8
画層14
  6
CONTINUOUS
 10
342.507468137968
 20
120
 11
312.507099796003
 21
120
  0
LINE
  8
画層14
  6
CONTINUOUS
 10
312.507099796003
 20
120
 11
282.506084169011
 21
120
  0
LINE
  8
画層14
  6
CONTINUOUS
 10
282.506084169011
 20
120
 11
252.502185628152
 21
120
  0
LINE
  8
画層14
  6
CONTINUOUS
 10
327.507283966985
 20
120
 11
327.507283966985
 21
485.923805268858
  0
LINE
  8
画層14
  6
CONTINUOUS
 10
312.507099796003
 20
120
 11
312.507099796003
 21
485.561542415511
  0
LINE
  8
画層14
  6
CONTINUOUS
 10
297.506591982507
 20
120
 11
297.506591982507
 21
484.823068483128
  0
LINE
  8
画層14
  6
CONTINUOUS
 10
282.506084169011
 20
120
 11
282.506084169011
 21
482.932831946191
  0
LINE
  8
画層14
  6
CONTINUOUS
 10
267.504134898582
 20
120
 11
267.504134898582
 21
482.08581697244
  0
LINE
  8
画層14
  6
CONTINUOUS
 10
252.502185628152
 20
120
 11
252.502185628152
 21
481.73135741107
  0
CIRCLE
  8
画層2
  6
CONTINUOUS
 10
327.507283966985
 20
202.500865990152
 40
5.99569417868685
  0
CIRCLE
  8
画層5
  6
CONTINUOUS
 10
342.507468137968
 20
172.50041514902
 40
1.50114585100812
  0
CIRCLE
  8
画層5
  6
CONTINUOUS
 10
327.507283966985
 20
172.50041514902
 40
1.50114585100812
  0
CIRCLE
  8
画層5
  6
CONTINUOUS
 10
312.507099796003
 20
202.500865990152
 40
1.50114585100812
  0
CIRCLE
  8
画層5
  6
CONTINUOUS
 10
297.506591982507
 20
202.500865990152
 40
1.50114585100812
  0
CIRCLE
  8
画層2
  6
CONTINUOUS
 10
522.497857063587
 20
387.491728140777
 40
5.99569417868685
  0
CIRCLE
  8
画層5
  6
CONTINUOUS
 10
507.496281728967
 20
417.491868655547
 40
1.50114585100812
  0
CIRCLE
  8
画層5
  6
CONTINUOUS
 10
522.497857063587
 20
417.491868655547
 40
1.50114585100812
  0
CIRCLE
  8
画層5
  6
CONTINUOUS
 10
537.499432398208
 20
387.491728140777
 40
1.50114585100812
  0
CIRCLE
  8
画層5
  6
CONTINUOUS
 10
552.497431694068
 20
387.491728140777
 40
1.50114585100812
  0
CIRCLE
  8
画層5
  6
CONTINUOUS
 10
342.507468137968
 20
417.491868655547
 40
1.50114585100812
  0
CIRCLE
  8
画層5
  6
CONTINUOUS
 10
312.507099796003
 20
387.491728140777
 40
1.50114585100812
  0
CIRCLE
  8
画層5
  6
CONTINUOUS
 10
297.506591982507
 20
387.491728140777
 40
1.50114585100812
  0
LINE
  8
画層14
  6
CONTINUOUS
 10
425
 20
217.499085947347
 11
425
 21
247.502794547346
  0
LINE
  8
画層14
  6
CONTINUOUS
 10
425
 20
247.502794547346
 11
425
 21
277.502492040529
  0
LINE
  8
画層14
  6
CONTINUOUS
 10
425
 20
277.502492040529
 11
425
 21
292.501659624021
  0
LINE
  8
画層14
  6
CONTINUOUS
 10
425
 20
292.501659624021
 11
623.016308796268
 21
292.501659624021
  0
LINE
  8
画層14
  6
CONTINUOUS
 10
425
 20
292.501659624021
 11
226.554530719671
 21
292.501659624021
  0
LINE
  8
画層14
  6
CONTINUOUS
 10
425
 20
277.502492040529
 11
622.283807045408
 21
277.502492040529
  0
LINE
  8
画層14
  6
CONTINUOUS
 10
425
 20
277.502492040529
 11
227.778168592992
 21
277.502492040529
  0
LINE
  8
画層14
  6
CONTINUOUS
 10
425
 20
262.502643293938
 11
622.071675004471
 21
262.502643293938
  0
LINE
  8
画層14
  6
CONTINUOUS
 10
425
 20
262.502643293938
 11
227.363375536321
 21
262.502643293938
  0
LINE
  8
画層14
  6
CONTINUOUS
 10
425
 20
247.502794547346
 11
622.291741851194
 21
247.502794547346
  0
LINE
  8
画層14
  6
CONTINUOUS
 10
425
 20
247.502794547346
 11
228.619198260953
 21
247.502794547346
  0
LINE
  8
画層14
  6
CONTINUOUS
 10
425
 20
232.500940247347
 11
622.779629448713
 21
232.500940247347
  0
LINE
  8
画層14
  6
CONTINUOUS
 10
425
 20
232.500940247347
 11
228.538896908811
 21
232.500940247347
  0
LINE
  8
画層14
  6
CONTINUOUS
 10
425
 20
372.492397475013
 11
425
 21
342.497232227837
  0
LINE
  8
画層14
  6
CONTINUOUS
 10
425
 20
342.497232227837
 11
425
 21
312.502133220032
  0
LINE
  8
画層14
  6
CONTINUOUS
 10
425
 20
312.502133220032
 11
425
 21
297.499380899094
  0
LINE
  8
画層14
  6
CONTINUOUS
 10
425
 20
297.499380899094
 11
622.588751078173
 21
297.499380899094
  0
LINE
  8
画層14
  6
CONTINUOUS
 10
425
 20
312.502133220032
 11
622.10833921235
 21
312.502133220032
  0
LINE
  8
画層14
  6
CONTINUOUS
 10
425
 20
327.499682723934
 11
622.692345707213
 21
327.499682723934
  0
LINE
  8
画層14
  6
CONTINUOUS
 10
425
 20
342.497232227837
 11
621.840135997813
 21
342.497232227837
  0
LINE
  8
画層14
  6
CONTINUOUS
 10
425
 20
357.494814851425
 11
620.702335435713
 21
357.494814851425
  0
LINE
  8
画層14
  6
CONTINUOUS
 10
425
 20
297.499380899094
 11
226.536520527185
 21
297.499380899094
  0
LINE
  8
画層14
  6
CONTINUOUS
 10
425
 20
312.502133220032
 11
228.391895617732
 21
312.502133220032
  0
LINE
  8
画層14
  6
CONTINUOUS
 10
425
 20
327.499682723934
 11
227.94459010579
 21
327.499682723935
  0
LINE
  8
画層14
  6
CONTINUOUS
 10
425
 20
342.497232227837
 11
226.538199074866
 21
342.497232227837
  0
LINE
  8
画層14
  6
CONTINUOUS
 10
425
 20
357.494814851425
 11
228.39844480269
 21
357.494814851425
  0
LINE
  8
画層2
  6
CONTINUOUS
 10
522.497857063587
 20
387.491728140777
 11
522.497857063587
 21
393.487422319463
  0
LINE
  8
画層2
  6
CONTINUOUS
 10
522.497857063587
 20
202.500865990152
 11
522.497857063587
 21
196.505171811465
  0
LINE
  8
画層2
  6
CONTINUOUS
 10
327.507283966985
 20
202.500865990152
 11
327.507283966985
 21
196.505171811465
  0
CIRCLE
  8
画層5
  6
CONTINUOUS
 10
537.499432398208
 20
187.502646032957
 40
1.50114585100812
  0
CIRCLE
  8
画層5
  6
CONTINUOUS
 10
522.497857063587
 20
187.502646032957
 40
1.50114585100812
  0
CIRCLE
  8
画層5
  6
CONTINUOUS
 10
477.499206640811
 20
142.498321072159
 40
1.50114585100812
  0
CIRCLE
  8
画層5
  6
CONTINUOUS
 10
492.501238775324
 20
142.498321072159
 40
1.50114585100812
  0
CIRCLE
  8
画層5
  6
CONTINUOUS
 10
432.50223290383
 20
142.498321072159
 40
1.50114585100812
  0
CIRCLE
  8
画層5
  6
CONTINUOUS
 10
417.499779734828
 20
142.498321072159
 40
1.50114585100812
  0
CIRCLE
  8
画層5
  6
CONTINUOUS
 10
372.501034135377
 20
142.498321072159
 40
1.50114585100812
  0
CIRCLE
  8
画層5
  6
CONTINUOUS
 10
357.504510110543
 20
142.498321072159
 40
1.50114585100812
  0
CIRCLE
  8
画層5
  6
CONTINUOUS
 10
327.507283966985
 20
187.502646032958
 40
1.50114585100812
  0
CIRCLE
  8
画層5
  6
CONTINUOUS
 10
312.507099796003
 20
187.502646032958
 40
1.50114585100812
  0
CIRCLE
  8
画層5
  6
CONTINUOUS
 10
577.504496817456
 20
227.502161824606
 40
1.50114585100812
  0
CIRCLE
  8
画層5
  6
CONTINUOUS
 10
577.504496817456
 20
242.504939425672
 40
1.50114585100812
  0
CIRCLE
  8
画層5
  6
CONTINUOUS
 10
577.504496817456
 20
287.500196471095
 40
1.50114585100812
  0
CIRCLE
  8
画層5
  6
CONTINUOUS
 10
577.504496817456
 20
302.495974783109
 40
1.50114585100812
  0
CIRCLE
  8
画層5
  6
CONTINUOUS
 10
577.504496817456
 20
362.496602370964
 40
1.50114585100812
  0
CIRCLE
  8
画層5
  6
CONTINUOUS
 10
577.504496817456
 20
347.493648419899
 40
1.50114585100812
  0
CIRCLE
  8
画層5
  6
CONTINUOUS
 10
272.503994665819
 20
242.504939425672
 40
1.50114585100812
  0
CIRCLE
  8
画層5
  6
CONTINUOUS
 10
272.503994665819
 20
227.502161824606
 40
1.50114585100812
  0
CIRCLE
  8
画層5
  6
CONTINUOUS
 10
272.503994665819
 20
287.500196471095
 40
1.50114585100812
  0
CIRCLE
  8
画層5
  6
CONTINUOUS
 10
272.503994665819
 20
302.495974783109
 40
1.50114585100812
  0
CIRCLE
  8
画層5
  6
CONTINUOUS
 10
272.503994665819
 20
362.496602370964
 40
1.50114585100812
  0
CIRCLE
  8
画層5
  6
CONTINUOUS
 10
272.503994665819
 20
347.493648419899
 40
1.50114585100812
  0
CIRCLE
  8
画層5
  6
CONTINUOUS
 10
537.499432398208
 20
402.49105880654
 40
1.50114585100812
  0
CIRCLE
  8
画層5
  6
CONTINUOUS
 10
522.497857063587
 20
402.49105880654
 40
1.50114585100812
  0
CIRCLE
  8
画層5
  6
CONTINUOUS
 10
492.501238775324
 20
447.49444418568
 40
1.50114585100812
  0
CIRCLE
  8
画層5
  6
CONTINUOUS
 10
477.499206640811
 20
447.49444418568
 40
1.50114585100812
  0
CIRCLE
  8
画層5
  6
CONTINUOUS
 10
432.50223290383
 20
447.49444418568
 40
1.50114585100812
  0
CIRCLE
  8
画層5
  6
CONTINUOUS
 10
417.499779734828
 20
447.49444418568
 40
1.50114585100812
  0
CIRCLE
  8
画層5
  6
CONTINUOUS
 10
372.501034135377
 20
447.49444418568
 40
1.50114585100812
  0
CIRCLE
  8
画層5
  6
CONTINUOUS
 10
357.504510110543
 20
447.49444418568
 40
1.50114585100812
  0
CIRCLE
  8
画層5
  6
CONTINUOUS
 10
312.507099796003
 20
402.49105880654
 40
1.50114585100812
  0
LINE
  8
画層15
  6
CONTINUOUS
 10
425
 20
225
 11
414.996591508759
 21
225
  0
LINE
  8
画層15
  6
CONTINUOUS
 10
425
 20
225
 11
434.995413549507
 21
225
  0
LINE
  8
画層15
  6
CONTINUOUS
 10
414.996591508759
 20
365
 11
434.995413549507
 21
365
  0
LINE
  8
画層15
  6
CONTINUOUS
 10
414.996591508759
 20
300
 11
434.995413549507
 21
300
  0
LINE
  8
画層15
  6
CONTINUOUS
 10
414.996591508759
 20
290
 11
434.995413549507
 21
290
  0
LINE
  8
画層15
  6
CONTINUOUS
 10
414.996591508759
 20
365
 11
414.996591508759
 21
300
  0
LINE
  8
画層15
  6
CONTINUOUS
 10
434.995413549507
 20
365
 11
434.995413549507
 21
300
  0
LINE
  8
画層15
  6
CONTINUOUS
 10
414.996591508759
 20
290
 11
414.996591508759
 21
225
  0
LINE
  8
画層15
  6
CONTINUOUS
 10
434.995413549507
 20
290
 11
434.995413549507
 21
225
  0
CIRCLE
  8
画層5
  6
CONTINUOUS
 10
377.499549120604
 20
332.497269827564
 40
1.50114585100812
  0
CIRCLE
  8
画層5
  6
CONTINUOUS
 10
472.509404855665
 20
257.506580451589
 40
1.50114585100812
  0
CIRCLE
  8
画層5
  6
CONTINUOUS
 10
377.499549120604
 20
257.506580451589
 40
1.50114585100812
  0
LINE
  8
画層9
  6
CONTINUOUS
 10
404.999923538269
 20
249
 11
404.999923538269
 21
107
  0
LINE
  8
画層9
  6
CONTINUOUS
 10
404.999923538269
 20
110
 11
444.99995263995
 21
110
  0
POLYLINE
  8
画層9
  6
CONTINUOUS
 10
0.0
 20
0.0
 30
0.0
 66
1
 70
     1
  0
VERTEX
  8
画層9
 10
404.999923538269
  20
110
  0
VERTEX
  8
画層9
 10
406.448812277702
  20
110.388228567654
  0
VERTEX
  8
画層9
 10
406.448812277702
  20
109.611771432346
  0
SEQEND
100
AcDbEntity
  8
画層9
  0
POLYLINE
  8
画層9
  6
CONTINUOUS
 10
0.0
 20
0.0
 30
0.0
 66
1
 70
     1
  0
VERTEX
  8
画層9
 10
444.99995263995
  20
110
  0
VERTEX
  8
画層9
 10
443.551063900517
  20
109.611771432346
  0
VERTEX
  8
画層9
 10
443.551063900517
  20
110.388228567654
  0
SEQEND
100
AcDbEntity
  8
画層9
  0
TEXT
  8
画層9
 62
7
  6
CONTINUOUS
 62
7
 10
419.49993808911
 20
110.25
 40
10
  1
40
  7
Font_0
 72
1
 11
424.99993808911
 21
120.25
 73
3
  0
LINE
  8
画層9
  6
CONTINUOUS
 10
444.99995263995
 20
249
 11
444.99995263995
 21
107
  0
LINE
  8
画層9
  6
CONTINUOUS
 10
377.499961769134
 20
224
 11
377.499961769134
 21
87
  0
LINE
  8
画層9
  6
CONTINUOUS
 10
377.499961769134
 20
90
 11
472.499976319975
 21
90
  0
POLYLINE
  8
画層9
  6
CONTINUOUS
 10
0.0
 20
0.0
 30
0.0
 66
1
 70
     1
  0
VERTEX
  8
画層9
 10
377.499961769134
  20
90
  0
VERTEX
  8
画層9
 10
378.948850508568
  20
90.3882285676538
  0
VERTEX
  8
画層9
 10
378.948850508568
  20
89.6117714323462
  0
SEQEND
100
AcDbEntity
  8
画層9
  0
POLYLINE
  8
画層9
  6
CONTINUOUS
 10
0.0
 20
0.0
 30
0.0
 66
1
 70
     1
  0
VERTEX
  8
画層9
 10
472.499976319975
  20
90
  0
VERTEX
  8
画層9
 10
471.051087580542
  20
89.6117714323462
  0
VERTEX
  8
画層9
 10
471.051087580542
  20
90.3882285676538
  0
SEQEND
100
AcDbEntity
  8
画層9
  0
TEXT
  8
画層9
 62
7
  6
CONTINUOUS
 62
7
 10
419.499969044555
 20
90.25
 40
10
  1
95
  7
Font_0
 50
360
 72
1
 11
424.999969044555
 21
100.25
 73
3
  0
LINE
  8
画層9
  6
CONTINUOUS
 10
472.499976319975
 20
224
 11
472.499976319975
 21
87
  0
LINE
  8
画層9
  6
CONTINUOUS
 10
350
 20
249
 11
350
 21
67
  0
LINE
  8
画層9
  6
CONTINUOUS
 10
350
 20
70
 11
500
 21
70
  0
POLYLINE
  8
画層9
  6
CONTINUOUS
 10
0.0
 20
0.0
 30
0.0
 66
1
 70
     1
  0
VERTEX
  8
画層9
 10
350
  20
70
  0
VERTEX
  8
画層9
 10
351.448888739434
  20
70.3882285676538
  0
VERTEX
  8
画層9
 10
351.448888739434
  20
69.6117714323462
  0
SEQEND
100
AcDbEntity
  8
画層9
  0
POLYLINE
  8
画層9
  6
CONTINUOUS
 10
0.0
 20
0.0
 30
0.0
 66
1
 70
     1
  0
VERTEX
  8
画層9
 10
500
  20
70
  0
VERTEX
  8
画層9
 10
498.551111260566
  20
69.6117714323462
  0
VERTEX
  8
画層9
 10
498.551111260566
  20
70.3882285676538
  0
SEQEND
100
AcDbEntity
  8
画層9
  0
TEXT
  8
画層9
 62
7
  6
CONTINUOUS
 62
7
 10
416.5
 20
70.25
 40
10
  1
150
  7
Font_0
 72
1
 11
425
 21
80.25
 73
3
  0
LINE
  8
画層9
  6
CONTINUOUS
 10
500
 20
249
 11
500
 21
67
  0
LINE
  8
画層9
  6
CONTINUOUS
 10
349
 20
340
 11
237
 21
340
  0
LINE
  8
画層9
  6
CONTINUOUS
 10
240
 20
340
 11
240
 21
250
  0
POLYLINE
  8
画層9
  6
CONTINUOUS
 10
0.0
 20
0.0
 30
0.0
 66
1
 70
     1
  0
VERTEX
  8
画層9
 10
240
  20
340
  0
VERTEX
  8
画層9
 10
240.388228567654
  20
338.551111260566
  0
VERTEX
  8
画層9
 10
239.611771432346
  20
338.551111260566
  0
SEQEND
100
AcDbEntity
  8
画層9
  0
POLYLINE
  8
画層9
  6
CONTINUOUS
 10
0.0
 20
0.0
 30
0.0
 66
1
 70
     1
  0
VERTEX
  8
画層9
 10
240
  20
250
  0
VERTEX
  8
画層9
 10
239.611771432346
  20
251.448888739434
  0
VERTEX
  8
画層9
 10
240.388228567654
  20
251.448888739434
  0
SEQEND
100
AcDbEntity
  8
画層9
  0
TEXT
  8
画層9
 62
7
  6
CONTINUOUS
 62
7
 10
239.75
 20
289.5
 40
10
  1
90
  7
Font_0
 50
90
 72
1
 11
229.75
 21
295
 73
3
  0
LINE
  8
画層9
  6
CONTINUOUS
 10
349
 20
250
 11
237
 21
250
  0
LINE
  8
画層9
  6
CONTINUOUS
 10
349
 20
370
 11
217
 21
370
  0
LINE
  8
画層9
  6
CONTINUOUS
 10
220
 20
370
 11
220
 21
220
  0
POLYLINE
  8
画層9
  6
CONTINUOUS
 10
0.0
 20
0.0
 30
0.0
 66
1
 70
     1
  0
VERTEX
  8
画層9
 10
220
  20
370
  0
VERTEX
  8
画層9
 10
220.388228567654
  20
368.551111260566
  0
VERTEX
  8
画層9
 10
219.611771432346
  20
368.551111260566
  0
SEQEND
100
AcDbEntity
  8
画層9
  0
POLYLINE
  8
画層9
  6
CONTINUOUS
 10
0.0
 20
0.0
 30
0.0
 66
1
 70
     1
  0
VERTEX
  8
画層9
 10
220
  20
220
  0
VERTEX
  8
画層9
 10
219.611771432346
  20
221.448888739434
  0
VERTEX
  8
画層9
 10
220.388228567654
  20
221.448888739434
  0
SEQEND
100
AcDbEntity
  8
画層9
  0
TEXT
  8
画層9
 62
7
  6
CONTINUOUS
 62
7
 10
219.75
 20
286.5
 40
10
  1
150
  7
Font_0
 50
90
 72
1
 11
209.75
 21
295
 73
3
  0
LINE
  8
画層9
  6
CONTINUOUS
 10
349
 20
220
 11
217
 21
220
  0
LINE
  8
画層9
  6
CONTINUOUS
 10
376.499961769271
 20
224.999983494059
 11
237.000247626988
 21
224.997680919976
  0
LINE
  8
画層9
  6
CONTINUOUS
 10
240.00024762658
 20
224.9977304378
 11
239.999834978049
 21
249.9977304378
  0
POLYLINE
  8
画層9
  6
CONTINUOUS
 10
0.0
 20
0.0
 30
0.0
 66
1
 70
     1
  0
VERTEX
  8
画層9
 10
240.00024762658
  20
224.9977304378
  0
VERTEX
  8
画層9
 10
239.611995143706
  20
226.446612768958
  0
VERTEX
  8
画層9
 10
240.388452278908
  20
226.446625585114
  0
SEQEND
100
AcDbEntity
  8
画層9
  0
POLYLINE
  8
画層9
  6
CONTINUOUS
 10
0.0
 20
0.0
 30
0.0
 66
1
 70
     1
  0
VERTEX
  8
画層9
 10
239.999834978049
  20
249.9977304378
  0
VERTEX
  8
画層9
 10
240.388087460922
  20
248.548848106641
  0
VERTEX
  8
画層9
 10
239.61163032572
  20
248.548835290486
  0
SEQEND
100
AcDbEntity
  8
画層9
  0
TEXT
  8
画層9
 62
7
  6
CONTINUOUS
 62
7
 10
240.199677966332
 20
232.314513130832
 40
10
  1
25
  7
Font_0
 50
89.9168370111761
 72
1
 11
230.207671571162
 21
237.829022011856
 73
3
  0
LINE
  8
画層9
  6
CONTINUOUS
 10
531.986656671152
 20
156.182729552109
 11
546.205949640008
 21
141.96337635966
  0
LINE
  8
画層9
  6
CONTINUOUS
 10
544.084633788704
 20
144.084701195465
 11
575.904635856328
 21
175.904568495014
  0
POLYLINE
  8
画層9
  6
CONTINUOUS
 10
0.0
 20
0.0
 30
0.0
 66
1
 70
     1
  0
VERTEX
  8
画層9
 10
544.084633788704
  20
144.084701195465
  0
VERTEX
  8
画層9
 10
544.834636539633
  20
145.383737712889
  0
VERTEX
  8
画層9
 10
545.383673482628
  20
144.834698444533
  0
SEQEND
100
AcDbEntity
  8
画層9
  0
POLYLINE
  8
画層9
  6
CONTINUOUS
 10
0.0
 20
0.0
 30
0.0
 66
1
 70
     1
  0
VERTEX
  8
画層9
 10
575.904635856328
  20
175.904568495014
  0
VERTEX
  8
画層9
 10
575.154633105399
  20
174.605531977591
  0
VERTEX
  8
画層9
 10
574.605596162404
  20
175.154571245946
  0
SEQEND
100
AcDbEntity
  8
画層9
  0
TEXT
  8
画層9
 62
7
  6
CONTINUOUS
 62
7
 10
555.928762969263
 20
156.282332854166
 40
10
  1
45
  7
Font_0
 50
44.9998786665962
 72
1
 11
552.746805663894
 21
167.242494700909
 73
3
  0
LINE
  8
画層9
  6
CONTINUOUS
 10
563.806658738776
 20
188.002596851658
 11
578.025951707632
 21
173.783243659208
  0
LINE
  8
画層9
  6
CONTINUOUS
 10
521.37687295484
 20
145.572945813642
 11
535.596229749457
 21
131.353589048714
  0
LINE
  8
画層9
  6
CONTINUOUS
 10
533.474909403683
 20
133.474909390059
 11
544.084694618151
 21
144.08469462668
  0
POLYLINE
  8
画層9
  6
CONTINUOUS
 10
0.0
 20
0.0
 30
0.0
 66
1
 70
     1
  0
VERTEX
  8
画層9
 10
533.474909403683
  20
133.474909390059
  0
VERTEX
  8
画層9
 10
534.224909402327
  20
134.773947496519
  0
VERTEX
  8
画層9
 10
534.773947508577
  20
134.224909391415
  0
SEQEND
100
AcDbEntity
  8
画層9
  0
POLYLINE
  8
画層9
  6
CONTINUOUS
 10
0.0
 20
0.0
 30
0.0
 66
1
 70
     1
  0
VERTEX
  8
画層9
 10
544.084694618151
  20
144.08469462668
  0
VERTEX
  8
画層9
 10
543.334694619508
  20
142.78565652022
  0
VERTEX
  8
画層9
 10
542.785656513258
  20
143.334694625324
  0
SEQEND
100
AcDbEntity
  8
画層9
  0
TEXT
  8
画層9
 62
7
  6
CONTINUOUS
 62
7
 10
534.71393802297
 20
135.067491402896
 40
10
  1
15
  7
Font_0
 50
45.0000000598152
 72
1
 11
531.531957496189
 21
146.027646507965
 73
3
  0
LINE
  8
画層9
  6
CONTINUOUS
 10
531.986658169309
 20
156.182731050263
 11
546.206014963926
 21
141.963374285335
  0
LINE
  8
画層9
  6
CONTINUOUS
 10
519.962659392467
 20
145.572945812166
 11
475.073536490526
 21
100.683822816498
  0
LINE
  8
画層9
  6
CONTINUOUS
 10
477.194856831871
 20
102.805143162272
 11
482.499716061763
 21
97.5002839434564
  0
POLYLINE
  8
画層9
  6
CONTINUOUS
 10
0.0
 20
0.0
 30
0.0
 66
1
 70
     1
  0
VERTEX
  8
画層9
 10
477.194856831871
  20
102.805143162272
  0
VERTEX
  8
画層9
 10
478.49389493833
  20
102.055143163628
  0
VERTEX
  8
画層9
 10
477.944856833227
  20
101.506105057378
  0
SEQEND
100
AcDbEntity
  8
画層9
  0
POLYLINE
  8
画層9
  6
CONTINUOUS
 10
0.0
 20
0.0
 30
0.0
 66
1
 70
     1
  0
VERTEX
  8
画層9
 10
482.499716061763
  20
97.5002839434564
  0
VERTEX
  8
画層9
 10
481.200677955303
  20
98.2502839421002
  0
VERTEX
  8
画層9
 10
481.749716060407
  20
98.7993220483501
  0
SEQEND
100
AcDbEntity
  8
画層9
  0
TEXT
  8
画層9
 62
7
  6
CONTINUOUS
 62
7
 10
474.013655495568
 20
106.339897882156
 40
10
  1
7.5
  7
Font_0
 50
315.000000059815
 72
1
 11
487.095130946412
 21
107.400558067593
 73
3
  0
LINE
  8
画層9
  6
CONTINUOUS
 10
525.267518622359
 20
140.26808659335
 11
480.378395720418
 21
95.3789635976822
  0
LINE
  8
画層13
  6
CONTINUOUS
 10
464.978324002463
 20
230
 11
464.978324002463
 21
234.952006428176
  0
LINE
  8
画層13
  6
CONTINUOUS
 10
379.956837289073
 20
229.99536015945
 11
385.030650288869
 21
230.001672200715
  0
LINE
  8
画層13
  6
CONTINUOUS
 10
385.030650288869
 20
230.001672200715
 11
385.030650288869
 21
234.946831784613
  0
LINE
  8
画層13
  6
CONTINUOUS
 10
388.831254537398
 20
325.855089901563
 11
388.831254537398
 21
320.776639534572
  0
LINE
  8
画層13
  6
CONTINUOUS
 10
462.442550427219
 20
325.855089901563
 11
462.442550427219
 21
320.776815583815
  0
CIRCLE
  8
画層5
  6
CONTINUOUS
 10
462.442550427219
 20
320.776815583815
 40
1.50114585100812
  0
CIRCLE
  8
画層5
  6
CONTINUOUS
 10
464.978324002463
 20
234.952006428176
 40
1.50114585100812
  0
CIRCLE
  8
画層5
  6
CONTINUOUS
 10
385.030650288869
 20
234.946831784613
 40
1.50114585100812
  0
CIRCLE
  8
画層5
  6
CONTINUOUS
 10
388.831254537398
 20
320.776639534572
 40
1.50114585100812
  0
CIRCLE
  8
画層5
  6
CONTINUOUS
 10
472.509404855665
 20
332.497269827564
 40
1.50114585100812
  0
LINE
  8
画層13
  6
CONTINUOUS
 10
464.978324002463
 20
234.952006428176
 11
464.978324002463
 21
295
  0
LINE
  8
画層13
  6
CONTINUOUS
 10
462.442550427219
 20
320.776815583815
 11
462.442550427219
 21
295
  0
LINE
  8
画層9
  6
CONTINUOUS
 10
610
 20
295
 11
610
 21
320.776815583815
  0
POLYLINE
  8
画層9
  6
CONTINUOUS
 10
0.0
 20
0.0
 30
0.0
 66
1
 70
     1
  0
VERTEX
  8
画層9
 10
610
  20
295
  0
VERTEX
  8
画層9
 10
609.611771432346
  20
296.448888739434
  0
VERTEX
  8
画層9
 10
610.388228567654
  20
296.448888739434
  0
SEQEND
100
AcDbEntity
  8
画層9
  0
POLYLINE
  8
画層9
  6
CONTINUOUS
 10
0.0
 20
0.0
 30
0.0
 66
1
 70
     1
  0
VERTEX
  8
画層9
 10
610
  20
320.776815583815
  0
VERTEX
  8
画層9
 10
610.388228567654
  20
319.327926844382
  0
VERTEX
  8
画層9
 10
609.611771432346
  20
319.327926844382
  0
SEQEND
100
AcDbEntity
  8
画層9
  0
TEXT
  8
画層9
 62
7
  6
CONTINUOUS
 62
7
 10
609.75
 20
293.388407791908
 40
10
  1
25.78
  7
Font_0
 50
90
 72
1
 11
599.75
 21
307.888407791908
 73
3
  0
LINE
  8
画層9
  6
CONTINUOUS
 10
463.442550427219
 20
320.776815583815
 11
613
 21
320.776815583815
  0
LINE
  8
画層9
  6
CONTINUOUS
 10
465.978323851371
 20
234.951456716332
 11
612.980689429383
 21
234.870647762766
  0
LINE
  8
画層9
  6
CONTINUOUS
 10
609.980689882658
 20
234.872296898296
 11
610.013698980881
 21
294.92029047012
  0
POLYLINE
  8
画層9
  6
CONTINUOUS
 10
0.0
 20
0.0
 30
0.0
 66
1
 70
     1
  0
VERTEX
  8
画層9
 10
609.980689882658
  20
234.872296898296
  0
VERTEX
  8
画層9
 10
609.593257844962
  20
236.321398832656
  0
VERTEX
  8
画層9
 10
610.369714862953
  20
236.320972004973
  0
SEQEND
100
AcDbEntity
  8
画層9
  0
POLYLINE
  8
画層9
  6
CONTINUOUS
 10
0.0
 20
0.0
 30
0.0
 66
1
 70
     1
  0
VERTEX
  8
画層9
 10
610.013698980881
  20
294.92029047012
  0
VERTEX
  8
画層9
 10
610.401131018576
  20
293.47118853576
  0
VERTEX
  8
画層9
 10
609.624674000585
  20
293.471615363443
  0
SEQEND
100
AcDbEntity
  8
画層9
  0
TEXT
  8
画層9
 62
7
  6
CONTINUOUS
 62
7
 10
609.739223647814
 20
250.396433302997
 40
10
  1
60.05
  7
Font_0
 50
89.9685038298422
 72
1
 11
599.747195980458
 21
264.901928230602
 73
3
  0
LINE
  8
画層9
  6
CONTINUOUS
 10
600
 20
295
 11
613.002152691552
 21
295
  0
LINE
  8
画層13
  6
CONTINUOUS
 10
388.831254537398
 20
320.776639534572
 11
425
 21
320.776639534572
  0
LINE
  8
画層13
  6
CONTINUOUS
 10
462.442550427219
 20
320.776815583815
 11
425
 21
320.776815583815
  0
LINE
  8
画層13
  6
CONTINUOUS
 10
385.030650288869
 20
234.946831784613
 11
425
 21
234.946831784613
  0
LINE
  8
画層13
  6
CONTINUOUS
 10
464.978324002463
 20
234.952006428176
 11
425
 21
234.952006428176
  0
LINE
  8
画層9
  6
CONTINUOUS
 10
462.442550427219
 20
321.776815583815
 11
462.442550427219
 21
483
  0
LINE
  8
画層9
  6
CONTINUOUS
 10
462.442550427219
 20
480
 11
425
 21
480
  0
POLYLINE
  8
画層9
  6
CONTINUOUS
 10
0.0
 20
0.0
 30
0.0
 66
1
 70
     1
  0
VERTEX
  8
画層9
 10
462.442550427219
  20
480
  0
VERTEX
  8
画層9
 10
460.993661687785
  20
479.611771432346
  0
VERTEX
  8
画層9
 10
460.993661687785
  20
480.388228567654
  0
SEQEND
100
AcDbEntity
  8
画層9
  0
POLYLINE
  8
画層9
  6
CONTINUOUS
 10
0.0
 20
0.0
 30
0.0
 66
1
 70
     1
  0
VERTEX
  8
画層9
 10
425
  20
480
  0
VERTEX
  8
画層9
 10
426.448888739434
  20
480.388228567654
  0
VERTEX
  8
画層9
 10
426.448888739434
  20
479.611771432346
  0
SEQEND
100
AcDbEntity
  8
画層9
  0
TEXT
  8
画層9
 62
7
  6
CONTINUOUS
 62
7
 10
429.221275213609
 20
480.25
 40
10
  1
37.44
  7
Font_0
 72
1
 11
443.721275213609
 21
490.25
 73
3
  0
LINE
  8
画層9
  6
CONTINUOUS
 10
388.831254537398
 20
321.776639534572
 11
388.831254537398
 21
483
  0
LINE
  8
画層9
  6
CONTINUOUS
 10
388.831254537398
 20
480
 11
425
 21
480
  0
POLYLINE
  8
画層9
  6
CONTINUOUS
 10
0.0
 20
0.0
 30
0.0
 66
1
 70
     1
  0
VERTEX
  8
画層9
 10
388.831254537398
  20
480
  0
VERTEX
  8
画層9
 10
390.280143276831
  20
480.388228567654
  0
VERTEX
  8
画層9
 10
390.280143276831
  20
479.611771432346
  0
SEQEND
100
AcDbEntity
  8
画層9
  0
POLYLINE
  8
画層9
  6
CONTINUOUS
 10
0.0
 20
0.0
 30
0.0
 66
1
 70
     1
  0
VERTEX
  8
画層9
 10
425
  20
480
  0
VERTEX
  8
画層9
 10
423.551111260566
  20
479.611771432346
  0
VERTEX
  8
画層9
 10
423.551111260566
  20
480.388228567654
  0
SEQEND
100
AcDbEntity
  8
画層9
  0
TEXT
  8
画層9
 62
7
  6
CONTINUOUS
 62
7
 10
392.415627268699
 20
480.25
 40
10
  1
36.17
  7
Font_0
 72
1
 11
406.915627268699
 21
490.25
 73
3
  0
LINE
  8
画層9
  6
CONTINUOUS
 10
385.030520823577
 20
235.946831776233
 11
384.995947126063
 21
502.996762868116
  0
LINE
  8
画層9
  6
CONTINUOUS
 10
384.996335521938
 20
499.996762893258
 11
424.965685233069
 21
500.00193753682
  0
POLYLINE
  8
画層9
  6
CONTINUOUS
 10
0.0
 20
0.0
 30
0.0
 66
1
 70
     1
  0
VERTEX
  8
画層9
 10
384.996335521938
  20
499.996762893258
  0
VERTEX
  8
画層9
 10
386.445173987104
  20
500.385179038461
  0
VERTEX
  8
画層9
 10
386.445274511354
  20
499.608721909661
  0
SEQEND
100
AcDbEntity
  8
画層9
  0
POLYLINE
  8
画層9
  6
CONTINUOUS
 10
0.0
 20
0.0
 30
0.0
 66
1
 70
     1
  0
VERTEX
  8
画層9
 10
424.965685233069
  20
500.00193753682
  0
VERTEX
  8
画層9
 10
423.516846767903
  20
499.613521391617
  0
VERTEX
  8
画層9
 10
423.516746243653
  20
500.389978520417
  0
SEQEND
100
AcDbEntity
  8
画層9
  0
TEXT
  8
画層9
 62
7
  6
CONTINUOUS
 62
7
 10
390.4809781327
 20
500.247472966214
 40
10
  1
39.97
  7
Font_0
 50
0.00741781482799777
 72
1
 11
404.979683358264
 21
510.249350129138
 73
3
  0
LINE
  8
画層9
  6
CONTINUOUS
 10
464.978194566233
 20
235.952006419799
 11
464.943628630205
 21
503.001934272091
  0
LINE
  8
画層9
  6
CONTINUOUS
 10
464.944016938893
 20
500.001934297222
 11
424.965692936431
 21
499.996759653659
  0
POLYLINE
  8
画層9
  6
CONTINUOUS
 10
0.0
 20
0.0
 30
0.0
 66
1
 70
     1
  0
VERTEX
  8
画層9
 10
464.944016938893
  20
500.001934297222
  0
VERTEX
  8
画層9
 10
463.495178462439
  20
499.613518194125
  0
VERTEX
  8
画層9
 10
463.495077960755
  20
500.389975322928
  0
SEQEND
100
AcDbEntity
  8
画層9
  0
POLYLINE
  8
画層9
  6
CONTINUOUS
 10
0.0
 20
0.0
 30
0.0
 66
1
 70
     1
  0
VERTEX
  8
画層9
 10
424.965692936431
  20
499.996759653659
  0
VERTEX
  8
画層9
 10
426.414531412885
  20
500.385175756756
  0
VERTEX
  8
画層9
 10
426.414631914569
  20
499.608718627953
  0
SEQEND
100
AcDbEntity
  8
画層9
  0
TEXT
  8
画層9
 62
7
  6
CONTINUOUS
 62
7
 10
430.454822700069
 20
500.247470148019
 40
10
  1
39.98
  7
Font_0
 50
0.00741614968481486
 72
1
 11
444.95352821631
 21
510.249346889578
 73
3
  0
LINE
  8
画層9
  6
CONTINUOUS
 10
425
 20
470
 11
425
 21
502.997557482327
  0
CIRCLE
  8
画層4
  6
CONTINUOUS
 10
327.507283966985
 20
202.500865990152
 40
5.50260529429863
  0
CIRCLE
  8
画層4
  6
CONTINUOUS
 10
522.497857063587
 20
387.491728140777
 40
5.50260529429863
  0
CIRCLE
  8
画層4
  6
CONTINUOUS
 10
522.497857063587
 20
202.500865990152
 40
5.50260529429863
  0
CIRCLE
  8
画層4
  6
CONTINUOUS
 10
327.507283966985
 20
202.500865990152
 40
2.7518839092354
  0
CIRCLE
  8
画層4
  6
CONTINUOUS
 10
522.497857063587
 20
387.491728140777
 40
2.7518839092354
  0
CIRCLE
  8
画層4
  6
CONTINUOUS
 10
522.497857063587
 20
202.500865990152
 40
2.7518839092354
  0
LINE
  8
画層9
  6
CONTINUOUS
 10
522.497857063587
 20
403.992204657548
 11
560
 21
450
  0
POLYLINE
  8
画層9
  6
CONTINUOUS
 10
0.0
 20
0.0
 30
0.0
 66
1
 70
     1
  0
VERTEX
  8
画層9
 10
522.497857063587
  20
403.992204657548
  0
VERTEX
  8
画層9
 10
523.726879477814
  20
406.728900458204
  0
VERTEX
  8
画層9
 10
524.930569596456
  20
405.747741536233
  0
SEQEND
100
AcDbEntity
  8
画層9
  0
LINE
  8
画層9
  6
CONTINUOUS
 10
560
 20
450
 11
580
 21
450
  0
TEXT
  8
画層9
 62
7
  6
CONTINUOUS
 62
7
 10
570
 20
450
 40
10
  1
M3
  7
Font_0
 11
570
 21
460
 73
3
  0
LINE
  8
画層0
  6
CONTINUOUS
 10
470
 20
0
 11
590
 21
0
  0
LINE
  8
画層0
  6
CONTINUOUS
 10
660
 20
110
 11
660
 21
100
  0
LINE
  8
画層0
  6
CONTINUOUS
 10
470
 20
-10
 11
590
 21
-10
  0
TEXT
  8
画層0
 62
7
  6
CONTINUOUS
 62
7
 10
608.774670735701
 20
101.355788312874
 40
7
  1
シャーシ上段
  7
Font_0
 11
608.774670735701
 21
108.355788312874
 73
3
  0
TEXT
  8
画層0
 62
7
  6
CONTINUOUS
 62
7
 10
683.442204164521
 20
101.024885505106
 40
7
  1
2／3
  7
Font_0
 11
683.442204164521
 21
108.024885505106
 73
3
  0
TEXT
  8
画層0
 62
7
  6
CONTINUOUS
 62
7
 10
605.487318345709
 20
91.2641291396486
 40
7
  1
ネジ穴は全てM3
  7
Font_0
 11
605.487318345709
 21
98.2641291396486
 73
3
  0
TEXT
  8
画層0
 62
7
  6
CONTINUOUS
 62
7
 10
605.018207988701
 20
80.9247382851141
 40
7
  1
小数点以下が不可能な場合四捨五入
  7
Font_0
 11
605.018207988701
 21
87.9247382851141
 73
3
  0
POLYLINE
  8
画層0
  6
CONTINUOUS
 10
0.0
 20
0.0
 30
0.0
 66
1
 70
     1
  0
VERTEX
  8
画層0
 10
470
  20
10
  0
VERTEX
  8
画層0
 10
590
  20
10
  0
VERTEX
  8
画層0
 10
590
  20
-20
  0
VERTEX
  8
画層0
 10
470
  20
-20
  0
SEQEND
100
AcDbEntity
  8
画層0
  0
CIRCLE
  8
画層5
  6
CONTINUOUS
 10
327.507283966985
 20
417.491868655547
 40
1.50114585100812
  0
CIRCLE
  8
画層5
  6
CONTINUOUS
 10
327.507283966985
 20
402.49105880654
 40
1.50114585100812
  0
CIRCLE
  8
画層2
  6
CONTINUOUS
 10
327.507283966985
 20
387.491728140777
 40
5.99569417868685
  0
LINE
  8
画層2
  6
CONTINUOUS
 10
327.507283966985
 20
387.491728140777
 11
327.507283966985
 21
393.487422319463
  0
CIRCLE
  8
画層4
  6
CONTINUOUS
 10
327.507283966985
 20
387.491728140777
 40
5.50260529429863
  0
CIRCLE
  8
画層4
  6
CONTINUOUS
 10
327.507283966985
 20
387.491728140777
 40
2.7518839092354
  0
ENDSEC
  0
EOF
