999
Outputted By AR_CAD Ver.1.4.1
  0
SECTION
  2
HEADER
  9
$ACADVER
  1
AC1009
  9
$DWGCODEPAGE
  3
DOS932
  9
$EXTMIN
 10
0
 20
0
  9
$EXTMAX
 10
297
 20
210
  9
$INSBASE
 10
0.0
 20
0.0
 30
0.0
  9
$HANDLING
 70
     1
  9
$LTSCALE
 40
1
  0
ENDSEC
  0
SECTION
  2
TABLES
  0
TABLE
  2
LTYPE
 70
     7
  0
LTYPE
  2
BYBLOCK
 70
    64
 3

 72
    65
 73
    0
 40
    0
  0
LTYPE
  2
BYLAYER
 70
    64
 3

 72
    65
 73
    0
 40
    0
  0
LTYPE
  2
CONTINUOUS
 70
    64
 3
CONTINUOUS
 72
    65
 73
    0
 40
    0
  0
LTYPE
  2
DASHED
 70
    64
 3

 72
    65
 73
    2
 40
    3.5
 49
    2.91666666666667
 49
    -0.583333333333333
  0
LTYPE
  2
DOT
 70
    64
 3

 72
    65
 73
    2
 40
    0.5
 49
    0.25
 49
    -0.25
  0
LTYPE
  2
DASHDOT
 70
    64
 3

 72
    65
 73
    4
 40
    3.5
 49
    1.84210526315789
 49
    -0.552631578947368
 49
    0.552631578947368
 49
    -0.552631578947368
  0
LTYPE
  2
DIVIDE
 70
    64
 3

 72
    65
 73
    6
 40
    3.5
 49
    1.4
 49
    -0.42
 49
    0.42
 49
    -0.42
 49
    0.42
 49
    -0.42
  0
LTYPE
  2
HIDDEN
 70
    64
 3

 72
    65
 73
    2
 40
    4
 49
    2
 49
    -2
  0
ENDTAB
  0
TABLE
  2
LAYER
 70
   257
  0
LAYER
  2
画層0
 70
    0
 62
-7
  6
CONTINUOUS
  0
LAYER
  2
画層1
 70
    0
 62
-3
  6
CONTINUOUS
  0
LAYER
  2
画層2
 70
    0
 62
-9
  6
CONTINUOUS
  0
LAYER
  2
画層3
 70
    0
 62
-7
  6
CONTINUOUS
  0
LAYER
  2
画層4
 70
    4
 62
7
  6
CONTINUOUS
  0
LAYER
  2
画層5
 70
    4
 62
7
  6
CONTINUOUS
  0
LAYER
  2
画層6
 70
    0
 62
-253
  6
CONTINUOUS
  0
LAYER
  2
画層7
 70
    0
 62
-192
  6
CONTINUOUS
  0
LAYER
  2
画層8
 70
    0
 62
-74
  6
CONTINUOUS
  0
LAYER
  2
画層9
 70
    4
 62
7
  6
CONTINUOUS
  0
LAYER
  2
画層10
 70
    0
 62
-190
  6
CONTINUOUS
  0
LAYER
  2
画層11
 70
    0
 62
-132
  6
CONTINUOUS
  0
LAYER
  2
画層12
 70
    0
 62
-161
  6
CONTINUOUS
  0
LAYER
  2
画層13
 70
    0
 62
-5
  6
CONTINUOUS
  0
LAYER
  2
画層14
 70
    0
 62
-150
  6
CONTINUOUS
  0
LAYER
  2
画層15
 70
    4
 62
7
  6
CONTINUOUS
  0
LAYER
  2
画層16
 70
    0
 62
7
  6
CONTINUOUS
  0
LAYER
  2
画層17
 70
    0
 62
70
  6
CONTINUOUS
  0
LAYER
  2
画層18
 70
    0
 62
211
  6
CONTINUOUS
  0
LAYER
  2
画層19
 70
    0
 62
137
  6
CONTINUOUS
  0
LAYER
  2
画層20
 70
    0
 62
4
  6
CONTINUOUS
  0
LAYER
  2
画層21
 70
    0
 62
131
  6
CONTINUOUS
  0
LAYER
  2
画層22
 70
    0
 62
4
  6
CONTINUOUS
  0
LAYER
  2
画層23
 70
    0
 62
4
  6
CONTINUOUS
  0
LAYER
  2
画層24
 70
    0
 62
7
  6
CONTINUOUS
  0
LAYER
  2
画層25
 70
    0
 62
7
  6
CONTINUOUS
  0
LAYER
  2
画層26
 70
    0
 62
7
  6
CONTINUOUS
  0
LAYER
  2
画層27
 70
    0
 62
7
  6
CONTINUOUS
  0
LAYER
  2
画層28
 70
    0
 62
7
  6
CONTINUOUS
  0
LAYER
  2
画層29
 70
    0
 62
7
  6
CONTINUOUS
  0
LAYER
  2
画層30
 70
    0
 62
7
  6
CONTINUOUS
  0
LAYER
  2
画層31
 70
    0
 62
7
  6
CONTINUOUS
  0
LAYER
  2
画層32
 70
    0
 62
7
  6
CONTINUOUS
  0
LAYER
  2
画層33
 70
    0
 62
7
  6
CONTINUOUS
  0
LAYER
  2
画層34
 70
    0
 62
7
  6
CONTINUOUS
  0
LAYER
  2
画層35
 70
    0
 62
7
  6
CONTINUOUS
  0
LAYER
  2
画層36
 70
    0
 62
7
  6
CONTINUOUS
  0
LAYER
  2
画層37
 70
    0
 62
7
  6
CONTINUOUS
  0
LAYER
  2
画層38
 70
    0
 62
7
  6
CONTINUOUS
  0
LAYER
  2
画層39
 70
    0
 62
7
  6
CONTINUOUS
  0
LAYER
  2
画層40
 70
    0
 62
7
  6
CONTINUOUS
  0
LAYER
  2
画層41
 70
    0
 62
7
  6
CONTINUOUS
  0
LAYER
  2
画層42
 70
    0
 62
7
  6
CONTINUOUS
  0
LAYER
  2
画層43
 70
    0
 62
7
  6
CONTINUOUS
  0
LAYER
  2
画層44
 70
    0
 62
7
  6
CONTINUOUS
  0
LAYER
  2
画層45
 70
    0
 62
7
  6
CONTINUOUS
  0
LAYER
  2
画層46
 70
    0
 62
7
  6
CONTINUOUS
  0
LAYER
  2
画層47
 70
    0
 62
7
  6
CONTINUOUS
  0
LAYER
  2
画層48
 70
    0
 62
7
  6
CONTINUOUS
  0
LAYER
  2
画層49
 70
    0
 62
7
  6
CONTINUOUS
  0
LAYER
  2
画層50
 70
    0
 62
7
  6
CONTINUOUS
  0
LAYER
  2
画層51
 70
    0
 62
7
  6
CONTINUOUS
  0
LAYER
  2
画層52
 70
    0
 62
7
  6
CONTINUOUS
  0
LAYER
  2
画層53
 70
    0
 62
7
  6
CONTINUOUS
  0
LAYER
  2
画層54
 70
    0
 62
7
  6
CONTINUOUS
  0
LAYER
  2
画層55
 70
    0
 62
7
  6
CONTINUOUS
  0
LAYER
  2
画層56
 70
    0
 62
7
  6
CONTINUOUS
  0
LAYER
  2
画層57
 70
    0
 62
7
  6
CONTINUOUS
  0
LAYER
  2
画層58
 70
    0
 62
7
  6
CONTINUOUS
  0
LAYER
  2
画層59
 70
    0
 62
7
  6
CONTINUOUS
  0
LAYER
  2
画層60
 70
    0
 62
7
  6
CONTINUOUS
  0
LAYER
  2
画層61
 70
    0
 62
7
  6
CONTINUOUS
  0
LAYER
  2
画層62
 70
    0
 62
7
  6
CONTINUOUS
  0
LAYER
  2
画層63
 70
    0
 62
7
  6
CONTINUOUS
  0
LAYER
  2
画層64
 70
    0
 62
7
  6
CONTINUOUS
  0
LAYER
  2
画層65
 70
    0
 62
7
  6
CONTINUOUS
  0
LAYER
  2
画層66
 70
    0
 62
7
  6
CONTINUOUS
  0
LAYER
  2
画層67
 70
    0
 62
7
  6
CONTINUOUS
  0
LAYER
  2
画層68
 70
    0
 62
7
  6
CONTINUOUS
  0
LAYER
  2
画層69
 70
    0
 62
7
  6
CONTINUOUS
  0
LAYER
  2
画層70
 70
    0
 62
7
  6
CONTINUOUS
  0
LAYER
  2
画層71
 70
    0
 62
7
  6
CONTINUOUS
  0
LAYER
  2
画層72
 70
    0
 62
7
  6
CONTINUOUS
  0
LAYER
  2
画層73
 70
    0
 62
7
  6
CONTINUOUS
  0
LAYER
  2
画層74
 70
    0
 62
7
  6
CONTINUOUS
  0
LAYER
  2
画層75
 70
    0
 62
7
  6
CONTINUOUS
  0
LAYER
  2
画層76
 70
    0
 62
7
  6
CONTINUOUS
  0
LAYER
  2
画層77
 70
    0
 62
7
  6
CONTINUOUS
  0
LAYER
  2
画層78
 70
    0
 62
7
  6
CONTINUOUS
  0
LAYER
  2
画層79
 70
    0
 62
7
  6
CONTINUOUS
  0
LAYER
  2
画層80
 70
    0
 62
7
  6
CONTINUOUS
  0
LAYER
  2
画層81
 70
    0
 62
7
  6
CONTINUOUS
  0
LAYER
  2
画層82
 70
    0
 62
7
  6
CONTINUOUS
  0
LAYER
  2
画層83
 70
    0
 62
7
  6
CONTINUOUS
  0
LAYER
  2
画層84
 70
    0
 62
7
  6
CONTINUOUS
  0
LAYER
  2
画層85
 70
    0
 62
7
  6
CONTINUOUS
  0
LAYER
  2
画層86
 70
    0
 62
7
  6
CONTINUOUS
  0
LAYER
  2
画層87
 70
    0
 62
7
  6
CONTINUOUS
  0
LAYER
  2
画層88
 70
    0
 62
7
  6
CONTINUOUS
  0
LAYER
  2
画層89
 70
    0
 62
7
  6
CONTINUOUS
  0
LAYER
  2
画層90
 70
    0
 62
7
  6
CONTINUOUS
  0
LAYER
  2
画層91
 70
    0
 62
7
  6
CONTINUOUS
  0
LAYER
  2
画層92
 70
    0
 62
7
  6
CONTINUOUS
  0
LAYER
  2
画層93
 70
    0
 62
7
  6
CONTINUOUS
  0
LAYER
  2
画層94
 70
    0
 62
7
  6
CONTINUOUS
  0
LAYER
  2
画層95
 70
    0
 62
7
  6
CONTINUOUS
  0
LAYER
  2
画層96
 70
    0
 62
7
  6
CONTINUOUS
  0
LAYER
  2
画層97
 70
    0
 62
7
  6
CONTINUOUS
  0
LAYER
  2
画層98
 70
    0
 62
7
  6
CONTINUOUS
  0
LAYER
  2
画層99
 70
    0
 62
7
  6
CONTINUOUS
  0
LAYER
  2
画層100
 70
    0
 62
7
  6
CONTINUOUS
  0
LAYER
  2
画層101
 70
    0
 62
7
  6
CONTINUOUS
  0
LAYER
  2
画層102
 70
    0
 62
7
  6
CONTINUOUS
  0
LAYER
  2
画層103
 70
    0
 62
7
  6
CONTINUOUS
  0
LAYER
  2
画層104
 70
    0
 62
7
  6
CONTINUOUS
  0
LAYER
  2
画層105
 70
    0
 62
7
  6
CONTINUOUS
  0
LAYER
  2
画層106
 70
    0
 62
7
  6
CONTINUOUS
  0
LAYER
  2
画層107
 70
    0
 62
7
  6
CONTINUOUS
  0
LAYER
  2
画層108
 70
    0
 62
7
  6
CONTINUOUS
  0
LAYER
  2
画層109
 70
    0
 62
7
  6
CONTINUOUS
  0
LAYER
  2
画層110
 70
    0
 62
7
  6
CONTINUOUS
  0
LAYER
  2
画層111
 70
    0
 62
7
  6
CONTINUOUS
  0
LAYER
  2
画層112
 70
    0
 62
7
  6
CONTINUOUS
  0
LAYER
  2
画層113
 70
    0
 62
7
  6
CONTINUOUS
  0
LAYER
  2
画層114
 70
    0
 62
7
  6
CONTINUOUS
  0
LAYER
  2
画層115
 70
    0
 62
7
  6
CONTINUOUS
  0
LAYER
  2
画層116
 70
    0
 62
7
  6
CONTINUOUS
  0
LAYER
  2
画層117
 70
    0
 62
7
  6
CONTINUOUS
  0
LAYER
  2
画層118
 70
    0
 62
7
  6
CONTINUOUS
  0
LAYER
  2
画層119
 70
    0
 62
7
  6
CONTINUOUS
  0
LAYER
  2
画層120
 70
    0
 62
7
  6
CONTINUOUS
  0
LAYER
  2
画層121
 70
    0
 62
7
  6
CONTINUOUS
  0
LAYER
  2
画層122
 70
    0
 62
7
  6
CONTINUOUS
  0
LAYER
  2
画層123
 70
    0
 62
7
  6
CONTINUOUS
  0
LAYER
  2
画層124
 70
    0
 62
7
  6
CONTINUOUS
  0
LAYER
  2
画層125
 70
    0
 62
7
  6
CONTINUOUS
  0
LAYER
  2
画層126
 70
    0
 62
7
  6
CONTINUOUS
  0
LAYER
  2
画層127
 70
    0
 62
7
  6
CONTINUOUS
  0
LAYER
  2
画層128
 70
    0
 62
7
  6
CONTINUOUS
  0
LAYER
  2
画層129
 70
    0
 62
7
  6
CONTINUOUS
  0
LAYER
  2
画層130
 70
    0
 62
7
  6
CONTINUOUS
  0
LAYER
  2
画層131
 70
    0
 62
7
  6
CONTINUOUS
  0
LAYER
  2
画層132
 70
    0
 62
7
  6
CONTINUOUS
  0
LAYER
  2
画層133
 70
    0
 62
7
  6
CONTINUOUS
  0
LAYER
  2
画層134
 70
    0
 62
7
  6
CONTINUOUS
  0
LAYER
  2
画層135
 70
    0
 62
7
  6
CONTINUOUS
  0
LAYER
  2
画層136
 70
    0
 62
7
  6
CONTINUOUS
  0
LAYER
  2
画層137
 70
    0
 62
7
  6
CONTINUOUS
  0
LAYER
  2
画層138
 70
    0
 62
7
  6
CONTINUOUS
  0
LAYER
  2
画層139
 70
    0
 62
7
  6
CONTINUOUS
  0
LAYER
  2
画層140
 70
    0
 62
7
  6
CONTINUOUS
  0
LAYER
  2
画層141
 70
    0
 62
7
  6
CONTINUOUS
  0
LAYER
  2
画層142
 70
    0
 62
7
  6
CONTINUOUS
  0
LAYER
  2
画層143
 70
    0
 62
7
  6
CONTINUOUS
  0
LAYER
  2
画層144
 70
    0
 62
7
  6
CONTINUOUS
  0
LAYER
  2
画層145
 70
    0
 62
7
  6
CONTINUOUS
  0
LAYER
  2
画層146
 70
    0
 62
7
  6
CONTINUOUS
  0
LAYER
  2
画層147
 70
    0
 62
7
  6
CONTINUOUS
  0
LAYER
  2
画層148
 70
    0
 62
7
  6
CONTINUOUS
  0
LAYER
  2
画層149
 70
    0
 62
7
  6
CONTINUOUS
  0
LAYER
  2
画層150
 70
    0
 62
7
  6
CONTINUOUS
  0
LAYER
  2
画層151
 70
    0
 62
7
  6
CONTINUOUS
  0
LAYER
  2
画層152
 70
    0
 62
7
  6
CONTINUOUS
  0
LAYER
  2
画層153
 70
    0
 62
7
  6
CONTINUOUS
  0
LAYER
  2
画層154
 70
    0
 62
7
  6
CONTINUOUS
  0
LAYER
  2
画層155
 70
    0
 62
7
  6
CONTINUOUS
  0
LAYER
  2
画層156
 70
    0
 62
7
  6
CONTINUOUS
  0
LAYER
  2
画層157
 70
    0
 62
7
  6
CONTINUOUS
  0
LAYER
  2
画層158
 70
    0
 62
7
  6
CONTINUOUS
  0
LAYER
  2
画層159
 70
    0
 62
7
  6
CONTINUOUS
  0
LAYER
  2
画層160
 70
    0
 62
7
  6
CONTINUOUS
  0
LAYER
  2
画層161
 70
    0
 62
7
  6
CONTINUOUS
  0
LAYER
  2
画層162
 70
    0
 62
7
  6
CONTINUOUS
  0
LAYER
  2
画層163
 70
    0
 62
7
  6
CONTINUOUS
  0
LAYER
  2
画層164
 70
    0
 62
7
  6
CONTINUOUS
  0
LAYER
  2
画層165
 70
    0
 62
7
  6
CONTINUOUS
  0
LAYER
  2
画層166
 70
    0
 62
7
  6
CONTINUOUS
  0
LAYER
  2
画層167
 70
    0
 62
7
  6
CONTINUOUS
  0
LAYER
  2
画層168
 70
    0
 62
7
  6
CONTINUOUS
  0
LAYER
  2
画層169
 70
    0
 62
7
  6
CONTINUOUS
  0
LAYER
  2
画層170
 70
    0
 62
7
  6
CONTINUOUS
  0
LAYER
  2
画層171
 70
    0
 62
7
  6
CONTINUOUS
  0
LAYER
  2
画層172
 70
    0
 62
7
  6
CONTINUOUS
  0
LAYER
  2
画層173
 70
    0
 62
7
  6
CONTINUOUS
  0
LAYER
  2
画層174
 70
    0
 62
7
  6
CONTINUOUS
  0
LAYER
  2
画層175
 70
    0
 62
7
  6
CONTINUOUS
  0
LAYER
  2
画層176
 70
    0
 62
7
  6
CONTINUOUS
  0
LAYER
  2
画層177
 70
    0
 62
7
  6
CONTINUOUS
  0
LAYER
  2
画層178
 70
    0
 62
7
  6
CONTINUOUS
  0
LAYER
  2
画層179
 70
    0
 62
7
  6
CONTINUOUS
  0
LAYER
  2
画層180
 70
    0
 62
7
  6
CONTINUOUS
  0
LAYER
  2
画層181
 70
    0
 62
7
  6
CONTINUOUS
  0
LAYER
  2
画層182
 70
    0
 62
7
  6
CONTINUOUS
  0
LAYER
  2
画層183
 70
    0
 62
7
  6
CONTINUOUS
  0
LAYER
  2
画層184
 70
    0
 62
7
  6
CONTINUOUS
  0
LAYER
  2
画層185
 70
    0
 62
7
  6
CONTINUOUS
  0
LAYER
  2
画層186
 70
    0
 62
7
  6
CONTINUOUS
  0
LAYER
  2
画層187
 70
    0
 62
7
  6
CONTINUOUS
  0
LAYER
  2
画層188
 70
    0
 62
7
  6
CONTINUOUS
  0
LAYER
  2
画層189
 70
    0
 62
7
  6
CONTINUOUS
  0
LAYER
  2
画層190
 70
    0
 62
7
  6
CONTINUOUS
  0
LAYER
  2
画層191
 70
    0
 62
7
  6
CONTINUOUS
  0
LAYER
  2
画層192
 70
    0
 62
7
  6
CONTINUOUS
  0
LAYER
  2
画層193
 70
    0
 62
7
  6
CONTINUOUS
  0
LAYER
  2
画層194
 70
    0
 62
7
  6
CONTINUOUS
  0
LAYER
  2
画層195
 70
    0
 62
7
  6
CONTINUOUS
  0
LAYER
  2
画層196
 70
    0
 62
7
  6
CONTINUOUS
  0
LAYER
  2
画層197
 70
    0
 62
7
  6
CONTINUOUS
  0
LAYER
  2
画層198
 70
    0
 62
7
  6
CONTINUOUS
  0
LAYER
  2
画層199
 70
    0
 62
7
  6
CONTINUOUS
  0
LAYER
  2
画層200
 70
    0
 62
7
  6
CONTINUOUS
  0
LAYER
  2
画層201
 70
    0
 62
7
  6
CONTINUOUS
  0
LAYER
  2
画層202
 70
    0
 62
7
  6
CONTINUOUS
  0
LAYER
  2
画層203
 70
    0
 62
7
  6
CONTINUOUS
  0
LAYER
  2
画層204
 70
    0
 62
7
  6
CONTINUOUS
  0
LAYER
  2
画層205
 70
    0
 62
7
  6
CONTINUOUS
  0
LAYER
  2
画層206
 70
    0
 62
7
  6
CONTINUOUS
  0
LAYER
  2
画層207
 70
    0
 62
7
  6
CONTINUOUS
  0
LAYER
  2
画層208
 70
    0
 62
7
  6
CONTINUOUS
  0
LAYER
  2
画層209
 70
    0
 62
7
  6
CONTINUOUS
  0
LAYER
  2
画層210
 70
    0
 62
7
  6
CONTINUOUS
  0
LAYER
  2
画層211
 70
    0
 62
7
  6
CONTINUOUS
  0
LAYER
  2
画層212
 70
    0
 62
7
  6
CONTINUOUS
  0
LAYER
  2
画層213
 70
    0
 62
7
  6
CONTINUOUS
  0
LAYER
  2
画層214
 70
    0
 62
7
  6
CONTINUOUS
  0
LAYER
  2
画層215
 70
    0
 62
7
  6
CONTINUOUS
  0
LAYER
  2
画層216
 70
    0
 62
7
  6
CONTINUOUS
  0
LAYER
  2
画層217
 70
    0
 62
7
  6
CONTINUOUS
  0
LAYER
  2
画層218
 70
    0
 62
7
  6
CONTINUOUS
  0
LAYER
  2
画層219
 70
    0
 62
7
  6
CONTINUOUS
  0
LAYER
  2
画層220
 70
    0
 62
7
  6
CONTINUOUS
  0
LAYER
  2
画層221
 70
    0
 62
7
  6
CONTINUOUS
  0
LAYER
  2
画層222
 70
    0
 62
7
  6
CONTINUOUS
  0
LAYER
  2
画層223
 70
    0
 62
7
  6
CONTINUOUS
  0
LAYER
  2
画層224
 70
    0
 62
7
  6
CONTINUOUS
  0
LAYER
  2
画層225
 70
    0
 62
7
  6
CONTINUOUS
  0
LAYER
  2
画層226
 70
    0
 62
7
  6
CONTINUOUS
  0
LAYER
  2
画層227
 70
    0
 62
7
  6
CONTINUOUS
  0
LAYER
  2
画層228
 70
    0
 62
7
  6
CONTINUOUS
  0
LAYER
  2
画層229
 70
    0
 62
7
  6
CONTINUOUS
  0
LAYER
  2
画層230
 70
    0
 62
7
  6
CONTINUOUS
  0
LAYER
  2
画層231
 70
    0
 62
7
  6
CONTINUOUS
  0
LAYER
  2
画層232
 70
    0
 62
7
  6
CONTINUOUS
  0
LAYER
  2
画層233
 70
    0
 62
7
  6
CONTINUOUS
  0
LAYER
  2
画層234
 70
    0
 62
7
  6
CONTINUOUS
  0
LAYER
  2
画層235
 70
    0
 62
7
  6
CONTINUOUS
  0
LAYER
  2
画層236
 70
    0
 62
7
  6
CONTINUOUS
  0
LAYER
  2
画層237
 70
    0
 62
7
  6
CONTINUOUS
  0
LAYER
  2
画層238
 70
    0
 62
7
  6
CONTINUOUS
  0
LAYER
  2
画層239
 70
    0
 62
7
  6
CONTINUOUS
  0
LAYER
  2
画層240
 70
    0
 62
7
  6
CONTINUOUS
  0
LAYER
  2
画層241
 70
    0
 62
7
  6
CONTINUOUS
  0
LAYER
  2
画層242
 70
    0
 62
7
  6
CONTINUOUS
  0
LAYER
  2
画層243
 70
    0
 62
7
  6
CONTINUOUS
  0
LAYER
  2
画層244
 70
    0
 62
7
  6
CONTINUOUS
  0
LAYER
  2
画層245
 70
    0
 62
7
  6
CONTINUOUS
  0
LAYER
  2
画層246
 70
    0
 62
7
  6
CONTINUOUS
  0
LAYER
  2
画層247
 70
    0
 62
7
  6
CONTINUOUS
  0
LAYER
  2
画層248
 70
    0
 62
7
  6
CONTINUOUS
  0
LAYER
  2
画層249
 70
    0
 62
7
  6
CONTINUOUS
  0
LAYER
  2
画層250
 70
    0
 62
7
  6
CONTINUOUS
  0
LAYER
  2
画層251
 70
    0
 62
7
  6
CONTINUOUS
  0
LAYER
  2
画層252
 70
    0
 62
7
  6
CONTINUOUS
  0
LAYER
  2
画層253
 70
    0
 62
7
  6
CONTINUOUS
  0
LAYER
  2
画層254
 70
    0
 62
7
  6
CONTINUOUS
  0
LAYER
  2
画層255
 70
    0
 62
7
  6
CONTINUOUS
  0
LAYER
  2
0
 70
   64
 62
    7
  6
CONTINUOUS
  0
ENDTAB
  0
TABLE
  2
STYLE
 70
     1
  0
STYLE
  2
Standard
 70
     0
 40
0.0
 41
1.0
 50
0.0
 71
     0
 42
3.2
  3
TXT
  4
BIGFONT
  0
STYLE
  2
Font_0
 70
     0
 40
0.0
 41
1.0
 50
0.0
 71
     0
 42
3.2
  3
txt
  4
BIGFONT
  0
ENDTAB
  0
ENDSEC
  0
SECTION
  2
ENTITIES
  0
LINE
  8
画層15
  6
CONTINUOUS
 10
250
 20
380
 11
250
 21
375
  0
LINE
  8
画層15
  6
CONTINUOUS
 10
350
 20
130
 11
500
 21
130
  0
LINE
  8
画層15
  6
CONTINUOUS
 10
600
 20
230
 11
600
 21
235
  0
LINE
  8
画層15
  6
CONTINUOUS
 10
600
 20
375
 11
600
 21
380
  0
LINE
  8
画層15
  6
CONTINUOUS
 10
350
 20
480
 11
500
 21
480
  0
LINE
  8
画層15
  6
CONTINUOUS
 10
504.998356104543
 20
130
 11
600
 21
224.996771034067
  0
LINE
  8
画層15
  6
CONTINUOUS
 10
600
 20
384.996334906118
 11
504.997549275172
 21
480
  0
LINE
  8
画層15
  6
CONTINUOUS
 10
250
 20
224.998807336096
 11
345.002885458578
 21
130
  0
LINE
  8
画層15
  6
CONTINUOUS
 10
600
 20
224.996771034067
 11
600
 21
230
  0
LINE
  8
画層15
  6
CONTINUOUS
 10
504.998356104543
 20
130
 11
500
 21
130
  0
LINE
  8
画層15
  6
CONTINUOUS
 10
345.002885458578
 20
130
 11
350
 21
130
  0
LINE
  8
画層15
  6
CONTINUOUS
 10
250
 20
224.998807336096
 11
250
 21
230
  0
LINE
  8
画層15
  6
CONTINUOUS
 10
250
 20
230
 11
250
 21
235
  0
LINE
  8
画層15
  6
CONTINUOUS
 10
250
 20
380
 11
250
 21
385.002455342156
  0
LINE
  8
画層15
  6
CONTINUOUS
 10
350
 20
480
 11
345.000495294151
 21
480
  0
LINE
  8
画層15
  6
CONTINUOUS
 10
345.000495294151
 20
480
 11
250
 21
385.002455342156
  0
LINE
  8
画層15
  6
CONTINUOUS
 10
504.997549275172
 20
480
 11
500
 21
480
  0
LINE
  8
画層15
  6
CONTINUOUS
 10
600
 20
384.996334906118
 11
600
 21
380
  0
LINE
  8
画層15
  6
CONTINUOUS
 10
250
 20
375
 11
250
 21
235
  0
LINE
  8
画層15
  6
CONTINUOUS
 10
600
 20
235
 11
600
 21
375
  0
CIRCLE
  8
画層5
  6
CONTINUOUS
 10
350
 20
350
 40
1.50114585100812
  0
CIRCLE
  8
画層5
  6
CONTINUOUS
 10
405.000260283222
 20
350
 40
1.50114585100812
  0
CIRCLE
  8
画層5
  6
CONTINUOUS
 10
350
 20
260
 40
1.50114585100812
  0
CIRCLE
  8
画層5
  6
CONTINUOUS
 10
500
 20
260
 40
1.50114585100812
  0
CIRCLE
  8
画層5
  6
CONTINUOUS
 10
500
 20
350
 40
1.50114585100812
  0
CIRCLE
  8
画層5
  6
CONTINUOUS
 10
445.002762080683
 20
350
 40
1.50114585100812
  0
CIRCLE
  8
画層5
  6
CONTINUOUS
 10
350
 20
380
 40
1.50114585100812
  0
CIRCLE
  8
画層5
  6
CONTINUOUS
 10
500
 20
380
 40
1.50114585100812
  0
CIRCLE
  8
画層5
  6
CONTINUOUS
 10
500
 20
230
 40
1.50114585100812
  0
CIRCLE
  8
画層5
  6
CONTINUOUS
 10
350
 20
230
 40
1.50114585100812
  0
CIRCLE
  8
画層5
  6
CONTINUOUS
 10
377.499961769134
 20
235
 40
1.50114585100812
  0
CIRCLE
  8
画層5
  6
CONTINUOUS
 10
472.499976319975
 20
235
 40
1.50114585100812
  0
CIRCLE
  8
画層5
  6
CONTINUOUS
 10
517.506871614843
 20
372.496602370964
 40
1.50114585100812
  0
CIRCLE
  8
画層5
  6
CONTINUOUS
 10
547.504301347393
 20
372.496602370964
 40
1.50114585100812
  0
CIRCLE
  8
画層5
  6
CONTINUOUS
 10
562.50538405726
 20
372.496602370964
 40
1.50114585100812
  0
CIRCLE
  8
画層5
  6
CONTINUOUS
 10
592.499809579889
 20
372.496602370964
 40
1.50114585100812
  0
CIRCLE
  8
画層5
  6
CONTINUOUS
 10
517.506871614843
 20
357.493648419899
 40
1.50114585100812
  0
CIRCLE
  8
画層5
  6
CONTINUOUS
 10
547.504301347393
 20
357.493648419899
 40
1.50114585100812
  0
CIRCLE
  8
画層5
  6
CONTINUOUS
 10
562.50538405726
 20
357.493648419899
 40
1.50114585100812
  0
CIRCLE
  8
画層5
  6
CONTINUOUS
 10
592.499809579889
 20
357.493648419899
 40
1.50114585100812
  0
CIRCLE
  8
画層5
  6
CONTINUOUS
 10
547.504301347393
 20
342.497269827564
 40
1.50114585100812
  0
CIRCLE
  8
画層5
  6
CONTINUOUS
 10
592.499809579889
 20
342.497269827564
 40
1.50114585100812
  0
CIRCLE
  8
画層5
  6
CONTINUOUS
 10
592.499809579889
 20
327.500027005632
 40
1.50114585100812
  0
CIRCLE
  8
画層5
  6
CONTINUOUS
 10
547.504301347393
 20
327.500027005632
 40
1.50114585100812
  0
CIRCLE
  8
画層5
  6
CONTINUOUS
 10
592.499809579889
 20
312.495974783109
 40
1.50114585100812
  0
CIRCLE
  8
画層5
  6
CONTINUOUS
 10
562.50538405726
 20
312.495974783109
 40
1.50114585100812
  0
CIRCLE
  8
画層5
  6
CONTINUOUS
 10
547.504301347393
 20
312.495974783109
 40
1.50114585100812
  0
CIRCLE
  8
画層5
  6
CONTINUOUS
 10
592.499809579889
 20
297.500196471095
 40
1.50114585100812
  0
CIRCLE
  8
画層5
  6
CONTINUOUS
 10
562.50538405726
 20
297.500196471095
 40
1.50114585100812
  0
CIRCLE
  8
画層5
  6
CONTINUOUS
 10
547.504301347393
 20
297.500196471095
 40
1.50114585100812
  0
CIRCLE
  8
画層5
  6
CONTINUOUS
 10
592.499809579889
 20
282.504673890789
 40
1.50114585100812
  0
CIRCLE
  8
画層5
  6
CONTINUOUS
 10
547.504301347393
 20
282.504673890789
 40
1.50114585100812
  0
CIRCLE
  8
画層5
  6
CONTINUOUS
 10
592.499809579889
 20
267.506580451589
 40
1.50114585100812
  0
CIRCLE
  8
画層5
  6
CONTINUOUS
 10
547.504301347393
 20
267.506580451589
 40
1.50114585100812
  0
CIRCLE
  8
画層5
  6
CONTINUOUS
 10
592.499809579889
 20
252.504939425672
 40
1.50114585100812
  0
CIRCLE
  8
画層5
  6
CONTINUOUS
 10
562.50538405726
 20
252.504939425672
 40
1.50114585100812
  0
CIRCLE
  8
画層5
  6
CONTINUOUS
 10
547.504301347393
 20
252.504939425672
 40
1.50114585100812
  0
CIRCLE
  8
画層5
  6
CONTINUOUS
 10
517.506871614843
 20
252.504939425672
 40
1.50114585100812
  0
CIRCLE
  8
画層5
  6
CONTINUOUS
 10
592.499809579889
 20
237.502161824606
 40
1.50114585100812
  0
CIRCLE
  8
画層5
  6
CONTINUOUS
 10
562.50538405726
 20
237.502161824606
 40
1.50114585100812
  0
CIRCLE
  8
画層5
  6
CONTINUOUS
 10
547.504301347393
 20
237.502161824606
 40
1.50114585100812
  0
CIRCLE
  8
画層5
  6
CONTINUOUS
 10
517.506871614843
 20
237.502161824606
 40
1.50114585100812
  0
CIRCLE
  8
画層5
  6
CONTINUOUS
 10
573.703939936945
 20
209.314001740674
 40
1.50114585100812
  0
CIRCLE
  8
画層5
  6
CONTINUOUS
 10
563.099553455008
 20
198.70970513026
 40
1.50114585100812
  0
CIRCLE
  8
画層5
  6
CONTINUOUS
 10
531.279551387384
 20
166.889837830711
 40
1.50114585100812
  0
CIRCLE
  8
画層5
  6
CONTINUOUS
 10
520.669766172916
 20
156.28005259409
 40
1.50114585100812
  0
CIRCLE
  8
画層5
  6
CONTINUOUS
 10
257.499791051015
 20
237.502161824606
 40
1.50114585100812
  0
CIRCLE
  8
画層5
  6
CONTINUOUS
 10
287.498043669659
 20
237.502161824606
 40
1.50114585100812
  0
CIRCLE
  8
画層5
  6
CONTINUOUS
 10
302.50237801207
 20
237.502161824606
 40
1.50114585100812
  0
CIRCLE
  8
画層5
  6
CONTINUOUS
 10
332.500616481085
 20
237.502161824606
 40
1.50114585100812
  0
CIRCLE
  8
画層5
  6
CONTINUOUS
 10
257.499791051015
 20
252.504939425672
 40
1.50114585100812
  0
CIRCLE
  8
画層5
  6
CONTINUOUS
 10
287.498043669659
 20
252.504939425672
 40
1.50114585100812
  0
CIRCLE
  8
画層5
  6
CONTINUOUS
 10
302.50237801207
 20
252.504939425672
 40
1.50114585100812
  0
CIRCLE
  8
画層5
  6
CONTINUOUS
 10
332.500616481085
 20
252.504939425672
 40
1.50114585100812
  0
CIRCLE
  8
画層5
  6
CONTINUOUS
 10
257.499791051015
 20
267.506580451589
 40
1.50114585100812
  0
CIRCLE
  8
画層5
  6
CONTINUOUS
 10
302.50237801207
 20
267.506580451589
 40
1.50114585100812
  0
CIRCLE
  8
画層5
  6
CONTINUOUS
 10
257.499791051015
 20
282.504673890789
 40
1.50114585100812
  0
CIRCLE
  8
画層5
  6
CONTINUOUS
 10
302.50237801207
 20
282.504673890789
 40
1.50114585100812
  0
CIRCLE
  8
画層5
  6
CONTINUOUS
 10
257.499791051015
 20
297.500196471095
 40
1.50114585100812
  0
CIRCLE
  8
画層5
  6
CONTINUOUS
 10
287.498043669659
 20
297.500196471095
 40
1.50114585100812
  0
CIRCLE
  8
画層5
  6
CONTINUOUS
 10
302.50237801207
 20
297.500196471095
 40
1.50114585100812
  0
CIRCLE
  8
画層5
  6
CONTINUOUS
 10
257.499791051015
 20
312.495974783109
 40
1.50114585100812
  0
CIRCLE
  8
画層5
  6
CONTINUOUS
 10
287.503511540463
 20
312.495974783109
 40
1.50114585100812
  0
CIRCLE
  8
画層5
  6
CONTINUOUS
 10
302.50237801207
 20
312.495974783109
 40
1.50114585100812
  0
CIRCLE
  8
画層5
  6
CONTINUOUS
 10
257.499791051015
 20
327.500027005632
 40
1.50114585100812
  0
CIRCLE
  8
画層5
  6
CONTINUOUS
 10
302.50237801207
 20
327.500027005632
 40
1.50114585100812
  0
CIRCLE
  8
画層5
  6
CONTINUOUS
 10
257.499791051015
 20
342.497269827564
 40
1.50114585100812
  0
CIRCLE
  8
画層5
  6
CONTINUOUS
 10
302.50237801207
 20
342.497269827564
 40
1.50114585100812
  0
CIRCLE
  8
画層5
  6
CONTINUOUS
 10
257.499791051015
 20
357.493648419899
 40
1.50114585100812
  0
CIRCLE
  8
画層5
  6
CONTINUOUS
 10
287.503511540463
 20
357.493648419899
 40
1.50114585100812
  0
CIRCLE
  8
画層5
  6
CONTINUOUS
 10
302.50237801207
 20
357.493648419899
 40
1.50114585100812
  0
CIRCLE
  8
画層5
  6
CONTINUOUS
 10
332.500616481085
 20
357.493648419899
 40
1.50114585100812
  0
CIRCLE
  8
画層5
  6
CONTINUOUS
 10
257.499791051015
 20
372.496602370964
 40
1.50114585100812
  0
CIRCLE
  8
画層5
  6
CONTINUOUS
 10
287.503511540463
 20
372.496602370964
 40
1.50114585100812
  0
CIRCLE
  8
画層5
  6
CONTINUOUS
 10
302.50237801207
 20
372.496602370964
 40
1.50114585100812
  0
CIRCLE
  8
画層5
  6
CONTINUOUS
 10
332.500616481085
 20
372.496602370964
 40
1.50114585100812
  0
CIRCLE
  8
画層5
  6
CONTINUOUS
 10
417.499779734828
 20
137.498457879236
 40
1.50114585100812
  0
CIRCLE
  8
画層5
  6
CONTINUOUS
 10
402.4951479178
 20
137.498457879236
 40
1.50114585100812
  0
CIRCLE
  8
画層5
  6
CONTINUOUS
 10
387.498948478035
 20
137.498457879236
 40
1.50114585100812
  0
CIRCLE
  8
画層5
  6
CONTINUOUS
 10
372.501034135377
 20
137.498457879236
 40
1.50114585100812
  0
CIRCLE
  8
画層5
  6
CONTINUOUS
 10
357.504510110543
 20
137.498457879236
 40
1.50114585100812
  0
CIRCLE
  8
画層5
  6
CONTINUOUS
 10
417.499779734828
 20
167.498184265082
 40
1.50114585100812
  0
CIRCLE
  8
画層5
  6
CONTINUOUS
 10
417.499779734828
 20
182.50041514902
 40
1.50114585100812
  0
CIRCLE
  8
画層5
  6
CONTINUOUS
 10
402.4951479178
 20
182.50041514902
 40
1.50114585100812
  0
CIRCLE
  8
画層5
  6
CONTINUOUS
 10
387.498948478035
 20
182.50041514902
 40
1.50114585100812
  0
CIRCLE
  8
画層5
  6
CONTINUOUS
 10
372.501034135377
 20
182.50041514902
 40
1.50114585100812
  0
CIRCLE
  8
画層5
  6
CONTINUOUS
 10
372.501034135377
 20
167.498184265082
 40
1.50114585100812
  0
CIRCLE
  8
画層5
  6
CONTINUOUS
 10
357.504510110543
 20
167.498184265082
 40
1.50114585100812
  0
CIRCLE
  8
画層5
  6
CONTINUOUS
 10
357.504510110543
 20
182.50041514902
 40
1.50114585100812
  0
CIRCLE
  8
画層5
  6
CONTINUOUS
 10
357.504510110543
 20
212.500865990152
 40
1.50114585100812
  0
CIRCLE
  8
画層5
  6
CONTINUOUS
 10
372.501034135377
 20
212.500865990152
 40
1.50114585100812
  0
CIRCLE
  8
画層5
  6
CONTINUOUS
 10
432.50223290383
 20
137.498457879236
 40
1.50114585100812
  0
CIRCLE
  8
画層5
  6
CONTINUOUS
 10
432.50223290383
 20
167.498184265082
 40
1.50114585100812
  0
CIRCLE
  8
画層5
  6
CONTINUOUS
 10
432.50223290383
 20
182.50041514902
 40
1.50114585100812
  0
CIRCLE
  8
画層5
  6
CONTINUOUS
 10
447.501282723072
 20
182.50041514902
 40
1.50114585100812
  0
CIRCLE
  8
画層5
  6
CONTINUOUS
 10
447.501282723072
 20
137.498457879236
 40
1.50114585100812
  0
CIRCLE
  8
画層5
  6
CONTINUOUS
 10
462.501153208997
 20
137.498457879236
 40
1.50114585100812
  0
CIRCLE
  8
画層5
  6
CONTINUOUS
 10
462.501153208997
 20
182.50041514902
 40
1.50114585100812
  0
CIRCLE
  8
画層5
  6
CONTINUOUS
 10
477.499206640811
 20
182.50041514902
 40
1.50114585100812
  0
CIRCLE
  8
画層5
  6
CONTINUOUS
 10
477.499206640811
 20
167.498184265082
 40
1.50114585100812
  0
CIRCLE
  8
画層5
  6
CONTINUOUS
 10
477.499206640811
 20
137.498457879236
 40
1.50114585100812
  0
CIRCLE
  8
画層5
  6
CONTINUOUS
 10
492.501238775324
 20
137.498457879236
 40
1.50114585100812
  0
CIRCLE
  8
画層5
  6
CONTINUOUS
 10
492.501238775324
 20
167.498184265082
 40
1.50114585100812
  0
CIRCLE
  8
画層5
  6
CONTINUOUS
 10
492.501238775324
 20
182.50041514902
 40
1.50114585100812
  0
CIRCLE
  8
画層5
  6
CONTINUOUS
 10
492.501238775324
 20
212.500865990152
 40
1.50114585100812
  0
CIRCLE
  8
画層5
  6
CONTINUOUS
 10
477.499206640811
 20
212.500865990152
 40
1.50114585100812
  0
CIRCLE
  8
画層5
  6
CONTINUOUS
 10
329.320992477989
 20
156.287631733397
 40
1.50114585100812
  0
CIRCLE
  8
画層5
  6
CONTINUOUS
 10
318.723096940342
 20
166.884537003104
 40
1.50114585100812
  0
CIRCLE
  8
画層5
  6
CONTINUOUS
 10
276.289667220771
 20
209.314001740674
 40
1.50114585100812
  0
CIRCLE
  8
画層5
  6
CONTINUOUS
 10
286.88753325648
 20
198.717125970149
 40
1.50114585100812
  0
CIRCLE
  8
画層5
  6
CONTINUOUS
 10
432.50223290383
 20
472.496209866806
 40
1.50114585100812
  0
CIRCLE
  8
画層5
  6
CONTINUOUS
 10
447.501282723072
 20
472.496209866806
 40
1.50114585100812
  0
CIRCLE
  8
画層5
  6
CONTINUOUS
 10
462.501153208997
 20
472.496209866806
 40
1.50114585100812
  0
CIRCLE
  8
画層5
  6
CONTINUOUS
 10
477.499206640811
 20
472.496209866806
 40
1.50114585100812
  0
CIRCLE
  8
画層5
  6
CONTINUOUS
 10
492.501238775324
 20
472.496209866806
 40
1.50114585100812
  0
CIRCLE
  8
画層5
  6
CONTINUOUS
 10
432.50223290383
 20
442.492678504554
 40
1.50114585100812
  0
CIRCLE
  8
画層5
  6
CONTINUOUS
 10
477.499206640811
 20
442.492678504554
 40
1.50114585100812
  0
CIRCLE
  8
画層5
  6
CONTINUOUS
 10
492.501238775324
 20
442.492678504554
 40
1.50114585100812
  0
CIRCLE
  8
画層5
  6
CONTINUOUS
 10
432.50223290383
 20
427.491868655547
 40
1.50114585100812
  0
CIRCLE
  8
画層5
  6
CONTINUOUS
 10
447.501282723072
 20
427.491868655547
 40
1.50114585100812
  0
CIRCLE
  8
画層5
  6
CONTINUOUS
 10
462.501153208997
 20
427.491868655547
 40
1.50114585100812
  0
CIRCLE
  8
画層5
  6
CONTINUOUS
 10
477.499206640811
 20
427.491868655547
 40
1.50114585100812
  0
CIRCLE
  8
画層5
  6
CONTINUOUS
 10
492.501238775324
 20
427.491868655547
 40
1.50114585100812
  0
CIRCLE
  8
画層5
  6
CONTINUOUS
 10
417.499779734828
 20
472.496209866806
 40
1.50114585100812
  0
CIRCLE
  8
画層5
  6
CONTINUOUS
 10
402.4951479178
 20
472.496209866806
 40
1.50114585100812
  0
CIRCLE
  8
画層5
  6
CONTINUOUS
 10
387.498948478035
 20
472.496209866806
 40
1.50114585100812
  0
CIRCLE
  8
画層5
  6
CONTINUOUS
 10
372.501034135377
 20
472.496209866806
 40
1.50114585100812
  0
CIRCLE
  8
画層5
  6
CONTINUOUS
 10
357.504510110543
 20
472.496209866806
 40
1.50114585100812
  0
CIRCLE
  8
画層5
  6
CONTINUOUS
 10
417.499779734828
 20
442.492678504554
 40
1.50114585100812
  0
CIRCLE
  8
画層5
  6
CONTINUOUS
 10
372.501034135377
 20
442.492678504554
 40
1.50114585100812
  0
CIRCLE
  8
画層5
  6
CONTINUOUS
 10
357.504510110543
 20
442.492678504554
 40
1.50114585100812
  0
CIRCLE
  8
画層5
  6
CONTINUOUS
 10
357.504510110543
 20
427.491868655547
 40
1.50114585100812
  0
CIRCLE
  8
画層5
  6
CONTINUOUS
 10
372.501034135377
 20
427.491868655547
 40
1.50114585100812
  0
CIRCLE
  8
画層5
  6
CONTINUOUS
 10
387.498948478035
 20
427.491868655547
 40
1.50114585100812
  0
CIRCLE
  8
画層5
  6
CONTINUOUS
 10
402.4951479178
 20
427.491868655547
 40
1.50114585100812
  0
CIRCLE
  8
画層5
  6
CONTINUOUS
 10
417.499779734828
 20
427.491868655547
 40
1.50114585100812
  0
CIRCLE
  8
画層5
  6
CONTINUOUS
 10
477.499206640811
 20
397.491728140777
 40
1.50114585100812
  0
CIRCLE
  8
画層5
  6
CONTINUOUS
 10
492.501238775324
 20
397.491728140777
 40
1.50114585100812
  0
CIRCLE
  8
画層5
  6
CONTINUOUS
 10
357.504510110543
 20
397.491728140777
 40
1.50114585100812
  0
CIRCLE
  8
画層5
  6
CONTINUOUS
 10
372.501034135377
 20
397.491728140777
 40
1.50114585100812
  0
CIRCLE
  8
画層5
  6
CONTINUOUS
 10
573.703939936945
 20
400.6898868067
 40
1.50114585100812
  0
CIRCLE
  8
画層5
  6
CONTINUOUS
 10
563.099553455008
 20
411.293881842167
 40
1.50114585100812
  0
CIRCLE
  8
画層5
  6
CONTINUOUS
 10
531.279551387384
 20
443.1127093178
 40
1.50114585100812
  0
CIRCLE
  8
画層5
  6
CONTINUOUS
 10
520.669766172916
 20
453.722102886513
 40
1.50114585100812
  0
CIRCLE
  8
画層5
  6
CONTINUOUS
 10
329.320992477989
 20
453.722102886513
 40
1.50114585100812
  0
CIRCLE
  8
画層5
  6
CONTINUOUS
 10
318.723096940342
 20
443.1127093178
 40
1.50114585100812
  0
CIRCLE
  8
画層5
  6
CONTINUOUS
 10
286.88753325648
 20
411.293881842167
 40
1.50114585100812
  0
CIRCLE
  8
画層5
  6
CONTINUOUS
 10
276.289667220771
 20
400.6898868067
 40
1.50114585100812
  0
CIRCLE
  8
画層5
  6
CONTINUOUS
 10
507.496281728967
 20
182.50041514902
 40
1.50114585100812
  0
CIRCLE
  8
画層5
  6
CONTINUOUS
 10
522.497857063587
 20
182.50041514902
 40
1.50114585100812
  0
CIRCLE
  8
画層5
  6
CONTINUOUS
 10
537.499432398208
 20
212.500865990152
 40
1.50114585100812
  0
CIRCLE
  8
画層5
  6
CONTINUOUS
 10
552.497431694068
 20
212.500865990152
 40
1.50114585100812
  0
LINE
  8
画層15
  6
CONTINUOUS
 10
540
 20
260
 11
510
 21
260
  0
LINE
  8
画層15
  6
CONTINUOUS
 10
510
 20
260
 11
510
 21
350
  0
LINE
  8
画層15
  6
CONTINUOUS
 10
510
 20
350
 11
540
 21
350
  0
LINE
  8
画層15
  6
CONTINUOUS
 10
540
 20
350
 11
540
 21
260
  0
LINE
  8
画層15
  6
CONTINUOUS
 10
470
 20
390
 11
470
 21
420
  0
LINE
  8
画層15
  6
CONTINUOUS
 10
380
 20
420
 11
470
 21
420
  0
LINE
  8
画層15
  6
CONTINUOUS
 10
380
 20
420
 11
380
 21
390
  0
LINE
  8
画層15
  6
CONTINUOUS
 10
380
 20
390
 11
470
 21
390
  0
LINE
  8
画層15
  6
CONTINUOUS
 10
340
 20
350
 11
310
 21
350
  0
LINE
  8
画層15
  6
CONTINUOUS
 10
310
 20
350
 11
310
 21
260
  0
LINE
  8
画層15
  6
CONTINUOUS
 10
310
 20
260
 11
340
 21
260
  0
LINE
  8
画層15
  6
CONTINUOUS
 10
340
 20
260
 11
340
 21
350
  0
LINE
  8
画層15
  6
CONTINUOUS
 10
380
 20
220
 11
380
 21
190
  0
LINE
  8
画層15
  6
CONTINUOUS
 10
380
 20
190
 11
470
 21
190
  0
LINE
  8
画層15
  6
CONTINUOUS
 10
470
 20
190
 11
470
 21
220
  0
LINE
  8
画層15
  6
CONTINUOUS
 10
470
 20
220
 11
380
 21
220
  0
CIRCLE
  8
画層5
  6
CONTINUOUS
 10
342.507468137968
 20
182.50041514902
 40
1.50114585100812
  0
CIRCLE
  8
画層5
  6
CONTINUOUS
 10
327.507283966985
 20
182.50041514902
 40
1.50114585100812
  0
CIRCLE
  8
画層5
  6
CONTINUOUS
 10
312.507099796003
 20
212.500865990152
 40
1.50114585100812
  0
CIRCLE
  8
画層5
  6
CONTINUOUS
 10
297.506591982507
 20
212.500865990152
 40
1.50114585100812
  0
CIRCLE
  8
画層5
  6
CONTINUOUS
 10
507.496281728967
 20
427.491868655547
 40
1.50114585100812
  0
CIRCLE
  8
画層5
  6
CONTINUOUS
 10
522.497857063587
 20
427.491868655547
 40
1.50114585100812
  0
CIRCLE
  8
画層5
  6
CONTINUOUS
 10
537.499432398208
 20
397.491728140777
 40
1.50114585100812
  0
CIRCLE
  8
画層5
  6
CONTINUOUS
 10
552.497431694068
 20
397.491728140777
 40
1.50114585100812
  0
CIRCLE
  8
画層5
  6
CONTINUOUS
 10
342.507468137968
 20
427.491868655547
 40
1.50114585100812
  0
CIRCLE
  8
画層5
  6
CONTINUOUS
 10
312.507099796003
 20
397.491728140777
 40
1.50114585100812
  0
CIRCLE
  8
画層5
  6
CONTINUOUS
 10
297.506591982507
 20
397.491728140777
 40
1.50114585100812
  0
CIRCLE
  8
画層5
  6
CONTINUOUS
 10
537.499432398208
 20
197.502646032957
 40
1.50114585100812
  0
CIRCLE
  8
画層5
  6
CONTINUOUS
 10
522.497857063587
 20
197.502646032957
 40
1.50114585100812
  0
CIRCLE
  8
画層5
  6
CONTINUOUS
 10
477.499206640811
 20
152.498321072159
 40
1.50114585100812
  0
CIRCLE
  8
画層5
  6
CONTINUOUS
 10
492.501238775324
 20
152.498321072159
 40
1.50114585100812
  0
CIRCLE
  8
画層5
  6
CONTINUOUS
 10
432.50223290383
 20
152.498321072159
 40
1.50114585100812
  0
CIRCLE
  8
画層5
  6
CONTINUOUS
 10
417.499779734828
 20
152.498321072159
 40
1.50114585100812
  0
CIRCLE
  8
画層5
  6
CONTINUOUS
 10
372.501034135377
 20
152.498321072159
 40
1.50114585100812
  0
CIRCLE
  8
画層5
  6
CONTINUOUS
 10
357.504510110543
 20
152.498321072159
 40
1.50114585100812
  0
CIRCLE
  8
画層5
  6
CONTINUOUS
 10
327.507283966985
 20
197.502646032958
 40
1.50114585100812
  0
CIRCLE
  8
画層5
  6
CONTINUOUS
 10
312.507099796003
 20
197.502646032958
 40
1.50114585100812
  0
CIRCLE
  8
画層5
  6
CONTINUOUS
 10
577.504496817456
 20
237.502161824606
 40
1.50114585100812
  0
CIRCLE
  8
画層5
  6
CONTINUOUS
 10
577.504496817456
 20
252.504939425672
 40
1.50114585100812
  0
CIRCLE
  8
画層5
  6
CONTINUOUS
 10
577.504496817456
 20
297.500196471095
 40
1.50114585100812
  0
CIRCLE
  8
画層5
  6
CONTINUOUS
 10
577.504496817456
 20
312.495974783109
 40
1.50114585100812
  0
CIRCLE
  8
画層5
  6
CONTINUOUS
 10
577.504496817456
 20
372.496602370964
 40
1.50114585100812
  0
CIRCLE
  8
画層5
  6
CONTINUOUS
 10
577.504496817456
 20
357.493648419899
 40
1.50114585100812
  0
CIRCLE
  8
画層5
  6
CONTINUOUS
 10
272.503994665819
 20
252.504939425672
 40
1.50114585100812
  0
CIRCLE
  8
画層5
  6
CONTINUOUS
 10
272.503994665819
 20
237.502161824606
 40
1.50114585100812
  0
CIRCLE
  8
画層5
  6
CONTINUOUS
 10
272.503994665819
 20
297.500196471095
 40
1.50114585100812
  0
CIRCLE
  8
画層5
  6
CONTINUOUS
 10
272.503994665819
 20
312.495974783109
 40
1.50114585100812
  0
CIRCLE
  8
画層5
  6
CONTINUOUS
 10
272.503994665819
 20
372.496602370964
 40
1.50114585100812
  0
CIRCLE
  8
画層5
  6
CONTINUOUS
 10
272.503994665819
 20
357.493648419899
 40
1.50114585100812
  0
CIRCLE
  8
画層5
  6
CONTINUOUS
 10
537.499432398208
 20
412.49105880654
 40
1.50114585100812
  0
CIRCLE
  8
画層5
  6
CONTINUOUS
 10
522.497857063587
 20
412.49105880654
 40
1.50114585100812
  0
CIRCLE
  8
画層5
  6
CONTINUOUS
 10
492.501238775324
 20
457.49444418568
 40
1.50114585100812
  0
CIRCLE
  8
画層5
  6
CONTINUOUS
 10
477.499206640811
 20
457.49444418568
 40
1.50114585100812
  0
CIRCLE
  8
画層5
  6
CONTINUOUS
 10
432.50223290383
 20
457.49444418568
 40
1.50114585100812
  0
CIRCLE
  8
画層5
  6
CONTINUOUS
 10
417.499779734828
 20
457.49444418568
 40
1.50114585100812
  0
CIRCLE
  8
画層5
  6
CONTINUOUS
 10
372.501034135377
 20
457.49444418568
 40
1.50114585100812
  0
CIRCLE
  8
画層5
  6
CONTINUOUS
 10
357.504510110543
 20
457.49444418568
 40
1.50114585100812
  0
CIRCLE
  8
画層5
  6
CONTINUOUS
 10
312.507099796003
 20
412.49105880654
 40
1.50114585100812
  0
LINE
  8
画層15
  6
CONTINUOUS
 10
425
 20
235
 11
414.996591508759
 21
235
  0
LINE
  8
画層15
  6
CONTINUOUS
 10
425
 20
235
 11
434.995413549507
 21
235
  0
LINE
  8
画層15
  6
CONTINUOUS
 10
414.996591508759
 20
375
 11
434.995413549507
 21
375
  0
LINE
  8
画層15
  6
CONTINUOUS
 10
414.996591508759
 20
310
 11
434.995413549507
 21
310
  0
LINE
  8
画層15
  6
CONTINUOUS
 10
414.996591508759
 20
300
 11
434.995413549507
 21
300
  0
LINE
  8
画層15
  6
CONTINUOUS
 10
414.996591508759
 20
375
 11
414.996591508759
 21
310
  0
LINE
  8
画層15
  6
CONTINUOUS
 10
434.995413549507
 20
375
 11
434.995413549507
 21
310
  0
LINE
  8
画層15
  6
CONTINUOUS
 10
414.996591508759
 20
300
 11
414.996591508759
 21
235
  0
LINE
  8
画層15
  6
CONTINUOUS
 10
434.995413549507
 20
300
 11
434.995413549507
 21
235
  0
CIRCLE
  8
画層5
  6
CONTINUOUS
 10
377.499549120604
 20
342.497269827564
 40
1.50114585100812
  0
CIRCLE
  8
画層5
  6
CONTINUOUS
 10
472.509404855665
 20
342.497269827564
 40
1.50114585100812
  0
CIRCLE
  8
画層5
  6
CONTINUOUS
 10
472.509404855665
 20
267.506580451589
 40
1.50114585100812
  0
CIRCLE
  8
画層5
  6
CONTINUOUS
 10
377.499549120604
 20
267.506580451589
 40
1.50114585100812
  0
LINE
  8
画層9
  6
CONTINUOUS
 10
601
 20
384.996334906118
 11
613
 21
384.996334906118
  0
LINE
  8
画層9
  6
CONTINUOUS
 10
610
 20
384.996334906118
 11
610
 21
224.996771034067
  0
POLYLINE
  8
画層9
  6
CONTINUOUS
 10
0.0
 20
0.0
 30
0.0
 66
1
 70
     1
  0
VERTEX
  8
画層9
 10
610
  20
384.996334906118
  0
VERTEX
  8
画層9
 10
610.388228567654
  20
383.547446166684
  0
VERTEX
  8
画層9
 10
609.611771432346
  20
383.547446166684
  0
SEQEND
100
AcDbEntity
  8
画層9
  0
POLYLINE
  8
画層9
  6
CONTINUOUS
 10
0.0
 20
0.0
 30
0.0
 66
1
 70
     1
  0
VERTEX
  8
画層9
 10
610
  20
224.996771034067
  0
VERTEX
  8
画層9
 10
609.611771432346
  20
226.445659773501
  0
VERTEX
  8
画層9
 10
610.388228567654
  20
226.445659773501
  0
SEQEND
100
AcDbEntity
  8
画層9
  0
TEXT
  8
画層9
 62
7
  6
CONTINUOUS
 62
7
 10
609.75
 20
296.496552970093
 40
10
  1
160
  7
Font_0
 50
90
 72
1
 11
599.75
 21
304.996552970093
 73
3
  0
LINE
  8
画層9
  6
CONTINUOUS
 10
601
 20
224.996771034067
 11
613
 21
224.996771034067
  0
LINE
  8
画層9
  6
CONTINUOUS
 10
523.497857063587
 20
397.491728140777
 11
633
 21
397.491728140777
  0
LINE
  8
画層9
  6
CONTINUOUS
 10
630
 20
397.491728140777
 11
630
 21
212.500865990152
  0
POLYLINE
  8
画層9
  6
CONTINUOUS
 10
0.0
 20
0.0
 30
0.0
 66
1
 70
     1
  0
VERTEX
  8
画層9
 10
630
  20
397.491728140777
  0
VERTEX
  8
画層9
 10
630.388228567654
  20
396.042839401343
  0
VERTEX
  8
画層9
 10
629.611771432346
  20
396.042839401343
  0
SEQEND
100
AcDbEntity
  8
画層9
  0
POLYLINE
  8
画層9
  6
CONTINUOUS
 10
0.0
 20
0.0
 30
0.0
 66
1
 70
     1
  0
VERTEX
  8
画層9
 10
630
  20
212.500865990152
  0
VERTEX
  8
画層9
 10
629.611771432346
  20
213.949754729586
  0
VERTEX
  8
画層9
 10
630.388228567654
  20
213.949754729586
  0
SEQEND
100
AcDbEntity
  8
画層9
  0
TEXT
  8
画層9
 62
7
  6
CONTINUOUS
 62
7
 10
629.75
 20
296.496297065464
 40
10
  1
185
  7
Font_0
 50
90
 72
1
 11
619.75
 21
304.996297065464
 73
3
  0
LINE
  8
画層9
  6
CONTINUOUS
 10
523.497857063587
 20
212.500865990152
 11
633
 21
212.500865990152
  0
LINE
  8
画層9
  6
CONTINUOUS
 10
505.99835610454
 20
130.000002305227
 11
653.000368835505
 21
130.000341178202
  0
LINE
  8
画層9
  6
CONTINUOUS
 10
650.000368835513
 20
130.000334262522
 11
649.999562006143
 21
480.000334262522
  0
POLYLINE
  8
画層9
  6
CONTINUOUS
 10
0.0
 20
0.0
 30
0.0
 66
1
 70
     1
  0
VERTEX
  8
画層9
 10
650.000368835513
  20
130.000334262522
  0
VERTEX
  8
画層9
 10
649.612136927843
  20
131.449222106997
  0
VERTEX
  8
画層9
 10
650.388594063149
  20
131.449223896906
  0
SEQEND
100
AcDbEntity
  8
画層9
  0
POLYLINE
  8
画層9
  6
CONTINUOUS
 10
0.0
 20
0.0
 30
0.0
 66
1
 70
     1
  0
VERTEX
  8
画層9
 10
649.999562006143
  20
480.000334262522
  0
VERTEX
  8
画層9
 10
650.387793913812
  20
478.551446418047
  0
VERTEX
  8
画層9
 10
649.611336778507
  20
478.551444628137
  0
SEQEND
100
AcDbEntity
  8
画層9
  0
TEXT
  8
画層9
 62
7
  6
CONTINUOUS
 62
7
 10
650.260764497516
 20
296.394906266194
 40
10
  1
350
  7
Font_0
 50
90.353466073822
 72
1
 11
640.208517373738
 21
304.833053442115
 73
3
  0
LINE
  8
画層9
  6
CONTINUOUS
 10
505.99754927517
 20
480.000002305227
 11
652.999562006135
 21
480.000341178202
  0
LINE
  8
画層9
  6
CONTINUOUS
 10
345.000495294151
 20
481
 11
345.000495294151
 21
493
  0
LINE
  8
画層9
  6
CONTINUOUS
 10
345.000495294151
 20
490
 11
504.997549275172
 21
490
  0
POLYLINE
  8
画層9
  6
CONTINUOUS
 10
0.0
 20
0.0
 30
0.0
 66
1
 70
     1
  0
VERTEX
  8
画層9
 10
345.000495294151
  20
490
  0
VERTEX
  8
画層9
 10
346.449384033585
  20
490.388228567654
  0
VERTEX
  8
画層9
 10
346.449384033585
  20
489.611771432346
  0
SEQEND
100
AcDbEntity
  8
画層9
  0
POLYLINE
  8
画層9
  6
CONTINUOUS
 10
0.0
 20
0.0
 30
0.0
 66
1
 70
     1
  0
VERTEX
  8
画層9
 10
504.997549275172
  20
490
  0
VERTEX
  8
画層9
 10
503.548660535739
  20
489.611771432346
  0
VERTEX
  8
画層9
 10
503.548660535739
  20
490.388228567654
  0
SEQEND
100
AcDbEntity
  8
画層9
  0
TEXT
  8
画層9
 62
7
  6
CONTINUOUS
 62
7
 10
416.499022284662
 20
490.25
 40
10
  1
160
  7
Font_0
 72
1
 11
424.999022284662
 21
500.25
 73
3
  0
LINE
  8
画層9
  6
CONTINUOUS
 10
504.997549275172
 20
481
 11
504.997549275172
 21
493
  0
LINE
  8
画層9
  6
CONTINUOUS
 10
600.00001748696
 20
385.996334905965
 11
600.002588109723
 21
532.998600998392
  0
LINE
  8
画層9
  6
CONTINUOUS
 10
600.002535648843
 20
529.99860099885
 11
250.002535648843
 21
530.004721434889
  0
POLYLINE
  8
画層9
  6
CONTINUOUS
 10
0.0
 20
0.0
 30
0.0
 66
1
 70
     1
  0
VERTEX
  8
画層9
 10
600.002535648843
  20
529.99860099885
  0
VERTEX
  8
画層9
 10
598.553640120694
  20
529.610397767916
  0
VERTEX
  8
画層9
 10
598.553653698568
  20
530.386854903104
  0
SEQEND
100
AcDbEntity
  8
画層9
  0
POLYLINE
  8
画層9
  6
CONTINUOUS
 10
0.0
 20
0.0
 30
0.0
 66
1
 70
     1
  0
VERTEX
  8
画層9
 10
250.002535648843
  20
530.004721434889
  0
VERTEX
  8
画層9
 10
251.451431176993
  20
530.392924665824
  0
VERTEX
  8
画層9
 10
251.451417599118
  20
529.616467530635
  0
SEQEND
100
AcDbEntity
  8
画層9
  0
TEXT
  8
画層9
 62
7
  6
CONTINUOUS
 62
7
 10
416.502540021883
 20
530.251809855992
 40
10
  1
350
  7
Font_0
 50
-0.00100192901069818
 72
1
 11
425.002714890184
 21
540.251661215303
 73
3
  0
LINE
  8
画層9
  6
CONTINUOUS
 10
250.00001748696
 20
386.002455342003
 11
250.002588109723
 21
533.00472143443
  0
LINE
  8
画層9
  6
CONTINUOUS
 10
413.996591508759
 20
310
 11
237
 21
310
  0
LINE
  8
画層9
  6
CONTINUOUS
 10
240
 20
310
 11
240
 21
300
  0
POLYLINE
  8
画層9
  6
CONTINUOUS
 10
0.0
 20
0.0
 30
0.0
 66
1
 70
     1
  0
VERTEX
  8
画層9
 10
240
  20
310
  0
VERTEX
  8
画層9
 10
240.388228567654
  20
308.551111260566
  0
VERTEX
  8
画層9
 10
239.611771432346
  20
308.551111260566
  0
SEQEND
100
AcDbEntity
  8
画層9
  0
POLYLINE
  8
画層9
  6
CONTINUOUS
 10
0.0
 20
0.0
 30
0.0
 66
1
 70
     1
  0
VERTEX
  8
画層9
 10
240
  20
300
  0
VERTEX
  8
画層9
 10
239.611771432346
  20
301.448888739434
  0
VERTEX
  8
画層9
 10
240.388228567654
  20
301.448888739434
  0
SEQEND
100
AcDbEntity
  8
画層9
  0
TEXT
  8
画層9
 62
7
  6
CONTINUOUS
 62
7
 10
239.75
 20
299.5
 40
10
  1
10
  7
Font_0
 50
90
 72
1
 11
229.75
 21
305
 73
3
  0
LINE
  8
画層9
  6
CONTINUOUS
 10
413.996591508759
 20
300
 11
237
 21
300
  0
LINE
  8
画層9
  6
CONTINUOUS
 10
309
 20
350
 11
217
 21
350
  0
LINE
  8
画層9
  6
CONTINUOUS
 10
220
 20
350
 11
220
 21
260
  0
POLYLINE
  8
画層9
  6
CONTINUOUS
 10
0.0
 20
0.0
 30
0.0
 66
1
 70
     1
  0
VERTEX
  8
画層9
 10
220
  20
350
  0
VERTEX
  8
画層9
 10
220.388228567654
  20
348.551111260566
  0
VERTEX
  8
画層9
 10
219.611771432346
  20
348.551111260566
  0
SEQEND
100
AcDbEntity
  8
画層9
  0
POLYLINE
  8
画層9
  6
CONTINUOUS
 10
0.0
 20
0.0
 30
0.0
 66
1
 70
     1
  0
VERTEX
  8
画層9
 10
220
  20
260
  0
VERTEX
  8
画層9
 10
219.611771432346
  20
261.448888739434
  0
VERTEX
  8
画層9
 10
220.388228567654
  20
261.448888739434
  0
SEQEND
100
AcDbEntity
  8
画層9
  0
TEXT
  8
画層9
 62
7
  6
CONTINUOUS
 62
7
 10
219.75
 20
299.5
 40
10
  1
90
  7
Font_0
 50
90
 72
1
 11
209.75
 21
305
 73
3
  0
LINE
  8
画層9
  6
CONTINUOUS
 10
309
 20
260
 11
217
 21
260
  0
LINE
  8
画層9
  6
CONTINUOUS
 10
413.996591508759
 20
375
 11
197
 21
375
  0
LINE
  8
画層9
  6
CONTINUOUS
 10
200
 20
375
 11
200
 21
235
  0
POLYLINE
  8
画層9
  6
CONTINUOUS
 10
0.0
 20
0.0
 30
0.0
 66
1
 70
     1
  0
VERTEX
  8
画層9
 10
200
  20
375
  0
VERTEX
  8
画層9
 10
200.388228567654
  20
373.551111260566
  0
VERTEX
  8
画層9
 10
199.611771432346
  20
373.551111260566
  0
SEQEND
100
AcDbEntity
  8
画層9
  0
POLYLINE
  8
画層9
  6
CONTINUOUS
 10
0.0
 20
0.0
 30
0.0
 66
1
 70
     1
  0
VERTEX
  8
画層9
 10
200
  20
235
  0
VERTEX
  8
画層9
 10
199.611771432346
  20
236.448888739434
  0
VERTEX
  8
画層9
 10
200.388228567654
  20
236.448888739434
  0
SEQEND
100
AcDbEntity
  8
画層9
  0
TEXT
  8
画層9
 62
7
  6
CONTINUOUS
 62
7
 10
199.75
 20
296.5
 40
10
  1
140
  7
Font_0
 50
90
 72
1
 11
189.75
 21
305
 73
3
  0
LINE
  8
画層9
  6
CONTINUOUS
 10
413.996591508759
 20
235
 11
197
 21
235
  0
LINE
  8
画層9
  6
CONTINUOUS
 10
379
 20
390
 11
177
 21
390
  0
LINE
  8
画層9
  6
CONTINUOUS
 10
180
 20
390
 11
180
 21
220
  0
POLYLINE
  8
画層9
  6
CONTINUOUS
 10
0.0
 20
0.0
 30
0.0
 66
1
 70
     1
  0
VERTEX
  8
画層9
 10
180
  20
390
  0
VERTEX
  8
画層9
 10
180.388228567654
  20
388.551111260566
  0
VERTEX
  8
画層9
 10
179.611771432346
  20
388.551111260566
  0
SEQEND
100
AcDbEntity
  8
画層9
  0
POLYLINE
  8
画層9
  6
CONTINUOUS
 10
0.0
 20
0.0
 30
0.0
 66
1
 70
     1
  0
VERTEX
  8
画層9
 10
180
  20
220
  0
VERTEX
  8
画層9
 10
179.611771432346
  20
221.448888739434
  0
VERTEX
  8
画層9
 10
180.388228567654
  20
221.448888739434
  0
SEQEND
100
AcDbEntity
  8
画層9
  0
TEXT
  8
画層9
 62
7
  6
CONTINUOUS
 62
7
 10
179.75
 20
296.5
 40
10
  1
170
  7
Font_0
 50
90
 72
1
 11
169.75
 21
305
 73
3
  0
LINE
  8
画層9
  6
CONTINUOUS
 10
379
 20
220
 11
177
 21
220
  0
LINE
  8
画層9
  6
CONTINUOUS
 10
379
 20
420
 11
157
 21
420
  0
LINE
  8
画層9
  6
CONTINUOUS
 10
160
 20
420
 11
160
 21
190
  0
POLYLINE
  8
画層9
  6
CONTINUOUS
 10
0.0
 20
0.0
 30
0.0
 66
1
 70
     1
  0
VERTEX
  8
画層9
 10
160
  20
420
  0
VERTEX
  8
画層9
 10
160.388228567654
  20
418.551111260566
  0
VERTEX
  8
画層9
 10
159.611771432346
  20
418.551111260566
  0
SEQEND
100
AcDbEntity
  8
画層9
  0
POLYLINE
  8
画層9
  6
CONTINUOUS
 10
0.0
 20
0.0
 30
0.0
 66
1
 70
     1
  0
VERTEX
  8
画層9
 10
160
  20
190
  0
VERTEX
  8
画層9
 10
159.611771432346
  20
191.448888739434
  0
VERTEX
  8
画層9
 10
160.388228567654
  20
191.448888739434
  0
SEQEND
100
AcDbEntity
  8
画層9
  0
TEXT
  8
画層9
 62
7
  6
CONTINUOUS
 62
7
 10
159.75
 20
296.5
 40
10
  1
230
  7
Font_0
 50
90
 72
1
 11
149.75
 21
305
 73
3
  0
LINE
  8
画層9
  6
CONTINUOUS
 10
379
 20
190
 11
157
 21
190
  0
LINE
  8
画層9
  6
CONTINUOUS
 10
414.996591508759
 20
234
 11
414.996591508759
 21
117
  0
LINE
  8
画層9
  6
CONTINUOUS
 10
414.996591508759
 20
120
 11
434.995413549507
 21
120
  0
POLYLINE
  8
画層9
  6
CONTINUOUS
 10
0.0
 20
0.0
 30
0.0
 66
1
 70
     1
  0
VERTEX
  8
画層9
 10
414.996591508759
  20
120
  0
VERTEX
  8
画層9
 10
416.445480248193
  20
120.388228567653
  0
VERTEX
  8
画層9
 10
416.445480248193
  20
119.611771432346
  0
SEQEND
100
AcDbEntity
  8
画層9
  0
POLYLINE
  8
画層9
  6
CONTINUOUS
 10
0.0
 20
0.0
 30
0.0
 66
1
 70
     1
  0
VERTEX
  8
画層9
 10
434.995413549507
  20
120
  0
VERTEX
  8
画層9
 10
433.546524810074
  20
119.611771432346
  0
VERTEX
  8
画層9
 10
433.546524810074
  20
120.388228567653
  0
SEQEND
100
AcDbEntity
  8
画層9
  0
TEXT
  8
画層9
 62
7
  6
CONTINUOUS
 62
7
 10
419.496002529133
 20
120.25
 40
10
  1
20
  7
Font_0
 72
1
 11
424.996002529133
 21
130.25
 73
3
  0
LINE
  8
画層9
  6
CONTINUOUS
 10
434.995413549507
 20
234
 11
434.995413549507
 21
117
  0
LINE
  8
画層9
  6
CONTINUOUS
 10
380
 20
189
 11
380
 21
97
  0
LINE
  8
画層9
  6
CONTINUOUS
 10
380
 20
100
 11
470
 21
100
  0
POLYLINE
  8
画層9
  6
CONTINUOUS
 10
0.0
 20
0.0
 30
0.0
 66
1
 70
     1
  0
VERTEX
  8
画層9
 10
380
  20
100
  0
VERTEX
  8
画層9
 10
381.448888739434
  20
100.388228567654
  0
VERTEX
  8
画層9
 10
381.448888739434
  20
99.6117714323462
  0
SEQEND
100
AcDbEntity
  8
画層9
  0
POLYLINE
  8
画層9
  6
CONTINUOUS
 10
0.0
 20
0.0
 30
0.0
 66
1
 70
     1
  0
VERTEX
  8
画層9
 10
470
  20
100
  0
VERTEX
  8
画層9
 10
468.551111260566
  20
99.6117714323462
  0
VERTEX
  8
画層9
 10
468.551111260566
  20
100.388228567654
  0
SEQEND
100
AcDbEntity
  8
画層9
  0
TEXT
  8
画層9
 62
7
  6
CONTINUOUS
 62
7
 10
419.5
 20
100.25
 40
10
  1
90
  7
Font_0
 72
1
 11
425
 21
110.25
 73
3
  0
LINE
  8
画層9
  6
CONTINUOUS
 10
470
 20
189
 11
470
 21
97
  0
LINE
  8
画層9
  6
CONTINUOUS
 10
340
 20
259
 11
340
 21
77
  0
LINE
  8
画層9
  6
CONTINUOUS
 10
340
 20
80
 11
510
 21
80
  0
POLYLINE
  8
画層9
  6
CONTINUOUS
 10
0.0
 20
0.0
 30
0.0
 66
1
 70
     1
  0
VERTEX
  8
画層9
 10
340
  20
80
  0
VERTEX
  8
画層9
 10
341.448888739434
  20
80.3882285676538
  0
VERTEX
  8
画層9
 10
341.448888739434
  20
79.6117714323462
  0
SEQEND
100
AcDbEntity
  8
画層9
  0
POLYLINE
  8
画層9
  6
CONTINUOUS
 10
0.0
 20
0.0
 30
0.0
 66
1
 70
     1
  0
VERTEX
  8
画層9
 10
510
  20
80
  0
VERTEX
  8
画層9
 10
508.551111260566
  20
79.6117714323462
  0
VERTEX
  8
画層9
 10
508.551111260566
  20
80.3882285676538
  0
SEQEND
100
AcDbEntity
  8
画層9
  0
TEXT
  8
画層9
 62
7
  6
CONTINUOUS
 62
7
 10
416.5
 20
80.25
 40
10
  1
170
  7
Font_0
 72
1
 11
425
 21
90.25
 73
3
  0
LINE
  8
画層9
  6
CONTINUOUS
 10
510
 20
259
 11
510
 21
77
  0
LINE
  8
画層9
  6
CONTINUOUS
 10
310
 20
259
 11
310
 21
57
  0
LINE
  8
画層9
  6
CONTINUOUS
 10
310
 20
60
 11
540
 21
60
  0
POLYLINE
  8
画層9
  6
CONTINUOUS
 10
0.0
 20
0.0
 30
0.0
 66
1
 70
     1
  0
VERTEX
  8
画層9
 10
310
  20
60
  0
VERTEX
  8
画層9
 10
311.448888739434
  20
60.3882285676538
  0
VERTEX
  8
画層9
 10
311.448888739434
  20
59.6117714323462
  0
SEQEND
100
AcDbEntity
  8
画層9
  0
POLYLINE
  8
画層9
  6
CONTINUOUS
 10
0.0
 20
0.0
 30
0.0
 66
1
 70
     1
  0
VERTEX
  8
画層9
 10
540
  20
60
  0
VERTEX
  8
画層9
 10
538.551111260566
  20
59.6117714323462
  0
VERTEX
  8
画層9
 10
538.551111260566
  20
60.3882285676538
  0
SEQEND
100
AcDbEntity
  8
画層9
  0
TEXT
  8
画層9
 62
7
  6
CONTINUOUS
 62
7
 10
416.5
 20
60.25
 40
10
  1
230
  7
Font_0
 72
1
 11
425
 21
70.25
 73
3
  0
LINE
  8
画層9
  6
CONTINUOUS
 10
540
 20
259
 11
540
 21
57
  0
ARC
  8
画層9
  6
CONTINUOUS
 10
504.998356104543
 20
130
 40
25.7781586865097
 50
0.000132079764885831
 51
44.9985305435742
  0
POLYLINE
  8
画層9
  6
CONTINUOUS
 10
0.0
 20
0.0
 30
0.0
 66
1
 70
     1
  0
VERTEX
  8
画層9
 10
530.776514790984
  20
130.000059424502
  0
VERTEX
  8
画層9
 10
530.388510478878
  20
131.449008234428
  0
VERTEX
  8
画層9
 10
531.164967604886
  20
131.448888058734
  0
SEQEND
100
AcDbEntity
  8
画層9
  0
POLYLINE
  8
画層9
  6
CONTINUOUS
 10
0.0
 20
0.0
 30
0.0
 66
1
 70
     1
  0
VERTEX
  8
画層9
 10
523.226734400828
  20
148.227443319193
  0
VERTEX
  8
画層9
 10
524.525871069869
  20
147.477614061859
  0
VERTEX
  8
画層9
 10
523.976905130538
  20
146.92850379932
  0
SEQEND
100
AcDbEntity
  8
画層9
  0
TEXT
  8
画層9
 62
7
  6
CONTINUOUS
 62
7
 10
524.835956280936
 20
150.122988442369
 40
10
  1
45%%d
  7
Font_0
 50
-67.5006686883303
 72
1
 11
538.284195416739
 21
143.786990956079
 73
3
  0
CIRCLE
  8
画層5
  6
CONTINUOUS
 10
464.978324002463
 20
244.94904684707
 40
1.50114585100812
  0
CIRCLE
  8
画層5
  6
CONTINUOUS
 10
444.99995263995
 20
260
 40
1.50114585100812
  0
CIRCLE
  8
画層5
  6
CONTINUOUS
 10
404.999923538269
 20
260
 40
1.50114585100812
  0
CIRCLE
  8
画層5
  6
CONTINUOUS
 10
462.442550427219
 20
330.780054154361
 40
1.50114585100812
  0
CIRCLE
  8
画層5
  6
CONTINUOUS
 10
388.831254537398
 20
330.771315322505
 40
1.50114585100812
  0
CIRCLE
  8
画層5
  6
CONTINUOUS
 10
385.0180039475
 20
244.946267804968
 40
1.50114585100812
  0
CIRCLE
  8
画層4
  6
CONTINUOUS
 10
522.497857063587
 20
397.491728140777
 40
5.50260529429863
  0
CIRCLE
  8
画層4
  6
CONTINUOUS
 10
522.497857063587
 20
212.500865990152
 40
5.50260529429863
  0
CIRCLE
  8
画層4
  6
CONTINUOUS
 10
327.507283966985
 20
212.500865990152
 40
5.50260529429863
  0
CIRCLE
  8
画層4
  6
CONTINUOUS
 10
522.497857063587
 20
397.491728140777
 40
2.7518839092354
  0
CIRCLE
  8
画層4
  6
CONTINUOUS
 10
522.497857063587
 20
212.500865990152
 40
2.7518839092354
  0
CIRCLE
  8
画層4
  6
CONTINUOUS
 10
327.507283966985
 20
212.500865990152
 40
2.7518839092354
  0
LINE
  8
画層9
  6
CONTINUOUS
 10
560
 20
440
 11
526.32928138912
 21
401.441266425508
  0
POLYLINE
  8
画層9
  6
CONTINUOUS
 10
0.0
 20
0.0
 30
0.0
 66
1
 70
     1
  0
VERTEX
  8
画層9
 10
526.32928138912
  20
401.441266425508
  0
VERTEX
  8
画層9
 10
527.650438861401
  20
404.134692298525
  0
VERTEX
  8
画層9
 10
528.820150259023
  20
403.11326291861
  0
SEQEND
100
AcDbEntity
  8
画層9
  0
TEXT
  8
画層9
 62
7
  6
CONTINUOUS
 62
7
 10
570
 20
440
 40
10
  1
5.5キリサラモミ
  7
Font_0
 11
570
 21
450
 73
3
  0
LINE
  8
画層9
  6
CONTINUOUS
 10
560
 20
440
 11
660
 21
440
  0
CIRCLE
  8
画層5
  6
CONTINUOUS
 10
327.507283966985
 20
427.491868655547
 40
1.50114585100812
  0
CIRCLE
  8
画層5
  6
CONTINUOUS
 10
327.507283966985
 20
412.49105880654
 40
1.50114585100812
  0
CIRCLE
  8
画層4
  6
CONTINUOUS
 10
327.507283966985
 20
397.491728140777
 40
5.50260529429863
  0
CIRCLE
  8
画層4
  6
CONTINUOUS
 10
327.507283966985
 20
397.491728140777
 40
2.7518839092354
  0
LINE
  8
画層9
  6
CONTINUOUS
 10
327.507283966985
 20
398.491728140777
 11
327.507283966985
 21
513
  0
LINE
  8
画層9
  6
CONTINUOUS
 10
327.507283966985
 20
510
 11
522.497857063587
 21
510
  0
POLYLINE
  8
画層9
  6
CONTINUOUS
 10
0.0
 20
0.0
 30
0.0
 66
1
 70
     1
  0
VERTEX
  8
画層9
 10
327.507283966985
  20
510
  0
VERTEX
  8
画層9
 10
328.956172706419
  20
510.388228567654
  0
VERTEX
  8
画層9
 10
328.956172706419
  20
509.611771432346
  0
SEQEND
100
AcDbEntity
  8
画層9
  0
POLYLINE
  8
画層9
  6
CONTINUOUS
 10
0.0
 20
0.0
 30
0.0
 66
1
 70
     1
  0
VERTEX
  8
画層9
 10
522.497857063587
  20
510
  0
VERTEX
  8
画層9
 10
521.048968324154
  20
509.611771432346
  0
VERTEX
  8
画層9
 10
521.048968324154
  20
510.388228567654
  0
SEQEND
100
AcDbEntity
  8
画層9
  0
TEXT
  8
画層9
 62
7
  6
CONTINUOUS
 62
7
 10
416.502570515286
 20
510.25
 40
10
  1
195
  7
Font_0
 72
1
 11
425.002570515286
 21
520.25
 73
3
  0
LINE
  8
画層9
  6
CONTINUOUS
 10
522.497857063587
 20
398.491728140777
 11
522.497857063587
 21
513
  0
ENDSEC
  0
EOF
