  0
SECTION
  2
HEADER
  9
$ACADVER
  1
AC1009
  9
$INSBASE
 10
0
 20
0
 30
0
  9
$EXTMIN
 10
0
 20
0
  9
$EXTMAX
 10
210.25
 20
148.5
  9
$LIMMIN
 10
0
 20
0
  9
$LIMMAX
 10
210.25
 20
148.5
  9
$LTSCALE
 40
0.25
  0
ENDSEC
  0
SECTION
  2
TABLES
  0
TABLE
  2
LTYPE
 70
     9
  0
LTYPE
  2
CONTINUOUS
 70
    64
  3
実線
 72
    65
 73
     0
 40
0.0
  0
LTYPE
  2
DASHED1
 70
    64
  3
--  --  --  --  --  --  --  --  
 72
    65
 73
     2
 40
2.5
 49
1.25
 49
-1.25
  0
LTYPE
  2
DASHED2
 70
    64
  3
----    ----    ----    ----    
 72
    65
 73
     2
 40
5.0
 49
2.5
 49
-2.5
  0
LTYPE
  2
DASHED3
 70
    64
  3
------  ------  ------  ------  
 72
    65
 73
     2
 40
5.0
 49
3.75
 49
-1.25
  0
LTYPE
  2
CENTER1
 70
    64
  3
----- - ----- - ----- - ----- - 
 72
    65
 73
     4
 40
10.0
 49
6.25
 49
-1.25
 49
1.25
 49
-1.25
  0
LTYPE
  2
CENTER2
 70
    64
  3
----------  --  ----------  --  
 72
    65
 73
     4
 40
20.0
 49
12.5
 49
-2.5
 49
2.5
 49
-2.5
  0
LTYPE
  2
PHANTOM1
 70
    64
  3
--- - - --- - - --- - - --- - - 
 72
    65
 73
     6
 40
10.0
 49
3.25
 49
-1.25
 49
1.25
 49
-1.25
 49
1.25
 49
-1.25
  0
LTYPE
  2
PHANTOM2
 70
    64
  3
--------  -  -  --------  -  -  
 72
    65
 73
     6
 40
20.0
 49
10.0
 49
-2.5
 49
1.25
 49
-2.5
 49
1.25
 49
-2.5
  0
LTYPE
  2
DOT
 70
    64
  3
-   -   -   -   -   -   -   -   
 72
    65
 73
     2
 40
2.5
 49
0.625
 49
-1.875
  0
LTYPE
  2
DUMMY
 70
    64
  3
ダミー
 72
    65
 73
     0
 40
0.0
  0
LTYPE
  2
RAND1
 70
    64
  3
ランダム線1
 72
    65
 73
     4
 40
10.0
 49
1.0
 49
-2.0
 49
3.0
 49
-4.0
  0
LTYPE
  2
RAND2
 70
    64
  3
ランダム線2
 72
    65
 73
     4
 40
14.0
 49
2.0
 49
-3.0
 49
4.0
 49
-5.0
  0
LTYPE
  2
RAND3
 70
    64
  3
ランダム線3
 72
    65
 73
     4
 40
18.0
 49
3.0
 49
-4.0
 49
5.0
 49
-6.0
  0
LTYPE
  2
RAND4
 70
    64
  3
ランダム線4
 72
    65
 73
     4
 40
22.0
 49
4.0
 49
-5.0
 49
6.0
 49
-7.0
  0
LTYPE
  2
RAND5
 70
    64
  3
ランダム線5
 72
    65
 73
     4
 40
26.0
 49
5.0
 49
-6.0
 49
7.0
 49
-8.0
  0
LTYPE
  2
LONG1
 70
    64
  3
----------  --  ----------  --  
 72
    65
 73
     4
 40
40.0
 49
32.5
 49
-2.5
 49
2.5
 49
-2.5
  0
LTYPE
  2
LONG2
 70
    64
  3
--------  -  -  --------  -  -  
 72
    65
 73
     6
 40
40.0
 49
30.0
 49
-2.5
 49
1.25
 49
-2.5
 49
1.25
 49
-2.5
  0
LTYPE
  2
LONG3
 70
    64
  3
+++++++++++++++..+++++++++++++++
 72
    65
 73
     2
 40
40.0
 49
37.5
 49
-2.5
  0
LTYPE
  2
LONG4
 70
    64
  3
+++++++++++++++..+++++++++++++++
 72
    65
 73
     2
 40
80.0
 49
75.0
 49
-5.0
  0
LTYPE
  2
LONG5
 70
    64
  3
----------  --  ----------  --  
 72
    65
 73
     4
 40
60.0
 49
37.5
 49
-7.5
 49
7.5
 49
-7.5
  0
LTYPE
  2
dashed
 70
   64
  3
-------   -------------   ------
 72
   65
 73
    2
 40
7.5
 49
6
 49
-1.5
  0
LTYPE
  2
dashed_spaced
 70
   64
  3
----        --------        ----
 72
   65
 73
    2
 40
12
 49
6
 49
-6
  0
LTYPE
  2
long_dashed_dotted
 70
   64
  3
------------- --- --------------
 72
   65
 73
    4
 40
15.25
 49
12
 49
-1.5
 49
0.25
 49
-1.5
  0
LTYPE
  2
long_dashed_double-dotted
 70
   64
  3
----------- --- --- ------------
 72
   65
 73
    6
 40
17
 49
12
 49
-1.5
 49
0.25
 49
-1.5
 49
0.25
 49
-1.5
  0
LTYPE
  2
long_dashed_triplicate-dotted
 70
   64
  3
--------- --- --- --- ----------
 72
   65
 73
    8
 40
18.75
 49
12
 49
-1.5
 49
0.25
 49
-1.5
 49
0.25
 49
-1.5
 49
0.25
 49
-1.5
  0
LTYPE
  2
dotted
 70
   64
  3
   -       -       -       -    
 72
   65
 73
    2
 40
1.75
 49
0.25
 49
-1.5
  0
LTYPE
  2
chain
 70
   64
  3
-------------- -- --------------
 72
   65
 73
    4
 40
18.5
 49
12
 49
-1.5
 49
3.5
 49
-1.5
  0
LTYPE
  2
chain_double_dash
 70
   64
  3
------------ -- -- -------------
 72
   65
 73
    6
 40
23.5
 49
12
 49
-1.5
 49
3.5
 49
-1.5
 49
3.5
 49
-1.5
  0
LTYPE
  2
dashed_dotted
 70
   64
  3
-----------     -     ----------
 72
   65
 73
    4
 40
9.25
 49
6
 49
-1.5
 49
0.25
 49
-1.5
  0
LTYPE
  2
double-dashed_dotted
 70
   64
  3
------   -----------   -   -----
 72
   65
 73
    6
 40
16.75
 49
6
 49
-1.5
 49
6
 49
-1.5
 49
0.25
 49
-1.5
  0
LTYPE
  2
dashed_double-dotted
 70
   64
  3
---------    -    -    ---------
 72
   65
 73
    6
 40
11
 49
6
 49
-1.5
 49
0.25
 49
-1.5
 49
0.25
 49
-1.5
  0
LTYPE
  2
double-dashed_double-dotted
 70
   64
  3
-----   ---------   -   -   ----
 72
   65
 73
    8
 40
18.5
 49
6
 49
-1.5
 49
6
 49
-1.5
 49
0.25
 49
-1.5
 49
0.25
 49
-1.5
  0
LTYPE
  2
dashed_triplicate-dotted
 70
   64
  3
-------    -    -    -    ------
 72
   65
 73
    8
 40
12.75
 49
6
 49
-1.5
 49
0.25
 49
-1.5
 49
0.25
 49
-1.5
 49
0.25
 49
-1.5
  0
LTYPE
  2
double-dashed_triplicate-dotted
 70
   64
  3
-----  ---------  -  -  -  -----
 72
   65
 73
   10
 40
20.25
 49
6
 49
-1.5
 49
6
 49
-1.5
 49
0.25
 49
-1.5
 49
0.25
 49
-1.5
 49
0.25
 49
-1.5
  0
LTYPE
  2
undefined
 70
   64
  3
--------------------------------
 72
   65
 73
    0
 40
0
  0
LTYPE
  2
DASHED
 70
   64
  3
-------   -------------   ------
 72
   65
 73
    2
 40
3.4999999999999996
 49
2.9169999999999998
 49
-0.5829999999999998
  0
LTYPE
  2
DOT_18
 70
   64
  3
----        --------        ----
 72
   65
 73
    2
 40
0.5
 49
0.25
 49
-0.25
  0
LTYPE
  2
DASHDOT
 70
   64
  3
---------     -----     --------
 72
   65
 73
    4
 40
3.5
 49
1.841
 49
-0.553
 49
0.553
 49
-0.553
  0
LTYPE
  2
DIVIDE
 70
   64
  3
------    ----    ----    ------
 72
   65
 73
    6
 40
3.4999999999999996
 49
1.3999999999999999
 49
-0.4199999999999998
 49
0.4199999999999998
 49
-0.4199999999999998
 49
0.4199999999999998
 49
-0.4199999999999998
  0
LTYPE
  2
HIDDEN
 70
   64
  3
----        --------        ----
 72
   65
 73
    2
 40
4
 49
2
 49
-2
  0
ENDTAB
  0
TABLE
  2
STYLE
  5
3
100
AcDbSymbolTable
 70
     1
  0
STYLE
  5
10
100
AcDbSymbolTableRecord
100
AcDbTextStyleTableRecord
  2
STANDARD
 70
     0
 40
0.0
 41
1.0
 50
0.0
 71
     0
 42
0.2
  3
txt
  4
bigfont.shx
  0
STYLE
  5
26
100
AcDbSymbolTableRecord
100
AcDbTextStyleTableRecord
  2
TATEGAKI
 70
    68
 40
0.0
 41
1.0
 50
0.0
 71
     0
 42
1.0
  3
txt
  4
bigfont.shx
  0
ENDTAB
  0
TABLE
  2
LAYER
 70
    7
  0
LAYER
  2
_0-0_画層0
 70
   64
 62
    7
  6
CONTINUOUS
  0
LAYER
  2
_0-1_画層1
 70
   64
 62
    7
  6
CONTINUOUS
  0
LAYER
  2
_0-4_画層4
 70
   64
 62
    7
  6
CONTINUOUS
  0
LAYER
  2
_0-5_画層5
 70
   64
 62
    7
  6
CONTINUOUS
  0
LAYER
  2
_0-b_画層11
 70
   64
 62
    7
  6
CONTINUOUS
  0
LAYER
  2
_0-f_画層15
 70
   64
 62
    7
  6
CONTINUOUS
  0
LAYER
  2
ADD_LINE
 70
   64
 62
    7
  6
CONTINUOUS
  0
ENDTAB
  0
ENDSEC
  0
SECTION
  2
BLOCKS
  0
ENDSEC
  0
SECTION
  2
ENTITIES
  0
CIRCLE
  8
_0-5_画層5
  6
CONTINUOUS
 62
    7
 10
381.625
 20
264.25
 40
175
  0
CIRCLE
  8
_0-5_画層5
  6
CONTINUOUS
 62
    7
 10
274.12790682518403
 20
256.75019647109502
 40
1.5045215722588501
  0
CIRCLE
  8
_0-5_画層5
  6
CONTINUOUS
 62
    7
 10
274.12790682518403
 20
196.75216182460599
 40
1.4974786108006699
  0
CIRCLE
  8
_0-5_画層5
  6
CONTINUOUS
 62
    7
 10
289.12561648108499
 20
256.75019647109502
 40
1.4974786108006699
  0
CIRCLE
  8
_0-5_画層5
  6
CONTINUOUS
 62
    7
 10
289.12561648108499
 20
196.75216182460599
 40
1.4974786108006699
  0
CIRCLE
  8
_0-5_画層5
  6
CONTINUOUS
 62
    7
 10
349.12945399731802
 20
256.75019647109502
 40
1.4974786108006699
  0
CIRCLE
  8
_0-5_画層5
  6
CONTINUOUS
 62
    7
 10
349.12945399731802
 20
196.75216182460599
 40
1.4974786108006699
  0
CIRCLE
  8
_0-5_画層5
  6
CONTINUOUS
 62
    7
 10
364.132311058499
 20
196.75216182460599
 40
1.4974786108006699
  0
CIRCLE
  8
_0-5_画層5
  6
CONTINUOUS
 62
    7
 10
364.132311058499
 20
256.75019647109502
 40
1.4974786108006699
  0
CIRCLE
  8
_0-5_画層5
  6
CONTINUOUS
 62
    7
 10
399.14179451264999
 20
196.75216182460599
 40
1.4974786108006699
  0
CIRCLE
  8
_0-5_画層5
  6
CONTINUOUS
 62
    7
 10
414.13826134570502
 20
196.75216182460599
 40
1.4974786108006699
  0
CIRCLE
  8
_0-5_画層5
  6
CONTINUOUS
 62
    7
 10
399.14179451264999
 20
256.75019647109502
 40
1.4974786108006699
  0
CIRCLE
  8
_0-5_画層5
  6
CONTINUOUS
 62
    7
 10
414.13826134570502
 20
256.75019647109502
 40
1.4974786108006699
  0
CIRCLE
  8
_0-5_画層5
  6
CONTINUOUS
 62
    7
 10
474.13187161484302
 20
196.75216182460599
 40
1.4974786108006699
  0
CIRCLE
  8
_0-5_画層5
  6
CONTINUOUS
 62
    7
 10
489.12963166731095
 20
196.748554623069
 40
1.4974786108006699
  0
CIRCLE
  8
_0-5_画層5
  6
CONTINUOUS
 62
    7
 10
474.13187161484302
 20
256.75019647109502
 40
1.4974786108006699
  0
CIRCLE
  8
_0-5_画層5
  6
CONTINUOUS
 62
    7
 10
489.12963166731095
 20
256.75019647109502
 40
1.4974786108006699
  0
CIRCLE
  8
_0-5_画層5
  6
CONTINUOUS
 62
    7
 10
489.12963166731095
 20
271.74597478310898
 40
1.4974786108006699
  0
CIRCLE
  8
_0-5_画層5
  6
CONTINUOUS
 62
    7
 10
474.13187161484302
 20
271.74597478310898
 40
1.4974786108006699
  0
CIRCLE
  8
_0-5_画層5
  6
CONTINUOUS
 62
    7
 10
414.13826134570502
 20
271.74597478310898
 40
1.4974786108006699
  0
CIRCLE
  8
_0-5_画層5
  6
CONTINUOUS
 62
    7
 10
399.14179451264999
 20
271.74597478310898
 40
1.4974786108006699
  0
CIRCLE
  8
_0-5_画層5
  6
CONTINUOUS
 62
    7
 10
414.13826134570502
 20
331.74660237096401
 40
1.4974786108006699
  0
CIRCLE
  8
_0-5_画層5
  6
CONTINUOUS
 62
    7
 10
399.14179451264999
 20
331.74660237096401
 40
1.4974786108006699
  0
CIRCLE
  8
_0-5_画層5
  6
CONTINUOUS
 62
    7
 10
489.12963166731095
 20
331.74660237096401
 40
1.4974786108006699
  0
CIRCLE
  8
_0-5_画層5
  6
CONTINUOUS
 62
    7
 10
474.13187161484302
 20
331.74660237096401
 40
1.4974786108006699
  0
CIRCLE
  8
_0-5_画層5
  6
CONTINUOUS
 62
    7
 10
364.132311058499
 20
331.74660237096401
 40
1.4974786108006699
  0
CIRCLE
  8
_0-5_画層5
  6
CONTINUOUS
 62
    7
 10
364.132311058499
 20
271.74597478310898
 40
1.4974786108006699
  0
CIRCLE
  8
_0-5_画層5
  6
CONTINUOUS
 62
    7
 10
349.12945399731802
 20
271.74597478310898
 40
1.4974786108006699
  0
CIRCLE
  8
_0-5_画層5
  6
CONTINUOUS
 62
    7
 10
349.12945399731802
 20
331.74660237096401
 40
1.4974786108006699
  0
CIRCLE
  8
_0-5_画層5
  6
CONTINUOUS
 62
    7
 10
289.12561648108499
 20
271.74597478310898
 40
1.4974786108006699
  0
CIRCLE
  8
_0-5_画層5
  6
CONTINUOUS
 62
    7
 10
289.12561648108499
 20
331.74660237096401
 40
1.4974786108006699
  0
CIRCLE
  8
_0-5_画層5
  6
CONTINUOUS
 62
    7
 10
274.12790682518403
 20
331.74660237096401
 40
1.4974786108006699
  0
CIRCLE
  8
_0-5_画層5
  6
CONTINUOUS
 62
    7
 10
274.12790682518403
 20
271.74597478310898
 40
1.4974786108006699
  0
CIRCLE
  8
_0-5_画層5
  6
CONTINUOUS
 62
    7
 10
386.62427837328897
 20
94.254456063269004
 40
1.0034795888814001
  0
CIRCLE
  8
_0-5_画層5
  6
CONTINUOUS
 62
    7
 10
376.62627898712401
 20
94.254456063269004
 40
1.0034795888814001
  0
CIRCLE
  8
_0-5_画層5
  6
CONTINUOUS
 62
    7
 10
376.625
 20
434.25228415045001
 40
1.0034795888814001
  0
CIRCLE
  8
_0-5_画層5
  6
CONTINUOUS
 62
    7
 10
386.625
 20
434.25228415045001
 40
1.0034795888814001
  0
CIRCLE
  8
_0-4_画層4
  6
CONTINUOUS
 62
    7
 10
479.12266314726901
 20
171.73798228068401
 40
4.2478925039127899
  0
CIRCLE
  8
_0-4_画層4
  6
CONTINUOUS
 62
    7
 10
518.12279730102603
 20
171.73798228068401
 40
6.4973774459692999
  0
CIRCLE
  8
_0-5_画層5
  6
CONTINUOUS
 62
    7
 10
494.12434929723099
 20
171.73798228068401
 40
1.5011458510081199
  0
CIRCLE
  8
_0-5_画層5
  6
CONTINUOUS
 62
    7
 10
494.12434929723099
 20
156.74004639967899
 40
1.5011458510081199
  0
CIRCLE
  8
_0-5_画層5
  6
CONTINUOUS
 62
    7
 10
479.12266314726901
 20
141.74217914463699
 40
1.5011458510081199
  0
CIRCLE
  8
_0-5_画層5
  6
CONTINUOUS
 62
    7
 10
479.12266314726901
 20
156.74004639967899
 40
1.5011458510081199
  0
CIRCLE
  8
_0-5_画層5
  6
CONTINUOUS
 62
    7
 10
464.123708524005
 20
141.74217914463699
 40
1.5011458510081199
  0
CIRCLE
  8
_0-5_画層5
  6
CONTINUOUS
 62
    7
 10
449.12475390074201
 20
141.74217914463699
 40
1.5011458510081199
  0
CIRCLE
  8
_0-5_画層5
  6
CONTINUOUS
 62
    7
 10
419.12182821661702
 20
141.74217914463699
 40
1.5011458510081199
  0
CIRCLE
  8
_0-5_画層5
  6
CONTINUOUS
 62
    7
 10
434.123291058679
 20
141.74217914463699
 40
1.5011458510081199
  0
CIRCLE
  8
_0-5_画層5
  6
CONTINUOUS
 62
    7
 10
419.12182821661702
 20
111.74573825010501
 40
1.5011458510081199
  0
CIRCLE
  8
_0-5_画層5
  6
CONTINUOUS
 62
    7
 10
434.123291058679
 20
111.74573825010501
 40
1.5011458510081199
  0
CIRCLE
  8
_0-4_画層4
  6
CONTINUOUS
 62
    7
 10
464.123708524005
 20
117.741548911314
 40
6.4973774459692999
  0
CIRCLE
  8
_0-5_画層5
  6
CONTINUOUS
 62
    7
 10
449.12475390074201
 20
111.74573825010501
 40
1.5011458510081199
  0
CIRCLE
  8
_0-4_画層4
  6
CONTINUOUS
 62
    7
 10
245.13108729496702
 20
171.73798228068401
 40
6.4973774459692999
  0
CIRCLE
  8
_0-4_画層4
  6
CONTINUOUS
 62
    7
 10
284.13218597414601
 20
171.73798228068401
 40
4.2478925039127899
  0
CIRCLE
  8
_0-4_画層4
  6
CONTINUOUS
 62
    7
 10
299.13048493825897
 20
117.74081565304601
 40
6.4973774459692999
  0
CIRCLE
  8
_0-5_画層5
  6
CONTINUOUS
 62
    7
 10
464.123708524005
 20
171.73798228068401
 40
1.5011458510081199
  0
CIRCLE
  8
_0-5_画層5
  6
CONTINUOUS
 62
    7
 10
449.12475390074201
 20
171.73798228068401
 40
1.5011458510081199
  0
CIRCLE
  8
_0-5_画層5
  6
CONTINUOUS
 62
    7
 10
434.123291058679
 20
171.73798228068401
 40
1.5011458510081199
  0
CIRCLE
  8
_0-5_画層5
  6
CONTINUOUS
 62
    7
 10
419.12182821661702
 20
171.73798228068401
 40
1.5011458510081199
  0
CIRCLE
  8
_0-5_画層5
  6
CONTINUOUS
 62
    7
 10
344.12687674400797
 20
171.73798228068401
 40
1.5011458510081199
  0
CIRCLE
  8
_0-5_画層5
  6
CONTINUOUS
 62
    7
 10
329.12783032318998
 20
171.73798228068401
 40
1.5011458510081199
  0
CIRCLE
  8
_0-5_画層5
  6
CONTINUOUS
 62
    7
 10
314.12878390237103
 20
171.73798228068401
 40
1.5011458510081199
  0
CIRCLE
  8
_0-5_画層5
  6
CONTINUOUS
 62
    7
 10
299.13048493825897
 20
171.73798228068401
 40
1.5011458510081199
  0
CIRCLE
  8
_0-5_画層5
  6
CONTINUOUS
 62
    7
 10
269.13274457731097
 20
171.73798228068401
 40
1.5011458510081199
  0
CIRCLE
  8
_0-5_画層5
  6
CONTINUOUS
 62
    7
 10
269.13274457731097
 20
156.74004639967899
 40
1.5011458510081199
  0
CIRCLE
  8
_0-5_画層5
  6
CONTINUOUS
 62
    7
 10
284.13218597414601
 20
156.74004639967899
 40
1.5011458510081199
  0
CIRCLE
  8
_0-5_画層5
  6
CONTINUOUS
 62
    7
 10
284.13218597414601
 20
141.74217914463699
 40
1.5011458510081199
  0
CIRCLE
  8
_0-5_画層5
  6
CONTINUOUS
 62
    7
 10
299.13048493825897
 20
141.74217914463699
 40
1.5011458510081199
  0
CIRCLE
  8
_0-5_画層5
  6
CONTINUOUS
 62
    7
 10
314.12878390237103
 20
141.74217914463699
 40
1.5011458510081199
  0
CIRCLE
  8
_0-5_画層5
  6
CONTINUOUS
 62
    7
 10
329.12783032318998
 20
141.74217914463699
 40
1.5011458510081199
  0
CIRCLE
  8
_0-5_画層5
  6
CONTINUOUS
 62
    7
 10
314.12878390237103
 20
111.74573825010501
 40
1.5011458510081199
  0
CIRCLE
  8
_0-5_画層5
  6
CONTINUOUS
 62
    7
 10
329.12783032318998
 20
111.74573825010501
 40
1.5011458510081199
  0
CIRCLE
  8
_0-5_画層5
  6
CONTINUOUS
 62
    7
 10
344.12687674400797
 20
111.74573825010501
 40
1.5011458510081199
  0
CIRCLE
  8
_0-5_画層5
  6
CONTINUOUS
 62
    7
 10
344.12687674400797
 20
141.74217914463699
 40
1.5011458510081199
  0
CIRCLE
  8
_0-5_画層5
  6
CONTINUOUS
 62
    7
 10
389.120415714525
 20
171.73798228068401
 40
1.5011458510081199
  0
CIRCLE
  8
_0-5_画層5
  6
CONTINUOUS
 62
    7
 10
374.12858774412598
 20
171.73798228068401
 40
1.5011458510081199
  0
CIRCLE
  8
_0-4_画層4
  6
CONTINUOUS
 62
    7
 10
479.12266314726901
 20
356.752087767994
 40
4.2478925039127899
  0
CIRCLE
  8
_0-4_画層4
  6
CONTINUOUS
 62
    7
 10
284.13218597414601
 20
356.752087767994
 40
4.2478925039127899
  0
CIRCLE
  8
_0-4_画層4
  6
CONTINUOUS
 62
    7
 10
518.126274787797
 20
356.752087767994
 40
6.4973774459692999
  0
CIRCLE
  8
_0-4_画層4
  6
CONTINUOUS
 62
    7
 10
464.123708524005
 20
410.749108605684
 40
6.4973774459692999
  0
CIRCLE
  8
_0-4_画層4
  6
CONTINUOUS
 62
    7
 10
245.13498031435
 20
356.752087767994
 40
6.4973774459692999
  0
CIRCLE
  8
_0-4_画層4
  6
CONTINUOUS
 62
    7
 10
299.13048493825897
 20
410.74371838164899
 40
6.4973774459692999
  0
CIRCLE
  8
_0-5_画層5
  6
CONTINUOUS
 62
    7
 10
494.12434929723099
 20
356.752087767994
 40
1.5011458510081199
  0
CIRCLE
  8
_0-5_画層5
  6
CONTINUOUS
 62
    7
 10
494.12434929723099
 20
371.74995504910203
 40
1.5011458510081199
  0
CIRCLE
  8
_0-5_画層5
  6
CONTINUOUS
 62
    7
 10
479.12266314726901
 20
386.747729511692
 40
1.5011458510081199
  0
CIRCLE
  8
_0-5_画層5
  6
CONTINUOUS
 62
    7
 10
479.12266314726901
 20
371.74995504910203
 40
1.5011458510081199
  0
CIRCLE
  8
_0-5_画層5
  6
CONTINUOUS
 62
    7
 10
464.123708524005
 20
356.752087767994
 40
1.5011458510081199
  0
CIRCLE
  8
_0-5_画層5
  6
CONTINUOUS
 62
    7
 10
464.123708524005
 20
386.747729511692
 40
1.5011458510081199
  0
CIRCLE
  8
_0-5_画層5
  6
CONTINUOUS
 62
    7
 10
449.12475390074201
 20
416.74656298910003
 40
1.5011458510081199
  0
CIRCLE
  8
_0-5_画層5
  6
CONTINUOUS
 62
    7
 10
434.123291058679
 20
416.74656298910003
 40
1.5011458510081199
  0
CIRCLE
  8
_0-5_画層5
  6
CONTINUOUS
 62
    7
 10
419.12182821661702
 20
416.74656298910003
 40
1.5011458510081199
  0
CIRCLE
  8
_0-5_画層5
  6
CONTINUOUS
 62
    7
 10
419.12182821661702
 20
386.747729511692
 40
1.5011458510081199
  0
CIRCLE
  8
_0-5_画層5
  6
CONTINUOUS
 62
    7
 10
434.123291058679
 20
386.747729511692
 40
1.5011458510081199
  0
CIRCLE
  8
_0-5_画層5
  6
CONTINUOUS
 62
    7
 10
449.12475390074201
 20
386.747729511692
 40
1.5011458510081199
  0
CIRCLE
  8
_0-5_画層5
  6
CONTINUOUS
 62
    7
 10
449.12475390074201
 20
356.752087767994
 40
1.5011458510081199
  0
CIRCLE
  8
_0-5_画層5
  6
CONTINUOUS
 62
    7
 10
434.123291058679
 20
356.752087767994
 40
1.5011458510081199
  0
CIRCLE
  8
_0-5_画層5
  6
CONTINUOUS
 62
    7
 10
419.12182821661702
 20
356.752087767994
 40
1.5011458510081199
  0
CIRCLE
  8
_0-5_画層5
  6
CONTINUOUS
 62
    7
 10
389.120415714525
 20
356.752087767994
 40
1.5011458510081199
  0
CIRCLE
  8
_0-5_画層5
  6
CONTINUOUS
 62
    7
 10
374.12858774412598
 20
356.752087767994
 40
1.5011458510081199
  0
CIRCLE
  8
_0-5_画層5
  6
CONTINUOUS
 62
    7
 10
344.12687674400797
 20
356.752087767994
 40
1.5011458510081199
  0
CIRCLE
  8
_0-5_画層5
  6
CONTINUOUS
 62
    7
 10
329.12783032318998
 20
356.752087767994
 40
1.5011458510081199
  0
CIRCLE
  8
_0-5_画層5
  6
CONTINUOUS
 62
    7
 10
314.12878390237103
 20
356.752087767994
 40
1.5011458510081199
  0
CIRCLE
  8
_0-5_画層5
  6
CONTINUOUS
 62
    7
 10
299.13048493825897
 20
356.752087767994
 40
1.5011458510081199
  0
CIRCLE
  8
_0-5_画層5
  6
CONTINUOUS
 62
    7
 10
329.12783032318998
 20
386.747729511692
 40
1.5011458510081199
  0
CIRCLE
  8
_0-5_画層5
  6
CONTINUOUS
 62
    7
 10
344.12687674400797
 20
386.747729511692
 40
1.5011458510081199
  0
CIRCLE
  8
_0-5_画層5
  6
CONTINUOUS
 62
    7
 10
344.12687674400797
 20
416.74656298910003
 40
1.5011458510081199
  0
CIRCLE
  8
_0-5_画層5
  6
CONTINUOUS
 62
    7
 10
329.12783032318998
 20
416.74656298910003
 40
1.5011458510081199
  0
CIRCLE
  8
_0-5_画層5
  6
CONTINUOUS
 62
    7
 10
314.12878390237103
 20
416.74656298910003
 40
1.5011458510081199
  0
CIRCLE
  8
_0-5_画層5
  6
CONTINUOUS
 62
    7
 10
314.12878390237103
 20
386.747729511692
 40
1.5011458510081199
  0
CIRCLE
  8
_0-5_画層5
  6
CONTINUOUS
 62
    7
 10
299.13048493825897
 20
386.747729511692
 40
1.5011458510081199
  0
CIRCLE
  8
_0-5_画層5
  6
CONTINUOUS
 62
    7
 10
284.13218597414601
 20
386.747729511692
 40
1.5011458510081199
  0
CIRCLE
  8
_0-5_画層5
  6
CONTINUOUS
 62
    7
 10
284.13218597414601
 20
371.74995504910203
 40
1.5011458510081199
  0
CIRCLE
  8
_0-5_画層5
  6
CONTINUOUS
 62
    7
 10
269.13274457731097
 20
371.74995504910203
 40
1.5011458510081199
  0
CIRCLE
  8
_0-5_画層5
  6
CONTINUOUS
 62
    7
 10
269.13274457731097
 20
356.752087767994
 40
1.5011458510081199
  0
LINE
  8
_0-f_画層15
  6
CONTINUOUS
 62
    7
 10
366.625
 20
189.25
 11
366.625
 21
179.25
  0
LINE
  8
_0-f_画層15
  6
CONTINUOUS
 62
    7
 10
366.625
 20
179.25
 11
306.625
 21
179.25
  0
LINE
  8
_0-f_画層15
  6
CONTINUOUS
 62
    7
 10
306.625
 20
179.25
 11
306.625
 21
189.25
  0
LINE
  8
_0-f_画層15
  6
CONTINUOUS
 62
    7
 10
306.625
 20
189.25
 11
366.625
 21
189.25
  0
LINE
  8
_0-f_画層15
  6
CONTINUOUS
 62
    7
 10
396.625
 20
189.25
 11
396.625
 21
179.25
  0
LINE
  8
_0-f_画層15
  6
CONTINUOUS
 62
    7
 10
396.625
 20
179.25
 11
456.625
 21
179.25
  0
LINE
  8
_0-f_画層15
  6
CONTINUOUS
 62
    7
 10
456.625
 20
189.25
 11
456.625
 21
179.25
  0
LINE
  8
_0-f_画層15
  6
CONTINUOUS
 62
    7
 10
456.625
 20
189.25
 11
396.625
 21
189.25
  0
LINE
  8
_0-f_画層15
  6
CONTINUOUS
 62
    7
 10
396.625
 20
349.25
 11
396.625
 21
339.25
  0
LINE
  8
_0-f_画層15
  6
CONTINUOUS
 62
    7
 10
396.625
 20
339.25
 11
456.625
 21
339.25
  0
LINE
  8
_0-f_画層15
  6
CONTINUOUS
 62
    7
 10
456.625
 20
339.25
 11
456.625
 21
349.25
  0
LINE
  8
_0-f_画層15
  6
CONTINUOUS
 62
    7
 10
456.625
 20
349.25
 11
396.625
 21
349.25
  0
LINE
  8
_0-f_画層15
  6
CONTINUOUS
 62
    7
 10
366.625
 20
349.25
 11
366.625
 21
339.25
  0
LINE
  8
_0-f_画層15
  6
CONTINUOUS
 62
    7
 10
366.625
 20
339.25
 11
306.625
 21
339.25
  0
LINE
  8
_0-f_画層15
  6
CONTINUOUS
 62
    7
 10
306.625
 20
339.25
 11
306.625
 21
349.25
  0
LINE
  8
_0-f_画層15
  6
CONTINUOUS
 62
    7
 10
306.625
 20
349.25
 11
366.625
 21
349.25
  0
CIRCLE
  8
_0-5_画層5
  6
CONTINUOUS
 62
    7
 10
511.62958051464102
 20
339.25
 40
1.4974786108006699
  0
CIRCLE
  8
_0-5_画層5
  6
CONTINUOUS
 62
    7
 10
511.62958051464102
 20
189.25
 40
1.4974786108006699
  0
CIRCLE
  8
_0-5_画層5
  6
CONTINUOUS
 62
    7
 10
251.62975602414002
 20
189.25
 40
1.4974786108006699
  0
CIRCLE
  8
_0-5_画層5
  6
CONTINUOUS
 62
    7
 10
251.62975602414002
 20
339.25
 40
1.4974786108006699
  0
CIRCLE
  8
_0-b_画層11
  6
CONTINUOUS
 62
    7
 10
381.623986856263
 20
134.243355301202
 40
19.002119691389201
  0
CIRCLE
  8
_0-5_画層5
  6
CONTINUOUS
 62
    7
 10
404.37572660823201
 20
134.243355301202
 40
1.5011458510081199
  0
CIRCLE
  8
_0-5_画層5
  6
CONTINUOUS
 62
    7
 10
358.87427339176799
 20
134.243355301202
 40
1.5011458510081199
  0
CIRCLE
  8
_0-5_画層5
  6
CONTINUOUS
 62
    7
 10
381.623986856263
 20
156.99399262397799
 40
1.5011458510081199
  0
CIRCLE
  8
_0-5_画層5
  6
CONTINUOUS
 62
    7
 10
381.623986856263
 20
111.49769182167901
 40
1.5011458510081199
  0
CIRCLE
  8
_0-b_画層11
  6
CONTINUOUS
 62
    7
 10
381.623986856263
 20
394.25042768211898
 40
19.002119691389201
  0
CIRCLE
  8
_0-5_画層5
  6
CONTINUOUS
 62
    7
 10
404.37572660823201
 20
394.25042768211898
 40
1.5011458510081199
  0
CIRCLE
  8
_0-5_画層5
  6
CONTINUOUS
 62
    7
 10
358.87427339176799
 20
394.25042768211898
 40
1.5011458510081199
  0
CIRCLE
  8
_0-5_画層5
  6
CONTINUOUS
 62
    7
 10
381.623986856263
 20
417.001065004895
 40
1.5011458510081199
  0
CIRCLE
  8
_0-5_画層5
  6
CONTINUOUS
 62
    7
 10
381.623986856263
 20
371.50476420259599
 40
1.5011458510081199
  0
LINE
  8
_0-0_画層0
  6
CONTINUOUS
 62
    7
 10
426.625
 20
-30.75
 11
546.625
 21
-30.75
  0
LINE
  8
_0-0_画層0
  6
CONTINUOUS
 62
    7
 10
426.625
 20
-40.75
 11
546.625
 21
-40.75
  0
LINE
  8
_0-0_画層0
  6
CONTINUOUS
 62
    7
 10
426.625
 20
-20.75
 11
546.625
 21
-20.75
  0
LINE
  8
_0-0_画層0
  6
CONTINUOUS
 62
    7
 10
546.625
 20
-20.75
 11
546.625
 21
-50.75
  0
LINE
  8
_0-0_画層0
  6
CONTINUOUS
 62
    7
 10
546.625
 20
-50.75
 11
426.625
 21
-50.75
  0
LINE
  8
_0-0_画層0
  6
CONTINUOUS
 62
    7
 10
426.625
 20
-50.75
 11
426.625
 21
-20.75
  0
LINE
  8
_0-0_画層0
  6
CONTINUOUS
 62
    7
 10
426.625
 20
-60.75
 11
546.625
 21
-60.75
  0
LINE
  8
_0-0_画層0
  6
CONTINUOUS
 62
    7
 10
546.625
 20
-60.75
 11
546.625
 21
-50.75
  0
ARC
  8
_0-5_画層5
  6
CONTINUOUS
 62
    7
 10
274.12790682518403
 20
304.24807993653701
 40
2.0020778836855602
 50
90
 51
270
  0
ARC
  8
_0-5_画層5
  6
CONTINUOUS
 62
    7
 10
274.12790682518403
 20
289.24940495436999
 40
2.0022704113518399
 50
90
 51
270
  0
ARC
  8
_0-5_画層5
  6
CONTINUOUS
 62
    7
 10
299.12834250920901
 20
304.24807993653701
 40
2.0020778836855602
 50
270
 51
90
  0
ARC
  8
_0-5_画層5
  6
CONTINUOUS
 62
    7
 10
299.12834250920901
 20
289.24959748203702
 40
2.0020778836855602
 50
270
 51
90
  0
LINE
  8
_0-5_画層5
  6
CONTINUOUS
 62
    7
 10
274.12790682518403
 20
306.250157820222
 11
299.12834250920901
 21
306.250157820222
  0
LINE
  8
_0-5_画層5
  6
CONTINUOUS
 62
    7
 10
274.12790682518403
 20
302.246002052851
 11
299.12834250920901
 21
302.246002052851
  0
LINE
  8
_0-5_画層5
  6
CONTINUOUS
 62
    7
 10
274.12790682518403
 20
291.25167536572201
 11
299.12834250920901
 21
291.25167536572201
  0
LINE
  8
_0-5_画層5
  6
CONTINUOUS
 62
    7
 10
274.12790682518403
 20
287.247134543019
 11
299.12834250920901
 21
287.247519598351
  0
ARC
  8
_0-5_画層5
  6
CONTINUOUS
 62
    7
 10
274.12790682518403
 20
224.24809131766699
 40
2.0020778836855602
 50
90
 51
270.00000000000023
  0
ARC
  8
_0-5_画層5
  6
CONTINUOUS
 62
    7
 10
274.12790682518403
 20
239.24676629983298
 40
2.0022704113518399
 50
90
 51
270
  0
ARC
  8
_0-5_画層5
  6
CONTINUOUS
 62
    7
 10
299.12834250920901
 20
224.24809131766699
 40
2.0020778836855602
 50
270
 51
90
  0
ARC
  8
_0-5_画層5
  6
CONTINUOUS
 62
    7
 10
299.12834250920901
 20
239.24657377216698
 40
2.0020778836855602
 50
270
 51
90
  0
LINE
  8
_0-5_画層5
  6
CONTINUOUS
 62
    7
 10
274.12790682518403
 20
222.246013433982
 11
299.12834250920901
 21
222.246013433982
  0
LINE
  8
_0-5_画層5
  6
CONTINUOUS
 62
    7
 10
274.12790682518403
 20
226.250169201353
 11
299.12834250920901
 21
226.250169201353
  0
LINE
  8
_0-5_画層5
  6
CONTINUOUS
 62
    7
 10
274.12790682518403
 20
237.24449588848103
 11
299.12834250920901
 21
237.24449588848103
  0
LINE
  8
_0-5_画層5
  6
CONTINUOUS
 62
    7
 10
274.12790682518403
 20
241.249036711185
 11
299.12834250920901
 21
241.248651655853
  0
ARC
  8
_0-5_画層5
  6
CONTINUOUS
 62
    7
 10
489.12963166731095
 20
224.24809131766699
 40
2.0020778836855602
 50
270
 51
90
  0
ARC
  8
_0-5_画層5
  6
CONTINUOUS
 62
    7
 10
489.12963166731095
 20
239.24676629983298
 40
2.0022704113518399
 50
270
 51
90
  0
ARC
  8
_0-5_画層5
  6
CONTINUOUS
 62
    7
 10
464.12919598328699
 20
224.24809131766699
 40
2.0020778836855602
 50
90
 51
270
  0
ARC
  8
_0-5_画層5
  6
CONTINUOUS
 62
    7
 10
464.12919598328699
 20
239.24657377216698
 40
2.0020778836855602
 50
90
 51
270
  0
LINE
  8
_0-5_画層5
  6
CONTINUOUS
 62
    7
 10
489.12963166731095
 20
222.246013433982
 11
464.12919598328699
 21
222.246013433982
  0
LINE
  8
_0-5_画層5
  6
CONTINUOUS
 62
    7
 10
489.12963166731095
 20
226.250169201353
 11
464.12919598328699
 21
226.250169201353
  0
LINE
  8
_0-5_画層5
  6
CONTINUOUS
 62
    7
 10
489.12963166731095
 20
237.24449588848103
 11
464.12919598328699
 21
237.24449588848103
  0
LINE
  8
_0-5_画層5
  6
CONTINUOUS
 62
    7
 10
489.12963166731095
 20
241.249036711185
 11
464.12919598328699
 21
241.248651655853
  0
ARC
  8
_0-5_画層5
  6
CONTINUOUS
 62
    7
 10
489.12963166731095
 20
304.24807993653701
 40
2.0020778836855602
 50
270
 51
90
  0
ARC
  8
_0-5_画層5
  6
CONTINUOUS
 62
    7
 10
489.12963166731095
 20
289.24940495436999
 40
2.0022704113518399
 50
270
 51
90
  0
ARC
  8
_0-5_画層5
  6
CONTINUOUS
 62
    7
 10
464.12919598328699
 20
304.24807993653701
 40
2.0020778836855602
 50
90
 51
270
  0
ARC
  8
_0-5_画層5
  6
CONTINUOUS
 62
    7
 10
464.12919598328699
 20
289.24959748203702
 40
2.0020778836855602
 50
90
 51
270
  0
LINE
  8
_0-5_画層5
  6
CONTINUOUS
 62
    7
 10
489.12963166731095
 20
306.250157820222
 11
464.12919598328699
 21
306.250157820222
  0
LINE
  8
_0-5_画層5
  6
CONTINUOUS
 62
    7
 10
489.12963166731095
 20
302.246002052851
 11
464.12919598328699
 21
302.246002052851
  0
LINE
  8
_0-5_画層5
  6
CONTINUOUS
 62
    7
 10
489.12963166731095
 20
291.25167536572201
 11
464.12919598328699
 21
291.25167536572201
  0
LINE
  8
_0-5_画層5
  6
CONTINUOUS
 62
    7
 10
489.12963166731095
 20
287.247134543019
 11
464.12919598328699
 21
287.247519598351
  0
CIRCLE
  8
_0-5_画層5
  6
CONTINUOUS
 62
    7
 10
274.12790682518403
 20
316.74364841989899
 40
1.5011458510081199
  0
CIRCLE
  8
_0-5_画層5
  6
CONTINUOUS
 62
    7
 10
289.12561648108499
 20
316.74364841989899
 40
1.5011458510081199
  0
CIRCLE
  8
_0-5_画層5
  6
CONTINUOUS
 62
    7
 10
304.129564856581
 20
331.74660237096401
 40
1.5011458510081199
  0
CIRCLE
  8
_0-5_画層5
  6
CONTINUOUS
 62
    7
 10
319.124970264713
 20
331.74660237096401
 40
1.5011458510081199
  0
CIRCLE
  8
_0-5_画層5
  6
CONTINUOUS
 62
    7
 10
319.124970264713
 20
316.74364841989899
 40
1.5011458510081199
  0
CIRCLE
  8
_0-5_画層5
  6
CONTINUOUS
 62
    7
 10
304.129564856581
 20
316.74364841989899
 40
1.5011458510081199
  0
CIRCLE
  8
_0-5_画層5
  6
CONTINUOUS
 62
    7
 10
349.12945399731802
 20
316.74364841989899
 40
1.5011458510081199
  0
CIRCLE
  8
_0-5_画層5
  6
CONTINUOUS
 62
    7
 10
364.132311058499
 20
316.74364841989899
 40
1.5011458510081199
  0
CIRCLE
  8
_0-5_画層5
  6
CONTINUOUS
 62
    7
 10
304.129564856581
 20
271.74597478310898
 40
1.5011458510081199
  0
CIRCLE
  8
_0-5_画層5
  6
CONTINUOUS
 62
    7
 10
319.124970264713
 20
271.74597478310898
 40
1.5011458510081199
  0
CIRCLE
  8
_0-5_画層5
  6
CONTINUOUS
 62
    7
 10
319.124970264713
 20
256.75019647109502
 40
1.5011458510081199
  0
CIRCLE
  8
_0-5_画層5
  6
CONTINUOUS
 62
    7
 10
304.129564856581
 20
256.74901323727499
 40
1.5011458510081199
  0
CIRCLE
  8
_0-5_画層5
  6
CONTINUOUS
 62
    7
 10
364.132311058499
 20
211.75493942567201
 40
1.5011458510081199
  0
CIRCLE
  8
_0-5_画層5
  6
CONTINUOUS
 62
    7
 10
349.12945399731802
 20
211.75493942567201
 40
1.5011458510081199
  0
CIRCLE
  8
_0-5_画層5
  6
CONTINUOUS
 62
    7
 10
319.124970264713
 20
211.75493942567201
 40
1.5011458510081199
  0
CIRCLE
  8
_0-5_画層5
  6
CONTINUOUS
 62
    7
 10
319.124970264713
 20
196.75414069443599
 40
1.5011458510081199
  0
CIRCLE
  8
_0-5_画層5
  6
CONTINUOUS
 62
    7
 10
304.129564856581
 20
196.75707099189299
 40
1.5011458510081199
  0
CIRCLE
  8
_0-5_画層5
  6
CONTINUOUS
 62
    7
 10
304.129564856581
 20
211.75316765097099
 40
1.5011458510081199
  0
CIRCLE
  8
_0-5_画層5
  6
CONTINUOUS
 62
    7
 10
274.12790682518403
 20
211.75493942567201
 40
1.5011458510081199
  0
CIRCLE
  8
_0-5_画層5
  6
CONTINUOUS
 62
    7
 10
289.12561648108499
 20
211.75493942567201
 40
1.5011458510081199
  0
CIRCLE
  8
_0-5_画層5
  6
CONTINUOUS
 62
    7
 10
489.12963166731095
 20
211.74743886935099
 40
1.5011458510081199
  0
CIRCLE
  8
_0-5_画層5
  6
CONTINUOUS
 62
    7
 10
474.13187161484302
 20
211.75493942567201
 40
1.5011458510081199
  0
CIRCLE
  8
_0-5_画層5
  6
CONTINUOUS
 62
    7
 10
459.13024886492201
 20
211.75493942567201
 40
1.5011458510081199
  0
CIRCLE
  8
_0-5_画層5
  6
CONTINUOUS
 62
    7
 10
444.13365028342298
 20
211.75493942567201
 40
1.5011458510081199
  0
CIRCLE
  8
_0-5_画層5
  6
CONTINUOUS
 62
    7
 10
444.13365028342298
 20
196.75216182460599
 40
1.5011458510081199
  0
CIRCLE
  8
_0-5_画層5
  6
CONTINUOUS
 62
    7
 10
459.13024886492201
 20
196.75216182460599
 40
1.5011458510081199
  0
CIRCLE
  8
_0-5_画層5
  6
CONTINUOUS
 62
    7
 10
414.13826134570502
 20
211.75493942567201
 40
1.5011458510081199
  0
CIRCLE
  8
_0-5_画層5
  6
CONTINUOUS
 62
    7
 10
399.14179451264999
 20
211.75493942567201
 40
1.5011458510081199
  0
CIRCLE
  8
_0-5_画層5
  6
CONTINUOUS
 62
    7
 10
444.13365028342298
 20
256.75019647109502
 40
1.5011458510081199
  0
CIRCLE
  8
_0-5_画層5
  6
CONTINUOUS
 62
    7
 10
459.13024886492201
 20
256.75019647109502
 40
1.5011458510081199
  0
CIRCLE
  8
_0-5_画層5
  6
CONTINUOUS
 62
    7
 10
459.13024886492201
 20
271.74597478310898
 40
1.5011458510081199
  0
CIRCLE
  8
_0-5_画層5
  6
CONTINUOUS
 62
    7
 10
444.13365028342298
 20
271.74597478310898
 40
1.5011458510081199
  0
CIRCLE
  8
_0-5_画層5
  6
CONTINUOUS
 62
    7
 10
474.13187161484302
 20
316.74364841989899
 40
1.5011458510081199
  0
CIRCLE
  8
_0-5_画層5
  6
CONTINUOUS
 62
    7
 10
489.12963166731095
 20
316.74364841989899
 40
1.5011458510081199
  0
CIRCLE
  8
_0-5_画層5
  6
CONTINUOUS
 62
    7
 10
459.13024886492201
 20
331.74660237096401
 40
1.5011458510081199
  0
CIRCLE
  8
_0-5_画層5
  6
CONTINUOUS
 62
    7
 10
444.13365028342298
 20
331.74660237096401
 40
1.5011458510081199
  0
CIRCLE
  8
_0-5_画層5
  6
CONTINUOUS
 62
    7
 10
444.13365028342298
 20
316.74364841989899
 40
1.5011458510081199
  0
CIRCLE
  8
_0-5_画層5
  6
CONTINUOUS
 62
    7
 10
459.13024886492201
 20
316.74364841989899
 40
1.5011458510081199
  0
CIRCLE
  8
_0-5_画層5
  6
CONTINUOUS
 62
    7
 10
414.13826134570502
 20
316.74364841989899
 40
1.5011458510081199
  0
CIRCLE
  8
_0-5_画層5
  6
CONTINUOUS
 62
    7
 10
399.14179451264999
 20
316.74364841989899
 40
1.5011458510081199
  0
CIRCLE
  8
_0-5_画層5
  6
CONTINUOUS
 62
    7
 10
359.12773224406698
 20
111.74573825010501
 40
1.5011458510081199
  0
CIRCLE
  8
_0-5_画層5
  6
CONTINUOUS
 62
    7
 10
314.12878390237103
 20
156.74004639967899
 40
1.5011458510081199
  0
CIRCLE
  8
_0-5_画層5
  6
CONTINUOUS
 62
    7
 10
329.12783032318998
 20
156.74004639967899
 40
1.5011458510081199
  0
CIRCLE
  8
_0-5_画層5
  6
CONTINUOUS
 62
    7
 10
359.12773224406698
 20
171.73798228068401
 40
1.5011458510081199
  0
CIRCLE
  8
_0-5_画層5
  6
CONTINUOUS
 62
    7
 10
314.12878390237103
 20
126.74431188959599
 40
1.5011458510081199
  0
CIRCLE
  8
_0-5_画層5
  6
CONTINUOUS
 62
    7
 10
329.12783032318998
 20
126.74431188959599
 40
1.5011458510081199
  0
CIRCLE
  8
_0-5_画層5
  6
CONTINUOUS
 62
    7
 10
404.12112196557098
 20
111.74573825010501
 40
1.5011458510081199
  0
CIRCLE
  8
_0-5_画層5
  6
CONTINUOUS
 62
    7
 10
434.123291058679
 20
126.74431188959599
 40
1.5011458510081199
  0
CIRCLE
  8
_0-5_画層5
  6
CONTINUOUS
 62
    7
 10
449.12475390074201
 20
126.74431188959599
 40
1.5011458510081199
  0
CIRCLE
  8
_0-5_画層5
  6
CONTINUOUS
 62
    7
 10
449.12475390074201
 20
156.74004639967899
 40
1.5011458510081199
  0
CIRCLE
  8
_0-5_画層5
  6
CONTINUOUS
 62
    7
 10
434.123291058679
 20
156.74004639967899
 40
1.5011458510081199
  0
CIRCLE
  8
_0-5_画層5
  6
CONTINUOUS
 62
    7
 10
404.12112196557098
 20
171.73798228068401
 40
1.5011458510081199
  0
CIRCLE
  8
_0-5_画層5
  6
CONTINUOUS
 62
    7
 10
449.12475390074201
 20
401.74550397428197
 40
1.5011458510081199
  0
CIRCLE
  8
_0-5_画層5
  6
CONTINUOUS
 62
    7
 10
434.123291058679
 20
401.74550397428197
 40
1.5011458510081199
  0
CIRCLE
  8
_0-5_画層5
  6
CONTINUOUS
 62
    7
 10
434.123291058679
 20
371.74995504910203
 40
1.5011458510081199
  0
CIRCLE
  8
_0-5_画層5
  6
CONTINUOUS
 62
    7
 10
449.12475390074201
 20
371.74995504910203
 40
1.5011458510081199
  0
CIRCLE
  8
_0-5_画層5
  6
CONTINUOUS
 62
    7
 10
404.12112196557098
 20
356.752087767994
 40
1.5011458510081199
  0
CIRCLE
  8
_0-5_画層5
  6
CONTINUOUS
 62
    7
 10
404.12112196557098
 20
416.74656298910003
 40
1.5011458510081199
  0
CIRCLE
  8
_0-5_画層5
  6
CONTINUOUS
 62
    7
 10
359.12773224406698
 20
416.74656298910003
 40
1.5011458510081199
  0
CIRCLE
  8
_0-5_画層5
  6
CONTINUOUS
 62
    7
 10
329.12783032318998
 20
401.74550397428197
 40
1.5011458510081199
  0
CIRCLE
  8
_0-5_画層5
  6
CONTINUOUS
 62
    7
 10
314.12878390237103
 20
401.74550397428197
 40
1.5011458510081199
  0
CIRCLE
  8
_0-5_画層5
  6
CONTINUOUS
 62
    7
 10
314.12878390237103
 20
371.74995504910203
 40
1.5011458510081199
  0
CIRCLE
  8
_0-5_画層5
  6
CONTINUOUS
 62
    7
 10
329.12783032318998
 20
371.74995504910203
 40
1.5011458510081199
  0
CIRCLE
  8
_0-5_画層5
  6
CONTINUOUS
 62
    7
 10
359.12773224406698
 20
356.752087767994
 40
1.5011458510081199
  0
LINE
  8
_0-1_画層1
  6
DASHDOT
 62
    7
 10
151.04157206688299
 20
264.25
 11
612.62075795205999
 21
264.25
  0
LINE
  8
_0-1_画層1
  6
DASHDOT
 62
    7
 10
381.625
 20
482.44315097118601
 11
381.625
 21
44.772848745995304
  0
CIRCLE
  8
_0-5_画層5
  6
CONTINUOUS
 62
    7
 10
211.62270000000001
 20
269.25
 40
1
  0
CIRCLE
  8
_0-5_画層5
  6
CONTINUOUS
 62
    7
 10
211.62270000000001
 20
259.25
 40
1
  0
CIRCLE
  8
_0-5_画層5
  6
CONTINUOUS
 62
    7
 10
551.62729999999999
 20
269.25
 40
1
  0
CIRCLE
  8
_0-5_画層5
  6
CONTINUOUS
 62
    7
 10
551.62729999999999
 20
259.25
 40
1
  0
CIRCLE
  8
_0-5_画層5
  6
CONTINUOUS
 62
    7
 10
251.62975602414002
 20
331.74660237096401
 40
1.5
  0
CIRCLE
  8
_0-5_画層5
  6
CONTINUOUS
 62
    7
 10
251.62975602414002
 20
316.74364841989899
 40
1.5
  0
CIRCLE
  8
_0-5_画層5
  6
CONTINUOUS
 62
    7
 10
251.62975602414002
 20
271.74597478310898
 40
1.5
  0
CIRCLE
  8
_0-5_画層5
  6
CONTINUOUS
 62
    7
 10
251.62975602414002
 20
256.75019647109502
 40
1.5
  0
CIRCLE
  8
_0-5_画層5
  6
CONTINUOUS
 62
    7
 10
251.62975602414002
 20
211.75316765097099
 40
1.5
  0
CIRCLE
  8
_0-5_画層5
  6
CONTINUOUS
 62
    7
 10
251.62975602414002
 20
196.75707099189299
 40
1.5
  0
CIRCLE
  8
_0-5_画層5
  6
CONTINUOUS
 62
    7
 10
511.62958051464102
 20
196.748554623069
 40
1.5
  0
CIRCLE
  8
_0-5_画層5
  6
CONTINUOUS
 62
    7
 10
511.62958051464102
 20
211.74743886935099
 40
1.5
  0
CIRCLE
  8
_0-5_画層5
  6
CONTINUOUS
 62
    7
 10
511.62958051464102
 20
316.74364841989899
 40
1.5
  0
CIRCLE
  8
_0-5_画層5
  6
CONTINUOUS
 62
    7
 10
511.62958051464102
 20
331.74660237096401
 40
1.5
  0
CIRCLE
  8
_0-5_画層5
  6
CONTINUOUS
 62
    7
 10
236.62975602414002
 20
331.74660237096401
 40
1.5
  0
CIRCLE
  8
_0-5_画層5
  6
CONTINUOUS
 62
    7
 10
236.62975602414002
 20
316.74364841989899
 40
1.5
  0
CIRCLE
  8
_0-5_画層5
  6
CONTINUOUS
 62
    7
 10
236.62975602414002
 20
271.74597478310898
 40
1.5
  0
CIRCLE
  8
_0-5_画層5
  6
CONTINUOUS
 62
    7
 10
236.62975602414002
 20
256.75019647109502
 40
1.5
  0
CIRCLE
  8
_0-5_画層5
  6
CONTINUOUS
 62
    7
 10
236.62975602414002
 20
211.75316765097099
 40
1.5
  0
CIRCLE
  8
_0-5_画層5
  6
CONTINUOUS
 62
    7
 10
236.62975602414002
 20
196.75707099189299
 40
1.5
  0
CIRCLE
  8
_0-5_画層5
  6
CONTINUOUS
 62
    7
 10
236.62975602414002
 20
189.25
 40
1.5
  0
CIRCLE
  8
_0-5_画層5
  6
CONTINUOUS
 62
    7
 10
526.62958051464102
 20
189.25
 40
1.5
  0
CIRCLE
  8
_0-5_画層5
  6
CONTINUOUS
 62
    7
 10
526.62958051464102
 20
196.748554623069
 40
1.5
  0
CIRCLE
  8
_0-5_画層5
  6
CONTINUOUS
 62
    7
 10
526.62958051464102
 20
256.75019647109502
 40
1.5
  0
CIRCLE
  8
_0-5_画層5
  6
CONTINUOUS
 62
    7
 10
526.62958051464102
 20
271.74597478310898
 40
1.5
  0
CIRCLE
  8
_0-5_画層5
  6
CONTINUOUS
 62
    7
 10
526.62958051464102
 20
316.74364841989899
 40
1.5
  0
CIRCLE
  8
_0-5_画層5
  6
CONTINUOUS
 62
    7
 10
526.62958051464102
 20
331.74660237096401
 40
1.5
  0
CIRCLE
  8
_0-5_画層5
  6
CONTINUOUS
 62
    7
 10
526.62958051464102
 20
339.25
 40
1.5
  0
CIRCLE
  8
_0-5_画層5
  6
CONTINUOUS
 62
    7
 10
526.62958051464102
 20
211.74743886935099
 40
1.5
  0
CIRCLE
  8
_0-5_画層5
  6
CONTINUOUS
 62
    7
 10
511.62958051464102
 20
271.74597478310898
 40
1.5
  0
CIRCLE
  8
_0-5_画層5
  6
CONTINUOUS
 62
    7
 10
511.62958051464102
 20
256.75019647109502
 40
1.5
  0
ENDSEC
  0
EOF
